999
DXF file: K:\Client\125_Heirloom\001\00\Final_Data\Drawings\BASINS\kubix-362133_1.dxf
999
Pro/ENGINEER 2017110 by Parametric Technology Corporation
  0
SECTION
  2
HEADER
  9
$EXTMAX
 10
420.0
 20
297.0
 30
0.0
  9
$EXTMIN
 10
0.0
 20
0.0
 30
0.0
  9
$LIMMIN
 10
0.0
 20
0.0
  9
$LIMMAX
 10
420.0
 20
297.0
  9
$VIEWCTR
 10
210.0
 20
148.5
  9
$VIEWSIZE
 40
297.0
  9
$CLAYER
  8
0
  9
$LTSCALE
 40
23.1
  9
$CELTYPE
  6
BYLAYER
  9
$DIMSCALE
 40
1.0
  9
$DIMASZ
 40
3.0
  9
$DIMEXO
 40
1.0
  9
$DIMDLI
 40
15.96
  9
$DIMEXE
 40
1.0
  9
$DIMCEN
 40
3.78
  9
$DIMLFAC
 40
1.0
  9
$DIMBLK
  1
_FILLED
  9
$DIMALT
 70
0
  9
$DIMALTF
 40
0.0393700787
  9
$DIMTXT
 40
3.0
  9
$AUNITS
 70
0
  9
$PDMODE
 70
3
  9
$PDSIZE
 40
5.0
  9
$TILEMODE
 70
1
  0
ENDSEC
  0
SECTION
  2
TABLES
  0
TABLE
  2
LTYPE
 70
6
  0
LTYPE
  2
BYBLOCK
 70
0
  3

 72
65
 73
0
 40
0.0
  0
LTYPE
  2
BYLAYER
 70
0
  3

 72
65
 73
0
 40
0.0
  0
LTYPE
  2
CONTINUOUS
 70
64
  3
Solid line
 72
65
 73
0
 40
0.0
  0
LTYPE
  2
CENTER
 70
64
  3
____ _ ____ _ ____ _ ____ _ ____ _ ____ _ ____
 72
65
 73
4
 40
0.6
 49
0.375
 49
-0.075
 49
0.075
 49
-0.075
  0
LTYPE
  2
HIDDEN
 70
64
  3
- - - - - - - - - - - - - - - - - - - -
 72
65
 73
2
 40
0.2
 49
0.1
 49
-0.1
  0
LTYPE
  2
PHANTOM
 70
64
  3
_____ _ _ _____ _ _ _____ _ _ _____
 72
65
 73
6
 40
0.8
 49
0.45
 49
-0.05
 49
0.1
 49
-0.05
 49
0.1
 49
-0.05
  0
LTYPE
  2
DOT
 70
64
  3
. . . . . . . . . . . . . . . . . . . .
 72
65
 73
2
 40
0.2
 49
0.1
 49
-0.1
  0
LTYPE
  2
DASHED
 70
64
  3
- - - - - - - - - - - - - - - - - - - -
 72
65
 73
2
 40
0.2
 49
0.1
 49
-0.1
  0
ENDTAB
  0
TABLE
  2
LAYER
 70
36
  0
LAYER
  2
0
 70
0
 62
7
  6
CONTINUOUS
  0
LAYER
  2
DEFAULT_1
 70
0
 62
7
  6
CENTER
  0
LAYER
  2
DEFAULT_2
 70
0
 62
8
  6
HIDDEN
  0
LAYER
  2
DEFAULT_3
 70
0
 62
7
  6
PHANTOM
  0
LAYER
  2
0000_BOM
 70
0
 62
7
  6
CONTINUOUS
  0
LAYER
  2
0000_REV_TABLE
 70
0
 62
7
  6
CONTINUOUS
  0
LAYER
  2
0000_STEVENS_NOTE
 70
0
 62
7
  6
CONTINUOUS
  0
LAYER
  2
01_DATUM_PLANES
 70
0
 62
7
  6
CONTINUOUS
  0
LAYER
  2
01_DEF_PLANES
 70
0
 62
7
  6
CONTINUOUS
  0
LAYER
  2
02_DATUM_COS
 70
0
 62
7
  6
CONTINUOUS
  0
LAYER
  2
99_SOLID
 70
0
 62
7
  6
CONTINUOUS
  0
LAYER
  2
CAD-MASTER_ZINC-PL
 70
0
 62
7
  6
CONTINUOUS
  0
LAYER
  2
CURVE
 70
0
 62
7
  6
CONTINUOUS
  0
LAYER
  2
SKEL
 70
0
 62
7
  6
CONTINUOUS
  0
LAYER
  2
SKETCH
 70
0
 62
7
  6
CONTINUOUS
  0
LAYER
  2
SURFACE
 70
0
 62
7
  6
CONTINUOUS
  0
ENDTAB
  0
TABLE
  2
STYLE
 70
1
  0
STYLE
  2
STANDARD
 70
0
 40
0.0
 41
0.75
 50
0.0
 71
0
 42
0.2
  3
txt
  4

  0
STYLE
  2
TEXTSTYLE_1
 70
0
 40
0.0
 41
0.8
 50
0.0
 71
0
 42
0.2
  3
gdt
  4

  0
ENDTAB
  0
ENDSEC
  0
SECTION
  2
BLOCKS
  0
ENDSEC
  0
SECTION
  2
ENTITIES
  0
LINE
  8
0
 62
7
  6
CONTINUOUS
 10
-48.224607958
 20
224.4740194371
 11
-48.224607958
 21
71.9740194371
  0
LINE
  8
0
 62
9
  6
CONTINUOUS
 10
-42.224607958
 20
224.4740194371
 11
-42.224607958
 21
71.9740194371
  0
POLYLINE
  8
0
 62
9
  6
CONTINUOUS
 66
1
 70
0
  0
VERTEX
  8
0
 62
9
  6
CONTINUOUS
 10
-42.224607958
 20
224.4740194371
  0
VERTEX
  8
0
 62
9
  6
CONTINUOUS
 10
-42.2230628749
 20
224.8154586258
  0
VERTEX
  8
0
 62
9
  6
CONTINUOUS
 10
-42.2184149973
 20
225.1563036011
  0
VERTEX
  8
0
 62
9
  6
CONTINUOUS
 10
-42.2106658894
 20
225.4957107774
  0
VERTEX
  8
0
 62
9
  6
CONTINUOUS
 10
-42.1998108588
 20
225.8333791478
  0
VERTEX
  8
0
 62
9
  6
CONTINUOUS
 10
-42.1858243816
 20
226.1691373497
  0
VERTEX
  8
0
 62
9
  6
CONTINUOUS
 10
-42.1687705163
 20
226.5017099485
  0
VERTEX
  8
0
 62
9
  6
CONTINUOUS
 10
-42.1486971115
 20
226.8299118381
  0
VERTEX
  8
0
 62
9
  6
CONTINUOUS
 10
-42.1256272733
 20
227.1533890779
  0
VERTEX
  8
0
 62
9
  6
CONTINUOUS
 10
-42.0995747502
 20
227.4716840983
  0
VERTEX
  8
0
 62
9
  6
CONTINUOUS
 10
-42.0706154632
 20
227.7839211333
  0
VERTEX
  8
0
 62
9
  6
CONTINUOUS
 10
-42.038815935
 20
228.0892488641
  0
VERTEX
  8
0
 62
9
  6
CONTINUOUS
 10
-42.0042181088
 20
228.3872360948
  0
VERTEX
  8
0
 62
9
  6
CONTINUOUS
 10
-41.96685072
 20
228.6774522037
  0
VERTEX
  8
0
 62
9
  6
CONTINUOUS
 10
-41.9268199159
 20
228.9590451309
  0
VERTEX
  8
0
 62
9
  6
CONTINUOUS
 10
-41.8842223954
 20
229.2312027975
  0
VERTEX
  8
0
 62
9
  6
CONTINUOUS
 10
-41.8391152399
 20
229.4935365126
  0
VERTEX
  8
0
 62
9
  6
CONTINUOUS
 10
-41.7915414589
 20
229.7456506583
  0
VERTEX
  8
0
 62
9
  6
CONTINUOUS
 10
-41.741639967
 20
229.9867628297
  0
VERTEX
  8
0
 62
9
  6
CONTINUOUS
 10
-41.6895391545
 20
230.2161504661
  0
VERTEX
  8
0
 62
9
  6
CONTINUOUS
 10
-41.6353136024
 20
230.4334650928
  0
VERTEX
  8
0
 62
9
  6
CONTINUOUS
 10
-41.5790254701
 20
230.6383472796
  0
VERTEX
  8
0
 62
9
  6
CONTINUOUS
 10
-41.5208404122
 20
230.8301398687
  0
VERTEX
  8
0
 62
9
  6
CONTINUOUS
 10
-41.4609124923
 20
231.0082589739
  0
VERTEX
  8
0
 62
9
  6
CONTINUOUS
 10
-41.3993386435
 20
231.1724085924
  0
VERTEX
  8
0
 62
9
  6
CONTINUOUS
 10
-41.3362086201
 20
231.322284345
  0
VERTEX
  8
0
 62
9
  6
CONTINUOUS
 10
-41.2716980222
 20
231.4573986068
  0
VERTEX
  8
0
 62
9
  6
CONTINUOUS
 10
-41.2059667032
 20
231.5773426999
  0
VERTEX
  8
0
 62
9
  6
CONTINUOUS
 10
-41.1391516579
 20
231.681898943
  0
VERTEX
  8
0
 62
9
  6
CONTINUOUS
 10
-41.0713819068
 20
231.7708624593
  0
VERTEX
  8
0
 62
9
  6
CONTINUOUS
 10
-41.0028412263
 20
231.8439041853
  0
VERTEX
  8
0
 62
9
  6
CONTINUOUS
 10
-40.9336848919
 20
231.9008145298
  0
VERTEX
  8
0
 62
9
  6
CONTINUOUS
 10
-40.8641274277
 20
231.9414964351
  0
VERTEX
  8
0
 62
9
  6
CONTINUOUS
 10
-40.7944684018
 20
231.965893859
  0
VERTEX
  8
0
 62
9
  6
CONTINUOUS
 10
-40.724607958
 20
231.9740194371
  0
SEQEND
  0
LINE
  8
0
 62
7
  6
CONTINUOUS
 10
416.775392042
 20
71.9740194371
 11
-48.224607958
 21
71.9740194371
  0
LINE
  8
0
 62
9
  6
CONTINUOUS
 10
-48.224607958
 20
224.4740194371
 11
416.775392042
 21
224.4740194366
  0
LINE
  8
0
 62
7
  6
CONTINUOUS
 10
-40.724607958
 20
231.9740194371
 11
409.275392042
 21
231.9740194371
  0
POLYLINE
  8
0
 62
9
  6
CONTINUOUS
 66
1
 70
0
  0
VERTEX
  8
0
 62
9
  6
CONTINUOUS
 10
409.275392042
 20
231.9740194371
  0
VERTEX
  8
0
 62
9
  6
CONTINUOUS
 10
409.345252519
 20
231.9658938595
  0
VERTEX
  8
0
 62
9
  6
CONTINUOUS
 10
409.4149114821
 20
231.9414964349
  0
VERTEX
  8
0
 62
9
  6
CONTINUOUS
 10
409.4844685873
 20
231.9008145186
  0
VERTEX
  8
0
 62
9
  6
CONTINUOUS
 10
409.5536248669
 20
231.8439041669
  0
VERTEX
  8
0
 62
9
  6
CONTINUOUS
 10
409.6221667187
 20
231.7708624907
  0
VERTEX
  8
0
 62
9
  6
CONTINUOUS
 10
409.6899377029
 20
231.6818990487
  0
VERTEX
  8
0
 62
9
  6
CONTINUOUS
 10
409.7567526899
 20
231.5773428176
  0
VERTEX
  8
0
 62
9
  6
CONTINUOUS
 10
409.8224841474
 20
231.4573987447
  0
VERTEX
  8
0
 62
9
  6
CONTINUOUS
 10
409.8869964801
 20
231.322284625
  0
VERTEX
  8
0
 62
9
  6
CONTINUOUS
 10
409.9501287482
 20
231.1724090771
  0
VERTEX
  8
0
 62
9
  6
CONTINUOUS
 10
410.0117044899
 20
231.0082596531
  0
VERTEX
  8
0
 62
9
  6
CONTINUOUS
 10
410.071634675
 20
230.8301407858
  0
VERTEX
  8
0
 62
9
  6
CONTINUOUS
 10
410.1298229853
 20
230.6383485383
  0
VERTEX
  8
0
 62
9
  6
CONTINUOUS
 10
410.186114823
 20
230.4334667495
  0
VERTEX
  8
0
 62
9
  6
CONTINUOUS
 10
410.2403441941
 20
230.2161525348
  0
VERTEX
  8
0
 62
9
  6
CONTINUOUS
 10
410.2924489694
 20
229.9867653201
  0
VERTEX
  8
0
 62
9
  6
CONTINUOUS
 10
410.3423546866
 20
229.7456535776
  0
VERTEX
  8
0
 62
9
  6
CONTINUOUS
 10
410.3899323504
 20
229.4935398075
  0
VERTEX
  8
0
 62
9
  6
CONTINUOUS
 10
410.4350426319
 20
229.2312063517
  0
VERTEX
  8
0
 62
9
  6
CONTINUOUS
 10
410.4776420695
 20
228.9590487952
  0
VERTEX
  8
0
 62
9
  6
CONTINUOUS
 10
410.5176730569
 20
228.6774557665
  0
VERTEX
  8
0
 62
9
  6
CONTINUOUS
 10
410.555038698
 20
228.387239359
  0
VERTEX
  8
0
 62
9
  6
CONTINUOUS
 10
410.5896326226
 20
228.0892516263
  0
VERTEX
  8
0
 62
9
  6
CONTINUOUS
 10
410.6214256455
 20
227.7839232114
  0
VERTEX
  8
0
 62
9
  6
CONTINUOUS
 10
410.6503744088
 20
227.4716852636
  0
VERTEX
  8
0
 62
9
  6
CONTINUOUS
 10
410.6764150606
 20
227.1533893241
  0
VERTEX
  8
0
 62
9
  6
CONTINUOUS
 10
410.6994742559
 20
226.8299114168
  0
VERTEX
  8
0
 62
9
  6
CONTINUOUS
 10
410.7195371157
 20
226.5017090308
  0
VERTEX
  8
0
 62
9
  6
CONTINUOUS
 10
410.7365780794
 20
226.1691360608
  0
VERTEX
  8
0
 62
9
  6
CONTINUOUS
 10
410.7505558478
 20
225.8333777474
  0
VERTEX
  8
0
 62
9
  6
CONTINUOUS
 10
410.7614140336
 20
225.4957097705
  0
VERTEX
  8
0
 62
9
  6
CONTINUOUS
 10
410.7691723405
 20
225.1563031143
  0
VERTEX
  8
0
 62
9
  6
CONTINUOUS
 10
410.7738317901
 20
224.8154584374
  0
VERTEX
  8
0
 62
9
  6
CONTINUOUS
 10
410.775392042
 20
224.4740194371
  0
SEQEND
  0
LINE
  8
0
 62
9
  6
CONTINUOUS
 10
410.775392042
 20
224.4740194371
 11
410.775392042
 21
71.9740194371
  0
LINE
  8
0
 62
7
  6
CONTINUOUS
 10
416.775392042
 20
224.4740194371
 11
416.775392042
 21
71.9740194371
  0
ARC
  8
0
 62
7
  6
CONTINUOUS
 10
409.275392042
 20
224.4740194371
 40
7.5
 50
0.0
 51
90.0
  0
ARC
  8
0
 62
7
  6
CONTINUOUS
 10
-40.724607958
 20
224.4740194371
 40
7.5
 50
90.0
 51
180.0
  0
ENDSEC
  0
EOF
