999
DXF file: K:\Client\125_Heirloom\001\00\Final_Data\Drawings\BASINS\kubix-362133_2.dxf
999
Pro/ENGINEER 2017110 by Parametric Technology Corporation
  0
SECTION
  2
HEADER
  9
$EXTMAX
 10
420.0
 20
297.0
 30
0.0
  9
$EXTMIN
 10
0.0
 20
0.0
 30
0.0
  9
$LIMMIN
 10
0.0
 20
0.0
  9
$LIMMAX
 10
420.0
 20
297.0
  9
$VIEWCTR
 10
210.0
 20
148.5
  9
$VIEWSIZE
 40
297.0
  9
$CLAYER
  8
0
  9
$LTSCALE
 40
23.1
  9
$CELTYPE
  6
BYLAYER
  9
$DIMSCALE
 40
1.0
  9
$DIMASZ
 40
3.0
  9
$DIMEXO
 40
1.0
  9
$DIMDLI
 40
15.96
  9
$DIMEXE
 40
1.0
  9
$DIMCEN
 40
3.78
  9
$DIMLFAC
 40
1.0
  9
$DIMBLK
  1
_FILLED
  9
$DIMALT
 70
0
  9
$DIMALTF
 40
0.0393700787
  9
$DIMTXT
 40
3.0
  9
$AUNITS
 70
0
  9
$PDMODE
 70
3
  9
$PDSIZE
 40
5.0
  9
$TILEMODE
 70
1
  0
ENDSEC
  0
SECTION
  2
TABLES
  0
TABLE
  2
LTYPE
 70
6
  0
LTYPE
  2
BYBLOCK
 70
0
  3

 72
65
 73
0
 40
0.0
  0
LTYPE
  2
BYLAYER
 70
0
  3

 72
65
 73
0
 40
0.0
  0
LTYPE
  2
CONTINUOUS
 70
64
  3
Solid line
 72
65
 73
0
 40
0.0
  0
LTYPE
  2
CENTER
 70
64
  3
____ _ ____ _ ____ _ ____ _ ____ _ ____ _ ____
 72
65
 73
4
 40
0.6
 49
0.375
 49
-0.075
 49
0.075
 49
-0.075
  0
LTYPE
  2
HIDDEN
 70
64
  3
- - - - - - - - - - - - - - - - - - - -
 72
65
 73
2
 40
0.2
 49
0.1
 49
-0.1
  0
LTYPE
  2
PHANTOM
 70
64
  3
_____ _ _ _____ _ _ _____ _ _ _____
 72
65
 73
6
 40
0.8
 49
0.45
 49
-0.05
 49
0.1
 49
-0.05
 49
0.1
 49
-0.05
  0
LTYPE
  2
DOT
 70
64
  3
. . . . . . . . . . . . . . . . . . . .
 72
65
 73
2
 40
0.2
 49
0.1
 49
-0.1
  0
LTYPE
  2
DASHED
 70
64
  3
- - - - - - - - - - - - - - - - - - - -
 72
65
 73
2
 40
0.2
 49
0.1
 49
-0.1
  0
ENDTAB
  0
TABLE
  2
LAYER
 70
36
  0
LAYER
  2
0
 70
0
 62
7
  6
CONTINUOUS
  0
LAYER
  2
DEFAULT_1
 70
0
 62
7
  6
CENTER
  0
LAYER
  2
DEFAULT_2
 70
0
 62
8
  6
HIDDEN
  0
LAYER
  2
DEFAULT_3
 70
0
 62
7
  6
PHANTOM
  0
LAYER
  2
0000_BOM
 70
0
 62
7
  6
CONTINUOUS
  0
LAYER
  2
0000_REV_TABLE
 70
0
 62
7
  6
CONTINUOUS
  0
LAYER
  2
0000_STEVENS_NOTE
 70
0
 62
7
  6
CONTINUOUS
  0
LAYER
  2
01_DATUM_PLANES
 70
0
 62
7
  6
CONTINUOUS
  0
LAYER
  2
01_DEF_PLANES
 70
0
 62
7
  6
CONTINUOUS
  0
LAYER
  2
02_DATUM_COS
 70
0
 62
7
  6
CONTINUOUS
  0
LAYER
  2
99_SOLID
 70
0
 62
7
  6
CONTINUOUS
  0
LAYER
  2
CAD-MASTER_ZINC-PL
 70
0
 62
7
  6
CONTINUOUS
  0
LAYER
  2
CURVE
 70
0
 62
7
  6
CONTINUOUS
  0
LAYER
  2
SKEL
 70
0
 62
7
  6
CONTINUOUS
  0
LAYER
  2
SKETCH
 70
0
 62
7
  6
CONTINUOUS
  0
LAYER
  2
SURFACE
 70
0
 62
7
  6
CONTINUOUS
  0
ENDTAB
  0
TABLE
  2
STYLE
 70
1
  0
STYLE
  2
STANDARD
 70
0
 40
0.0
 41
0.75
 50
0.0
 71
0
 42
0.2
  3
txt
  4

  0
STYLE
  2
TEXTSTYLE_1
 70
0
 40
0.0
 41
0.8
 50
0.0
 71
0
 42
0.2
  3
gdt
  4

  0
ENDTAB
  0
ENDSEC
  0
SECTION
  2
BLOCKS
  0
ENDSEC
  0
SECTION
  2
ENTITIES
  0
LINE
  8
0
 62
7
  6
CONTINUOUS
 10
-54.2926730265
 20
225.0808259439
 11
-54.2926730265
 21
72.5808259439
  0
LINE
  8
0
 62
7
  6
CONTINUOUS
 10
-48.2926730265
 20
225.0808259439
 11
-48.2926730265
 21
72.5808259439
  0
POLYLINE
  8
0
 62
7
  6
CONTINUOUS
 66
1
 70
0
  0
VERTEX
  8
0
 62
7
  6
CONTINUOUS
 10
-48.2926730265
 20
225.0808259439
  0
VERTEX
  8
0
 62
7
  6
CONTINUOUS
 10
-48.2911279433
 20
225.4222651326
  0
VERTEX
  8
0
 62
7
  6
CONTINUOUS
 10
-48.2864800657
 20
225.763110108
  0
VERTEX
  8
0
 62
7
  6
CONTINUOUS
 10
-48.2787309579
 20
226.1025172843
  0
VERTEX
  8
0
 62
7
  6
CONTINUOUS
 10
-48.2678759273
 20
226.4401856546
  0
VERTEX
  8
0
 62
7
  6
CONTINUOUS
 10
-48.2538894501
 20
226.7759438566
  0
VERTEX
  8
0
 62
7
  6
CONTINUOUS
 10
-48.2368355848
 20
227.1085164553
  0
VERTEX
  8
0
 62
7
  6
CONTINUOUS
 10
-48.21676218
 20
227.4367183449
  0
VERTEX
  8
0
 62
7
  6
CONTINUOUS
 10
-48.1936923418
 20
227.7601955848
  0
VERTEX
  8
0
 62
7
  6
CONTINUOUS
 10
-48.1676398187
 20
228.0784906051
  0
VERTEX
  8
0
 62
7
  6
CONTINUOUS
 10
-48.1386805317
 20
228.3907276402
  0
VERTEX
  8
0
 62
7
  6
CONTINUOUS
 10
-48.1068810034
 20
228.6960553709
  0
VERTEX
  8
0
 62
7
  6
CONTINUOUS
 10
-48.0722831773
 20
228.9940426017
  0
VERTEX
  8
0
 62
7
  6
CONTINUOUS
 10
-48.0349157885
 20
229.2842587105
  0
VERTEX
  8
0
 62
7
  6
CONTINUOUS
 10
-47.9948849844
 20
229.5658516378
  0
VERTEX
  8
0
 62
7
  6
CONTINUOUS
 10
-47.9522874639
 20
229.8380093044
  0
VERTEX
  8
0
 62
7
  6
CONTINUOUS
 10
-47.9071803084
 20
230.1003430194
  0
VERTEX
  8
0
 62
7
  6
CONTINUOUS
 10
-47.8596065274
 20
230.3524571652
  0
VERTEX
  8
0
 62
7
  6
CONTINUOUS
 10
-47.8097050355
 20
230.5935693365
  0
VERTEX
  8
0
 62
7
  6
CONTINUOUS
 10
-47.757604223
 20
230.822956973
  0
VERTEX
  8
0
 62
7
  6
CONTINUOUS
 10
-47.7033786709
 20
231.0402715996
  0
VERTEX
  8
0
 62
7
  6
CONTINUOUS
 10
-47.6470905386
 20
231.2451537864
  0
VERTEX
  8
0
 62
7
  6
CONTINUOUS
 10
-47.5889054807
 20
231.4369463755
  0
VERTEX
  8
0
 62
7
  6
CONTINUOUS
 10
-47.5289775608
 20
231.6150654807
  0
VERTEX
  8
0
 62
7
  6
CONTINUOUS
 10
-47.467403712
 20
231.7792150993
  0
VERTEX
  8
0
 62
7
  6
CONTINUOUS
 10
-47.4042736886
 20
231.9290908518
  0
VERTEX
  8
0
 62
7
  6
CONTINUOUS
 10
-47.3397630907
 20
232.0642051136
  0
VERTEX
  8
0
 62
7
  6
CONTINUOUS
 10
-47.2740317717
 20
232.1841492067
  0
VERTEX
  8
0
 62
7
  6
CONTINUOUS
 10
-47.2072167264
 20
232.2887054498
  0
VERTEX
  8
0
 62
7
  6
CONTINUOUS
 10
-47.1394469752
 20
232.3776689662
  0
VERTEX
  8
0
 62
7
  6
CONTINUOUS
 10
-47.0709062948
 20
232.4507106922
  0
VERTEX
  8
0
 62
7
  6
CONTINUOUS
 10
-47.0017499604
 20
232.5076210367
  0
VERTEX
  8
0
 62
7
  6
CONTINUOUS
 10
-46.9321924962
 20
232.5483029419
  0
VERTEX
  8
0
 62
7
  6
CONTINUOUS
 10
-46.8625334703
 20
232.5727003658
  0
VERTEX
  8
0
 62
7
  6
CONTINUOUS
 10
-46.7926730265
 20
232.5808259439
  0
SEQEND
  0
LINE
  8
0
 62
7
  6
CONTINUOUS
 10
410.7073269735
 20
72.5808259439
 11
-54.2926730265
 21
72.5808259439
  0
LINE
  8
0
 62
7
  6
CONTINUOUS
 10
-54.2926730265
 20
225.0808259439
 11
410.7073269735
 21
225.0808259434
  0
LINE
  8
0
 62
7
  6
CONTINUOUS
 10
-46.7926730265
 20
232.5808259439
 11
403.2073269735
 21
232.5808259439
  0
POLYLINE
  8
0
 62
7
  6
CONTINUOUS
 66
1
 70
0
  0
VERTEX
  8
0
 62
7
  6
CONTINUOUS
 10
403.2073269735
 20
232.5808259439
  0
VERTEX
  8
0
 62
7
  6
CONTINUOUS
 10
403.2771874505
 20
232.5727003663
  0
VERTEX
  8
0
 62
7
  6
CONTINUOUS
 10
403.3468464136
 20
232.5483029418
  0
VERTEX
  8
0
 62
7
  6
CONTINUOUS
 10
403.4164035188
 20
232.5076210254
  0
VERTEX
  8
0
 62
7
  6
CONTINUOUS
 10
403.4855597984
 20
232.4507106738
  0
VERTEX
  8
0
 62
7
  6
CONTINUOUS
 10
403.5541016502
 20
232.3776689976
  0
VERTEX
  8
0
 62
7
  6
CONTINUOUS
 10
403.6218726344
 20
232.2887055555
  0
VERTEX
  8
0
 62
7
  6
CONTINUOUS
 10
403.6886876214
 20
232.1841493244
  0
VERTEX
  8
0
 62
7
  6
CONTINUOUS
 10
403.7544190789
 20
232.0642052515
  0
VERTEX
  8
0
 62
7
  6
CONTINUOUS
 10
403.8189314116
 20
231.9290911319
  0
VERTEX
  8
0
 62
7
  6
CONTINUOUS
 10
403.8820636797
 20
231.7792155839
  0
VERTEX
  8
0
 62
7
  6
CONTINUOUS
 10
403.9436394214
 20
231.61506616
  0
VERTEX
  8
0
 62
7
  6
CONTINUOUS
 10
404.0035696065
 20
231.4369472927
  0
VERTEX
  8
0
 62
7
  6
CONTINUOUS
 10
404.0617579168
 20
231.2451550452
  0
VERTEX
  8
0
 62
7
  6
CONTINUOUS
 10
404.1180497545
 20
231.0402732563
  0
VERTEX
  8
0
 62
7
  6
CONTINUOUS
 10
404.1722791256
 20
230.8229590417
  0
VERTEX
  8
0
 62
7
  6
CONTINUOUS
 10
404.2243839009
 20
230.5935718269
  0
VERTEX
  8
0
 62
7
  6
CONTINUOUS
 10
404.2742896181
 20
230.3524600845
  0
VERTEX
  8
0
 62
7
  6
CONTINUOUS
 10
404.3218672819
 20
230.1003463143
  0
VERTEX
  8
0
 62
7
  6
CONTINUOUS
 10
404.3669775634
 20
229.8380128586
  0
VERTEX
  8
0
 62
7
  6
CONTINUOUS
 10
404.409577001
 20
229.565855302
  0
VERTEX
  8
0
 62
7
  6
CONTINUOUS
 10
404.4496079885
 20
229.2842622733
  0
VERTEX
  8
0
 62
7
  6
CONTINUOUS
 10
404.4869736295
 20
228.9940458658
  0
VERTEX
  8
0
 62
7
  6
CONTINUOUS
 10
404.5215675541
 20
228.6960581331
  0
VERTEX
  8
0
 62
7
  6
CONTINUOUS
 10
404.553360577
 20
228.3907297183
  0
VERTEX
  8
0
 62
7
  6
CONTINUOUS
 10
404.5823093403
 20
228.0784917705
  0
VERTEX
  8
0
 62
7
  6
CONTINUOUS
 10
404.6083499921
 20
227.7601958309
  0
VERTEX
  8
0
 62
7
  6
CONTINUOUS
 10
404.6314091874
 20
227.4367179237
  0
VERTEX
  8
0
 62
7
  6
CONTINUOUS
 10
404.6514720473
 20
227.1085155376
  0
VERTEX
  8
0
 62
7
  6
CONTINUOUS
 10
404.6685130109
 20
226.7759425677
  0
VERTEX
  8
0
 62
7
  6
CONTINUOUS
 10
404.6824907793
 20
226.4401842542
  0
VERTEX
  8
0
 62
7
  6
CONTINUOUS
 10
404.6933489651
 20
226.1025162774
  0
VERTEX
  8
0
 62
7
  6
CONTINUOUS
 10
404.701107272
 20
225.7631096212
  0
VERTEX
  8
0
 62
7
  6
CONTINUOUS
 10
404.7057667216
 20
225.4222649442
  0
VERTEX
  8
0
 62
7
  6
CONTINUOUS
 10
404.7073269735
 20
225.0808259439
  0
SEQEND
  0
LINE
  8
0
 62
7
  6
CONTINUOUS
 10
404.7073269735
 20
225.0808259439
 11
404.7073269735
 21
72.5808259439
  0
LINE
  8
0
 62
7
  6
CONTINUOUS
 10
410.7073269735
 20
225.0808259439
 11
410.7073269735
 21
72.5808259439
  0
ARC
  8
0
 62
7
  6
CONTINUOUS
 10
-46.7926730265
 20
225.0808259439
 40
7.5
 50
90.0
 51
180.0
  0
ARC
  8
0
 62
7
  6
CONTINUOUS
 10
403.2073269735
 20
225.0808259439
 40
7.5
 50
0.0
 51
90.0
  0
ENDSEC
  0
EOF
