999
DXF file: K:\Client\125_Heirloom\001\00\Final_Data\Drawings\BASINS\lineal-362111_1.dxf
999
Pro/ENGINEER 2017110 by Parametric Technology Corporation
  0
SECTION
  2
HEADER
  9
$EXTMAX
 10
420.0
 20
297.0
 30
0.0
  9
$EXTMIN
 10
0.0
 20
0.0
 30
0.0
  9
$LIMMIN
 10
0.0
 20
0.0
  9
$LIMMAX
 10
420.0
 20
297.0
  9
$VIEWCTR
 10
210.0
 20
148.5
  9
$VIEWSIZE
 40
297.0
  9
$CLAYER
  8
0
  9
$LTSCALE
 40
23.1
  9
$CELTYPE
  6
BYLAYER
  9
$DIMSCALE
 40
1.0
  9
$DIMASZ
 40
3.0
  9
$DIMEXO
 40
1.0
  9
$DIMDLI
 40
15.96
  9
$DIMEXE
 40
1.0
  9
$DIMCEN
 40
3.78
  9
$DIMLFAC
 40
1.0
  9
$DIMBLK
  1
_FILLED
  9
$DIMALT
 70
0
  9
$DIMALTF
 40
0.0393700787
  9
$DIMTXT
 40
3.0
  9
$AUNITS
 70
0
  9
$PDMODE
 70
3
  9
$PDSIZE
 40
5.0
  9
$TILEMODE
 70
1
  0
ENDSEC
  0
SECTION
  2
TABLES
  0
TABLE
  2
LTYPE
 70
6
  0
LTYPE
  2
BYBLOCK
 70
0
  3

 72
65
 73
0
 40
0.0
  0
LTYPE
  2
BYLAYER
 70
0
  3

 72
65
 73
0
 40
0.0
  0
LTYPE
  2
CONTINUOUS
 70
64
  3
Solid line
 72
65
 73
0
 40
0.0
  0
LTYPE
  2
CENTER
 70
64
  3
____ _ ____ _ ____ _ ____ _ ____ _ ____ _ ____
 72
65
 73
4
 40
0.6
 49
0.375
 49
-0.075
 49
0.075
 49
-0.075
  0
LTYPE
  2
HIDDEN
 70
64
  3
- - - - - - - - - - - - - - - - - - - -
 72
65
 73
2
 40
0.2
 49
0.1
 49
-0.1
  0
LTYPE
  2
PHANTOM
 70
64
  3
_____ _ _ _____ _ _ _____ _ _ _____
 72
65
 73
6
 40
0.8
 49
0.45
 49
-0.05
 49
0.1
 49
-0.05
 49
0.1
 49
-0.05
  0
LTYPE
  2
DOT
 70
64
  3
. . . . . . . . . . . . . . . . . . . .
 72
65
 73
2
 40
0.2
 49
0.1
 49
-0.1
  0
LTYPE
  2
DASHED
 70
64
  3
- - - - - - - - - - - - - - - - - - - -
 72
65
 73
2
 40
0.2
 49
0.1
 49
-0.1
  0
ENDTAB
  0
TABLE
  2
LAYER
 70
36
  0
LAYER
  2
0
 70
0
 62
7
  6
CONTINUOUS
  0
LAYER
  2
DEFAULT_1
 70
0
 62
7
  6
CENTER
  0
LAYER
  2
DEFAULT_2
 70
0
 62
8
  6
HIDDEN
  0
LAYER
  2
DEFAULT_3
 70
0
 62
7
  6
PHANTOM
  0
LAYER
  2
0000_BOM
 70
0
 62
7
  6
CONTINUOUS
  0
LAYER
  2
0000_REV_TABLE
 70
0
 62
7
  6
CONTINUOUS
  0
LAYER
  2
0000_STEVENS_NOTE
 70
0
 62
7
  6
CONTINUOUS
  0
LAYER
  2
01_DATUM_PLANES
 70
0
 62
7
  6
CONTINUOUS
  0
LAYER
  2
01_DEF_PLANES
 70
0
 62
7
  6
CONTINUOUS
  0
LAYER
  2
02_DATUM_COS
 70
0
 62
7
  6
CONTINUOUS
  0
LAYER
  2
90_IMP_FEAT
 70
0
 62
7
  6
CONTINUOUS
  0
LAYER
  2
95_STL
 70
0
 62
7
  6
CONTINUOUS
  0
LAYER
  2
99_SOLID
 70
0
 62
7
  6
CONTINUOUS
  0
LAYER
  2
CAD-MASTER_ZINC-PL
 70
0
 62
7
  6
CONTINUOUS
  0
LAYER
  2
CURVE
 70
0
 62
7
  6
CONTINUOUS
  0
LAYER
  2
SKEL
 70
0
 62
7
  6
CONTINUOUS
  0
LAYER
  2
SKETCH
 70
0
 62
7
  6
CONTINUOUS
  0
LAYER
  2
SURFACE
 70
0
 62
7
  6
CONTINUOUS
  0
ENDTAB
  0
TABLE
  2
STYLE
 70
1
  0
STYLE
  2
STANDARD
 70
0
 40
0.0
 41
0.75
 50
0.0
 71
0
 42
0.2
  3
txt
  4

  0
STYLE
  2
TEXTSTYLE_1
 70
0
 40
0.0
 41
0.8
 50
0.0
 71
0
 42
0.2
  3
gdt
  4

  0
ENDTAB
  0
ENDSEC
  0
SECTION
  2
BLOCKS
  0
ENDSEC
  0
SECTION
  2
ENTITIES
  0
POLYLINE
  8
0
 62
7
  6
CONTINUOUS
 66
1
 70
0
  0
VERTEX
  8
0
 62
7
  6
CONTINUOUS
 10
-72.0841540891
 20
221.3459636781
  0
VERTEX
  8
0
 62
7
  6
CONTINUOUS
 10
-71.2017578419
 20
211.1535452318
  0
VERTEX
  8
0
 62
7
  6
CONTINUOUS
 10
-69.9699711785
 20
200.0053961899
  0
VERTEX
  8
0
 62
7
  6
CONTINUOUS
 10
-68.5936716382
 20
189.6410761396
  0
VERTEX
  8
0
 62
7
  6
CONTINUOUS
 10
-67.1595123159
 20
180.1647254586
  0
VERTEX
  8
0
 62
7
  6
CONTINUOUS
 10
-65.7508754192
 20
171.7602113755
  0
VERTEX
  8
0
 62
7
  6
CONTINUOUS
 10
-64.3579808334
 20
164.170430836
  0
VERTEX
  8
0
 62
7
  6
CONTINUOUS
 10
-62.9612026869
 20
157.2357074168
  0
VERTEX
  8
0
 62
7
  6
CONTINUOUS
 10
-61.5473341403
 20
150.8890628914
  0
VERTEX
  8
0
 62
7
  6
CONTINUOUS
 10
-60.0866763026
 20
145.0277903951
  0
VERTEX
  8
0
 62
7
  6
CONTINUOUS
 10
-58.5661479656
 20
139.613290391
  0
VERTEX
  8
0
 62
7
  6
CONTINUOUS
 10
-56.965454362
 20
134.5786433384
  0
VERTEX
  8
0
 62
7
  6
CONTINUOUS
 10
-55.2818701184
 20
129.9044489866
  0
VERTEX
  8
0
 62
7
  6
CONTINUOUS
 10
-53.5076950188
 20
125.5518859705
  0
VERTEX
  8
0
 62
7
  6
CONTINUOUS
 10
-51.6486330475
 20
121.508416777
  0
VERTEX
  8
0
 62
7
  6
CONTINUOUS
 10
-49.7124572337
 20
117.7516742141
  0
VERTEX
  8
0
 62
7
  6
CONTINUOUS
 10
-47.7128305598
 20
114.2637816904
  0
VERTEX
  8
0
 62
7
  6
CONTINUOUS
 10
-45.6549579131
 20
111.0131549798
  0
VERTEX
  8
0
 62
7
  6
CONTINUOUS
 10
-43.5783077876
 20
108.0157931588
  0
VERTEX
  8
0
 62
7
  6
CONTINUOUS
 10
-41.5088454271
 20
105.2612121544
  0
VERTEX
  8
0
 62
7
  6
CONTINUOUS
 10
-39.513648986
 20
102.7899547908
  0
VERTEX
  8
0
 62
7
  6
CONTINUOUS
 10
-37.7056211985
 20
100.6838749896
  0
VERTEX
  8
0
 62
7
  6
CONTINUOUS
 10
-36.0033154253
 20
98.8013115877
  0
VERTEX
  8
0
 62
7
  6
CONTINUOUS
 10
-34.3170811562
 20
97.0209948437
  0
VERTEX
  8
0
 62
7
  6
CONTINUOUS
 10
-32.7050722177
 20
95.3888691231
  0
VERTEX
  8
0
 62
7
  6
CONTINUOUS
 10
-31.1908732851
 20
93.9113381407
  0
VERTEX
  8
0
 62
7
  6
CONTINUOUS
 10
-29.7857655274
 20
92.5836051632
  0
VERTEX
  8
0
 62
7
  6
CONTINUOUS
 10
-28.5365235042
 20
91.4348332226
  0
VERTEX
  8
0
 62
7
  6
CONTINUOUS
 10
-27.3546354685
 20
90.372893264
  0
VERTEX
  8
0
 62
7
  6
CONTINUOUS
 10
-26.2073949235
 20
89.3633176587
  0
VERTEX
  8
0
 62
7
  6
CONTINUOUS
 10
-24.9480191213
 20
88.2784569282
  0
VERTEX
  8
0
 62
7
  6
CONTINUOUS
 10
-23.3980458416
 20
86.9763273066
  0
VERTEX
  8
0
 62
7
  6
CONTINUOUS
 10
-21.5834378219
 20
85.4970923139
  0
VERTEX
  8
0
 62
7
  6
CONTINUOUS
 10
-19.466012419
 20
83.831438078
  0
VERTEX
  8
0
 62
7
  6
CONTINUOUS
 10
-17.0820658296
 20
82.0336249991
  0
VERTEX
  8
0
 62
7
  6
CONTINUOUS
 10
-14.778574326
 20
80.3751688173
  0
SEQEND
  0
POLYLINE
  8
0
 62
9
  6
CONTINUOUS
 66
1
 70
0
  0
VERTEX
  8
0
 62
9
  6
CONTINUOUS
 10
-69.0977243685
 20
221.2781043155
  0
VERTEX
  8
0
 62
9
  6
CONTINUOUS
 10
-68.3699676862
 20
211.9263168687
  0
VERTEX
  8
0
 62
9
  6
CONTINUOUS
 10
-67.4078255795
 20
202.9504305381
  0
VERTEX
  8
0
 62
9
  6
CONTINUOUS
 10
-66.2593921272
 20
194.3710202757
  0
VERTEX
  8
0
 62
9
  6
CONTINUOUS
 10
-64.9810823988
 20
186.220321157
  0
VERTEX
  8
0
 62
9
  6
CONTINUOUS
 10
-63.6305914168
 20
178.535523934
  0
VERTEX
  8
0
 62
9
  6
CONTINUOUS
 10
-62.2376179441
 20
171.2932052397
  0
VERTEX
  8
0
 62
9
  6
CONTINUOUS
 10
-60.8248942683
 20
164.4967314618
  0
VERTEX
  8
0
 62
9
  6
CONTINUOUS
 10
-59.3954249222
 20
158.0923095625
  0
VERTEX
  8
0
 62
9
  6
CONTINUOUS
 10
-57.9247314144
 20
152.0177501644
  0
VERTEX
  8
0
 62
9
  6
CONTINUOUS
 10
-56.4071767714
 20
146.2985768129
  0
VERTEX
  8
0
 62
9
  6
CONTINUOUS
 10
-54.8372913128
 20
140.9349794702
  0
VERTEX
  8
0
 62
9
  6
CONTINUOUS
 10
-53.208999805
 20
135.9252900075
  0
VERTEX
  8
0
 62
9
  6
CONTINUOUS
 10
-51.52562186
 20
131.2824943001
  0
VERTEX
  8
0
 62
9
  6
CONTINUOUS
 10
-49.7794755297
 20
126.9498934798
  0
VERTEX
  8
0
 62
9
  6
CONTINUOUS
 10
-47.9644090847
 20
122.8900227004
  0
VERTEX
  8
0
 62
9
  6
CONTINUOUS
 10
-46.0685021734
 20
119.0559132528
  0
VERTEX
  8
0
 62
9
  6
CONTINUOUS
 10
-44.0789944219
 20
115.4033510742
  0
VERTEX
  8
0
 62
9
  6
CONTINUOUS
 10
-41.9814420807
 20
111.8944254761
  0
VERTEX
  8
0
 62
9
  6
CONTINUOUS
 10
-39.7559698083
 20
108.4896799829
  0
VERTEX
  8
0
 62
9
  6
CONTINUOUS
 10
-37.3848920277
 20
105.1617807217
  0
VERTEX
  8
0
 62
9
  6
CONTINUOUS
 10
-34.837541311
 20
101.8727793805
  0
VERTEX
  8
0
 62
9
  6
CONTINUOUS
 10
-32.1142177282
 20
98.6311820599
  0
VERTEX
  8
0
 62
9
  6
CONTINUOUS
 10
-29.2060650816
 20
95.4318050531
  0
VERTEX
  8
0
 62
9
  6
CONTINUOUS
 10
-26.1143994397
 20
92.2804093575
  0
VERTEX
  8
0
 62
9
  6
CONTINUOUS
 10
-22.8292693929
 20
89.1712158909
  0
VERTEX
  8
0
 62
9
  6
CONTINUOUS
 10
-19.3812234682
 20
86.1340712435
  0
VERTEX
  8
0
 62
9
  6
CONTINUOUS
 10
-15.8034335598
 20
83.2000258285
  0
VERTEX
  8
0
 62
9
  6
CONTINUOUS
 10
-12.0876753695
 20
80.3748365691
  0
SEQEND
  0
LINE
  8
0
 62
7
  6
CONTINUOUS
 10
-72.0840901929
 20
221.3455076638
 11
-72.0841540891
 21
221.3459636781
  0
LINE
  8
0
 62
9
  6
CONTINUOUS
 10
22.1098869613
 20
101.802694522
 11
23.1792622631
 21
91.621834822
  0
POLYLINE
  8
0
 62
9
  6
CONTINUOUS
 66
1
 70
0
  0
VERTEX
  8
0
 62
9
  6
CONTINUOUS
 10
24.3529445629
 20
80.3738306953
  0
VERTEX
  8
0
 62
9
  6
CONTINUOUS
 10
23.9025953654
 20
84.7038172339
  0
VERTEX
  8
0
 62
9
  6
CONTINUOUS
 10
23.1792622631
 20
91.621834822
  0
SEQEND
  0
POLYLINE
  8
0
 62
9
  6
CONTINUOUS
 66
1
 70
0
  0
VERTEX
  8
0
 62
9
  6
CONTINUOUS
 10
8.7921474749
 20
220.9317170113
  0
VERTEX
  8
0
 62
9
  6
CONTINUOUS
 10
10.7404545341
 20
203.8322536672
  0
VERTEX
  8
0
 62
9
  6
CONTINUOUS
 10
12.5818202912
 20
187.6378229871
  0
VERTEX
  8
0
 62
9
  6
CONTINUOUS
 10
14.314878272
 20
172.3230546436
  0
VERTEX
  8
0
 62
9
  6
CONTINUOUS
 10
15.932265914
 20
157.9310208707
  0
VERTEX
  8
0
 62
9
  6
CONTINUOUS
 10
17.4330603574
 20
144.4666735657
  0
VERTEX
  8
0
 62
9
  6
CONTINUOUS
 10
18.8103443533
 20
132.0559791479
  0
VERTEX
  8
0
 62
9
  6
CONTINUOUS
 10
20.0413962154
 20
120.7954322881
  0
VERTEX
  8
0
 62
9
  6
CONTINUOUS
 10
22.1098869613
 20
101.802694522
  0
SEQEND
  0
POLYLINE
  8
0
 62
9
  6
CONTINUOUS
 66
1
 70
0
  0
VERTEX
  8
0
 62
9
  6
CONTINUOUS
 10
134.2753702415
 20
222.6548427703
  0
VERTEX
  8
0
 62
9
  6
CONTINUOUS
 10
134.2567191941
 20
222.6105069259
  0
VERTEX
  8
0
 62
9
  6
CONTINUOUS
 10
134.2386391164
 20
222.4807467621
  0
VERTEX
  8
0
 62
9
  6
CONTINUOUS
 10
134.2219154291
 20
222.2721994999
  0
VERTEX
  8
0
 62
9
  6
CONTINUOUS
 10
134.2072220075
 20
221.9940478268
  0
SEQEND
  0
POLYLINE
  8
0
 62
9
  6
CONTINUOUS
 66
1
 70
0
  0
VERTEX
  8
0
 62
9
  6
CONTINUOUS
 10
134.3712386377
 20
222.6544510178
  0
VERTEX
  8
0
 62
9
  6
CONTINUOUS
 10
134.3532245845
 20
222.6119521146
  0
VERTEX
  8
0
 62
9
  6
CONTINUOUS
 10
134.3357064596
 20
222.4877291219
  0
VERTEX
  8
0
 62
9
  6
CONTINUOUS
 10
134.3195012213
 20
222.2895030498
  0
VERTEX
  8
0
 62
9
  6
CONTINUOUS
 10
134.3049769265
 20
222.0221870741
  0
SEQEND
  0
LINE
  8
0
 62
7
  6
CONTINUOUS
 10
-14.7750235098
 20
80.3751688173
 11
383.3283609583
 21
80.3751688173
  0
POLYLINE
  8
0
 62
9
  6
CONTINUOUS
 66
1
 70
0
  0
VERTEX
  8
0
 62
9
  6
CONTINUOUS
 10
134.2072220075
 20
221.9940478268
  0
VERTEX
  8
0
 62
9
  6
CONTINUOUS
 10
134.1951697677
 20
221.6580398449
  0
VERTEX
  8
0
 62
9
  6
CONTINUOUS
 10
134.1862642287
 20
221.2780657874
  0
VERTEX
  8
0
 62
9
  6
CONTINUOUS
 10
134.1808989028
 20
220.8694443415
  0
VERTEX
  8
0
 62
9
  6
CONTINUOUS
 10
134.1793583862
 20
220.4501383511
  0
SEQEND
  0
POLYLINE
  8
0
 62
9
  6
CONTINUOUS
 66
1
 70
0
  0
VERTEX
  8
0
 62
9
  6
CONTINUOUS
 10
134.3049769265
 20
222.0221870741
  0
VERTEX
  8
0
 62
9
  6
CONTINUOUS
 10
134.2925678569
 20
221.6883407809
  0
VERTEX
  8
0
 62
9
  6
CONTINUOUS
 10
134.2831356635
 20
221.3029621409
  0
VERTEX
  8
0
 62
9
  6
CONTINUOUS
 10
134.2772842819
 20
220.8840997311
  0
VERTEX
  8
0
 62
9
  6
CONTINUOUS
 10
134.2753953405
 20
220.4496963647
  0
SEQEND
  0
LINE
  8
0
 62
9
  6
CONTINUOUS
 10
134.2753918951
 20
80.3751591268
 11
134.2753520657
 21
220.447896856
  0
LINE
  8
0
 62
7
  6
CONTINUOUS
 10
134.2753884711
 20
223.0798147205
 11
134.2753920997
 21
223.0822077624
  0
POLYLINE
  8
0
 62
9
  6
CONTINUOUS
 66
1
 70
0
  0
VERTEX
  8
0
 62
9
  6
CONTINUOUS
 10
76.2262348896
 20
223.2539107434
  0
VERTEX
  8
0
 62
9
  6
CONTINUOUS
 10
76.2560922473
 20
223.209777758
  0
VERTEX
  8
0
 62
9
  6
CONTINUOUS
 10
76.2851059344
 20
223.0787134566
  0
VERTEX
  8
0
 62
9
  6
CONTINUOUS
 10
76.3116673465
 20
222.8680087593
  0
VERTEX
  8
0
 62
9
  6
CONTINUOUS
 10
76.3142836198
 20
222.8368462324
  0
SEQEND
  0
POLYLINE
  8
0
 62
9
  6
CONTINUOUS
 66
1
 70
0
  0
VERTEX
  8
0
 62
9
  6
CONTINUOUS
 10
134.2536491947
 20
223.0798808173
  0
VERTEX
  8
0
 62
9
  6
CONTINUOUS
 10
134.2621508305
 20
223.0373721857
  0
VERTEX
  8
0
 62
9
  6
CONTINUOUS
 10
134.2702971004
 20
222.9095831136
  0
VERTEX
  8
0
 62
9
  6
CONTINUOUS
 10
134.2776465273
 20
222.7008433998
  0
VERTEX
  8
0
 62
9
  6
CONTINUOUS
 10
134.2786056192
 20
222.6584791504
  0
SEQEND
  0
POLYLINE
  8
0
 62
9
  6
CONTINUOUS
 66
1
 70
0
  0
VERTEX
  8
0
 62
9
  6
CONTINUOUS
 10
427.2906304738
 20
223.5203953169
  0
VERTEX
  8
0
 62
9
  6
CONTINUOUS
 10
426.8378100877
 20
223.3989932438
  0
VERTEX
  8
0
 62
9
  6
CONTINUOUS
 10
426.7138121663
 20
223.3434648447
  0
SEQEND
  0
POLYLINE
  8
0
 62
9
  6
CONTINUOUS
 66
1
 70
0
  0
VERTEX
  8
0
 62
9
  6
CONTINUOUS
 10
-58.7400601743
 20
223.5203733243
  0
VERTEX
  8
0
 62
9
  6
CONTINUOUS
 10
-58.2871123446
 20
223.3989055289
  0
VERTEX
  8
0
 62
9
  6
CONTINUOUS
 10
-58.1632981931
 20
223.3434462531
  0
SEQEND
  0
LINE
  8
0
 62
9
  6
CONTINUOUS
 10
234.2882874948
 20
223.0343561321
 11
234.2970815868
 21
223.0798806563
  0
POLYLINE
  8
0
 62
9
  6
CONTINUOUS
 66
1
 70
0
  0
VERTEX
  8
0
 62
9
  6
CONTINUOUS
 10
440.6349240268
 20
221.3461819426
  0
VERTEX
  8
0
 62
9
  6
CONTINUOUS
 10
440.5656752745
 20
221.3340504613
  0
VERTEX
  8
0
 62
9
  6
CONTINUOUS
 10
440.3666656172
 20
221.3218629956
  0
VERTEX
  8
0
 62
9
  6
CONTINUOUS
 10
440.0508267156
 20
221.3233969214
  0
VERTEX
  8
0
 62
9
  6
CONTINUOUS
 10
439.5658486385
 20
221.302441
  0
VERTEX
  8
0
 62
9
  6
CONTINUOUS
 10
438.7983891733
 20
221.2428990769
  0
VERTEX
  8
0
 62
9
  6
CONTINUOUS
 10
437.4093633517
 20
221.2749322568
  0
SEQEND
  0
POLYLINE
  8
0
 62
9
  6
CONTINUOUS
 66
1
 70
0
  0
VERTEX
  8
0
 62
9
  6
CONTINUOUS
 10
234.2458115764
 20
222.0221967992
  0
VERTEX
  8
0
 62
9
  6
CONTINUOUS
 10
234.2582207859
 20
221.6883506042
  0
VERTEX
  8
0
 62
9
  6
CONTINUOUS
 10
234.267653128
 20
221.3029700661
  0
VERTEX
  8
0
 62
9
  6
CONTINUOUS
 10
234.2735046204
 20
220.8841043278
  0
VERTEX
  8
0
 62
9
  6
CONTINUOUS
 10
234.2753936025
 20
220.4496963912
  0
SEQEND
  0
POLYLINE
  8
0
 62
9
  6
CONTINUOUS
 66
1
 70
0
  0
VERTEX
  8
0
 62
9
  6
CONTINUOUS
 10
234.342046635
 20
221.9940417901
  0
VERTEX
  8
0
 62
9
  6
CONTINUOUS
 10
234.3541348294
 20
221.6580339508
  0
VERTEX
  8
0
 62
9
  6
CONTINUOUS
 10
234.363138769
 20
221.2780601901
  0
VERTEX
  8
0
 62
9
  6
CONTINUOUS
 10
234.3686611181
 20
220.8694391657
  0
VERTEX
  8
0
 62
9
  6
CONTINUOUS
 10
234.3704185489
 20
220.4501337443
  0
SEQEND
  0
LINE
  8
0
 62
9
  6
CONTINUOUS
 10
234.275427778
 20
220.4478611446
 11
234.2753923043
 21
80.3751591268
  0
POLYLINE
  8
0
 62
9
  6
CONTINUOUS
 66
1
 70
0
  0
VERTEX
  8
0
 62
9
  6
CONTINUOUS
 10
234.2720495779
 20
222.6584784897
  0
VERTEX
  8
0
 62
9
  6
CONTINUOUS
 10
234.2725639534
 20
222.6819410496
  0
VERTEX
  8
0
 62
9
  6
CONTINUOUS
 10
234.2799608665
 20
222.8990954418
  0
VERTEX
  8
0
 62
9
  6
CONTINUOUS
 10
234.2882874948
 20
223.0343561321
  0
SEQEND
  0
POLYLINE
  8
0
 62
9
  6
CONTINUOUS
 66
1
 70
0
  0
VERTEX
  8
0
 62
9
  6
CONTINUOUS
 10
292.324552729
 20
223.2539106658
  0
VERTEX
  8
0
 62
9
  6
CONTINUOUS
 10
292.2946113028
 20
223.2059942159
  0
VERTEX
  8
0
 62
9
  6
CONTINUOUS
 10
292.2654833108
 20
223.0710122161
  0
VERTEX
  8
0
 62
9
  6
CONTINUOUS
 10
292.2389302568
 20
222.8628506813
  0
VERTEX
  8
0
 62
9
  6
CONTINUOUS
 10
292.2364747643
 20
222.8339024861
  0
SEQEND
  0
LINE
  8
0
 62
7
  6
CONTINUOUS
 10
434.8241153091
 20
223.4733928421
 11
434.8248477411
 21
223.4734663993
  0
LINE
  8
0
 62
7
  6
CONTINUOUS
 10
434.8252686968
 20
223.4735078904
 11
434.8247534392
 21
223.4734589429
  0
LINE
  8
0
 62
9
  6
CONTINUOUS
 10
427.7512882455
 20
223.5638682769
 11
427.2906304738
 21
223.5203953169
  0
LINE
  8
0
 62
7
  6
CONTINUOUS
 10
434.8233678894
 20
223.4733304181
 11
434.8143747251
 21
223.4725381205
  0
LINE
  8
0
 62
7
  6
CONTINUOUS
 10
434.8143747251
 20
223.4725381205
 11
434.7989601826
 21
223.4712620371
  0
LINE
  8
0
 62
7
  6
CONTINUOUS
 10
434.7989601826
 20
223.4712620371
 11
434.7696765558
 21
223.4689894798
  0
LINE
  8
0
 62
7
  6
CONTINUOUS
 10
434.7696765558
 20
223.4689894798
 11
434.7201964938
 21
223.4654034161
  0
LINE
  8
0
 62
7
  6
CONTINUOUS
 10
434.7201964938
 20
223.4654034161
 11
434.6435859703
 21
223.4602138954
  0
LINE
  8
0
 62
7
  6
CONTINUOUS
 10
434.6435859703
 20
223.4602138954
 11
434.5824473399
 21
223.4562807656
  0
LINE
  8
0
 62
9
  6
CONTINUOUS
 10
-59.2009496816
 20
223.5638697099
 11
-58.7400601743
 21
223.5203733243
  0
LINE
  8
0
 62
7
  6
CONTINUOUS
 10
-65.6776288925
 20
223.4331113355
 11
-66.4424149798
 21
223.5263945827
  0
LINE
  8
0
 62
7
  6
CONTINUOUS
 10
434.5824473399
 20
223.4562807656
 11
434.4547891206
 21
223.4485393202
  0
LINE
  8
0
 62
7
  6
CONTINUOUS
 10
434.8647448982
 20
223.4680580498
 11
434.2816438542
 21
223.4351547458
  0
LINE
  8
0
 62
7
  6
CONTINUOUS
 10
434.4547891206
 20
223.4485393202
 11
434.3435073555
 21
223.4423345856
  0
LINE
  8
0
 62
7
  6
CONTINUOUS
 10
434.3435073555
 20
223.4423345856
 11
434.2352306073
 21
223.4368678168
  0
LINE
  8
0
 62
7
  6
CONTINUOUS
 10
434.2352306073
 20
223.4368678168
 11
434.1350391557
 21
223.4323460179
  0
LINE
  8
0
 62
7
  6
CONTINUOUS
 10
434.1350391557
 20
223.4323460179
 11
434.0077878739
 21
223.4273040554
  0
LINE
  8
0
 62
7
  6
CONTINUOUS
 10
434.2816438542
 20
223.4351547458
 11
433.7503238662
 21
223.4182018248
  0
POLYLINE
  8
0
 62
9
  6
CONTINUOUS
 66
1
 70
0
  0
VERTEX
  8
0
 62
9
  6
CONTINUOUS
 10
437.4091018946
 20
221.2753564699
  0
VERTEX
  8
0
 62
9
  6
CONTINUOUS
 10
435.7029272039
 20
221.2353746725
  0
VERTEX
  8
0
 62
9
  6
CONTINUOUS
 10
433.2070729819
 20
221.206886116
  0
VERTEX
  8
0
 62
9
  6
CONTINUOUS
 10
429.8033008721
 20
221.1602462343
  0
VERTEX
  8
0
 62
9
  6
CONTINUOUS
 10
425.4455108441
 20
221.1415704574
  0
VERTEX
  8
0
 62
9
  6
CONTINUOUS
 10
420.2046453697
 20
221.1410854293
  0
VERTEX
  8
0
 62
9
  6
CONTINUOUS
 10
414.2205265277
 20
221.0820786323
  0
VERTEX
  8
0
 62
9
  6
CONTINUOUS
 10
407.4034476566
 20
221.0410311944
  0
VERTEX
  8
0
 62
9
  6
CONTINUOUS
 10
399.660508463
 20
221.0067044152
  0
VERTEX
  8
0
 62
9
  6
CONTINUOUS
 10
390.9158293727
 20
220.9749809554
  0
VERTEX
  8
0
 62
9
  6
CONTINUOUS
 10
381.2203815799
 20
220.9734165002
  0
VERTEX
  8
0
 62
9
  6
CONTINUOUS
 10
370.7724560389
 20
220.9649739625
  0
VERTEX
  8
0
 62
9
  6
CONTINUOUS
 10
359.7583492697
 20
220.9323484181
  0
SEQEND
  0
LINE
  8
0
 62
7
  6
CONTINUOUS
 10
433.7503238662
 20
223.4182018248
 11
432.6487691701
 21
223.3972040586
  0
LINE
  8
0
 62
7
  6
CONTINUOUS
 10
435.4225020144
 20
223.3972510163
 11
436.2235634746
 21
223.4079757768
  0
LINE
  8
0
 62
7
  6
CONTINUOUS
 10
432.8479187765
 20
223.4004659522
 11
431.2510248038
 21
223.3802460096
  0
LINE
  8
0
 62
7
  6
CONTINUOUS
 10
433.7087753726
 20
223.380666465
 11
435.4225020144
 21
223.3972510163
  0
LINE
  8
0
 62
7
  6
CONTINUOUS
 10
431.2510248038
 20
223.3802460096
 11
429.3075180255
 21
223.3626059932
  0
LINE
  8
0
 62
7
  6
CONTINUOUS
 10
429.3075180255
 20
223.3626059932
 11
427.220813551
 21
223.3469208451
  0
LINE
  8
0
 62
7
  6
CONTINUOUS
 10
431.3233586779
 20
223.3810263998
 11
426.1074681033
 21
223.33933167
  0
LINE
  8
0
 62
7
  6
CONTINUOUS
 10
-65.0898820036
 20
223.5491884482
 11
-63.7214890456
 21
223.5570839437
  0
LINE
  8
0
 62
7
  6
CONTINUOUS
 10
425.7071312066
 20
223.3285338455
 11
433.7087753726
 21
223.380666465
  0
LINE
  8
0
 62
9
  6
CONTINUOUS
 10
217.6387363022
 20
220.3714363889
 11
234.3704185489
 21
220.4501337443
  0
LINE
  8
0
 62
7
  6
CONTINUOUS
 10
358.8625203861
 20
223.0516916812
 11
425.7071312066
 21
223.3285338455
  0
LINE
  8
0
 62
7
  6
CONTINUOUS
 10
426.1172468427
 20
223.3393769047
 11
358.8625143597
 21
223.0534303358
  0
LINE
  8
0
 62
7
  6
CONTINUOUS
 10
234.2753901404
 20
222.6548427698
 11
218.0461338582
 21
222.5984919456
  0
LINE
  8
0
 62
7
  6
CONTINUOUS
 10
358.8625143597
 20
223.0534303358
 11
304.8333180068
 21
222.8758422091
  0
LINE
  8
0
 62
7
  6
CONTINUOUS
 10
304.8333267776
 20
222.8730255064
 11
358.8625203861
 21
223.0516916812
  0
LINE
  8
0
 62
7
  6
CONTINUOUS
 10
234.2753976329
 20
222.6548427461
 11
304.8333267776
 21
222.8730255064
  0
LINE
  8
0
 62
7
  6
CONTINUOUS
 10
304.8333180068
 20
222.8758422091
 11
234.3598905727
 21
222.6587508994
  0
LINE
  8
0
 62
7
  6
CONTINUOUS
 10
234.3187113438
 20
223.0799446627
 11
292.3245467039
 21
223.2539105637
  0
LINE
  8
0
 62
7
  6
CONTINUOUS
 10
292.3245467039
 20
223.2539105637
 11
304.8320981017
 21
223.2906903497
  0
LINE
  8
0
 62
7
  6
CONTINUOUS
 10
304.8320888722
 20
223.2931783306
 11
234.2753884711
 21
223.0822077514
  0
LINE
  8
0
 62
7
  6
CONTINUOUS
 10
234.1795228133
 20
222.6582122538
 11
217.6117921057
 21
222.6105403759
  0
LINE
  8
0
 62
7
  6
CONTINUOUS
 10
304.8320981017
 20
223.2906903497
 11
364.2687783394
 21
223.4541290176
  0
LINE
  8
0
 62
7
  6
CONTINUOUS
 10
362.9334239497
 20
223.4530636094
 11
304.8320888722
 21
223.2931783306
  0
LINE
  8
0
 62
7
  6
CONTINUOUS
 10
-63.7214890456
 20
223.5570839437
 11
-61.7447637419
 21
223.5619092707
  0
POLYLINE
  8
0
 62
9
  6
CONTINUOUS
 66
1
 70
0
  0
VERTEX
  8
0
 62
9
  6
CONTINUOUS
 10
218.0461338582
 20
222.5984919456
  0
VERTEX
  8
0
 62
9
  6
CONTINUOUS
 10
200.9549601516
 20
222.5625976298
  0
VERTEX
  8
0
 62
9
  6
CONTINUOUS
 10
184.274621274
 20
222.5510369351
  0
VERTEX
  8
0
 62
9
  6
CONTINUOUS
 10
167.5946694294
 20
222.5625985999
  0
VERTEX
  8
0
 62
9
  6
CONTINUOUS
 10
150.505921914
 20
222.5984880338
  0
SEQEND
  0
POLYLINE
  8
0
 62
9
  6
CONTINUOUS
 66
1
 70
0
  0
VERTEX
  8
0
 62
9
  6
CONTINUOUS
 10
359.7586400878
 20
220.9317171003
  0
VERTEX
  8
0
 62
9
  6
CONTINUOUS
 10
350.6875714411
 20
220.9159735002
  0
VERTEX
  8
0
 62
9
  6
CONTINUOUS
 10
340.7604986587
 20
220.8608351047
  0
VERTEX
  8
0
 62
9
  6
CONTINUOUS
 10
329.9355370486
 20
220.8083791135
  0
VERTEX
  8
0
 62
9
  6
CONTINUOUS
 10
318.2803488667
 20
220.780434552
  0
VERTEX
  8
0
 62
9
  6
CONTINUOUS
 10
305.8442783699
 20
220.7340514913
  0
VERTEX
  8
0
 62
9
  6
CONTINUOUS
 10
292.723491522
 20
220.6956315902
  0
VERTEX
  8
0
 62
9
  6
CONTINUOUS
 10
279.0599961547
 20
220.6631923956
  0
VERTEX
  8
0
 62
9
  6
CONTINUOUS
 10
264.799797509
 20
220.5923902881
  0
VERTEX
  8
0
 62
9
  6
CONTINUOUS
 10
249.9045070062
 20
220.5109117297
  0
VERTEX
  8
0
 62
9
  6
CONTINUOUS
 10
234.3704121143
 20
220.4508759046
  0
SEQEND
  0
POLYLINE
  8
0
 62
7
  6
CONTINUOUS
 66
1
 70
0
  0
VERTEX
  8
0
 62
7
  6
CONTINUOUS
 10
217.6117921057
 20
222.6105403759
  0
VERTEX
  8
0
 62
7
  6
CONTINUOUS
 10
200.9443454324
 20
222.5811292845
  0
VERTEX
  8
0
 62
7
  6
CONTINUOUS
 10
184.2751449319
 20
222.5717122767
  0
VERTEX
  8
0
 62
7
  6
CONTINUOUS
 10
167.6059945835
 20
222.5811290863
  0
SEQEND
  0
LINE
  8
0
 62
7
  6
CONTINUOUS
 10
364.2687783394
 20
223.4541290176
 11
426.1074663767
 21
223.5638555104
  0
LINE
  8
0
 62
7
  6
CONTINUOUS
 10
-63.0012212816
 20
223.5745835372
 11
-65.4406898898
 21
223.572167469
  0
LINE
  8
0
 62
7
  6
CONTINUOUS
 10
-63.4812424005
 20
223.5743380755
 11
-68.312034376
 21
223.5617958677
  0
LINE
  8
0
 62
7
  6
CONTINUOUS
 10
426.1073734727
 20
223.5740361598
 11
362.9334239497
 21
223.4530636094
  0
LINE
  8
0
 62
7
  6
CONTINUOUS
 10
-61.7447637419
 20
223.5619092707
 11
-57.5566623162
 21
223.5638480702
  0
LINE
  8
0
 62
7
  6
CONTINUOUS
 10
-57.3679860273
 20
223.5740726625
 11
-63.0012212816
 21
223.5745835372
  0
LINE
  8
0
 62
7
  6
CONTINUOUS
 10
426.1074663767
 20
223.5638555104
 11
430.182610719
 21
223.5621433573
  0
LINE
  8
0
 62
9
  6
CONTINUOUS
 10
-12.8912644813
 20
220.9724622219
 11
-17.8165896667
 21
220.9770999097
  0
LINE
  8
0
 62
7
  6
CONTINUOUS
 10
433.3746154389
 20
223.5730954015
 11
426.1073734727
 21
223.5740361598
  0
POLYLINE
  8
0
 62
9
  6
CONTINUOUS
 66
1
 70
0
  0
VERTEX
  8
0
 62
9
  6
CONTINUOUS
 10
-17.8165896667
 20
220.9770999097
  0
VERTEX
  8
0
 62
9
  6
CONTINUOUS
 10
-27.0884640713
 20
220.9917301776
  0
VERTEX
  8
0
 62
9
  6
CONTINUOUS
 10
-31.4172404009
 20
221.0040987185
  0
VERTEX
  8
0
 62
9
  6
CONTINUOUS
 10
-35.4765752533
 20
221.0193022983
  0
VERTEX
  8
0
 62
9
  6
CONTINUOUS
 10
-39.2828491044
 20
221.0389505745
  0
VERTEX
  8
0
 62
9
  6
CONTINUOUS
 10
-42.8547083205
 20
221.0599356673
  0
VERTEX
  8
0
 62
9
  6
CONTINUOUS
 10
-46.1823224398
 20
221.082179284
  0
VERTEX
  8
0
 62
9
  6
CONTINUOUS
 10
-49.2496780527
 20
221.1067022003
  0
VERTEX
  8
0
 62
9
  6
CONTINUOUS
 10
-52.132666456
 20
221.1195734379
  0
VERTEX
  8
0
 62
9
  6
CONTINUOUS
 10
-57.4023517884
 20
221.1386734361
  0
SEQEND
  0
LINE
  8
0
 62
7
  6
CONTINUOUS
 10
5.6173564383
 20
223.4530636601
 11
-57.3679860273
 21
223.5740726625
  0
LINE
  8
0
 62
7
  6
CONTINUOUS
 10
430.182610719
 20
223.5621433573
 11
432.1081722928
 21
223.5576513404
  0
LINE
  8
0
 62
7
  6
CONTINUOUS
 10
-57.5566623162
 20
223.5638480702
 11
5.6173504407
 21
223.4507273963
  0
LINE
  8
0
 62
7
  6
CONTINUOUS
 10
5.6173504407
 20
223.4507273963
 11
63.7186852859
 21
223.2906978505
  0
LINE
  8
0
 62
7
  6
CONTINUOUS
 10
63.7186942037
 20
223.2931778697
 11
5.6173564383
 21
223.4530636601
  0
LINE
  8
0
 62
7
  6
CONTINUOUS
 10
167.6059945835
 20
222.5811290863
 11
150.5059601825
 21
222.6117881688
  0
LINE
  8
0
 62
7
  6
CONTINUOUS
 10
150.5059601825
 20
222.6117881688
 11
134.3712661267
 21
222.6582125382
  0
LINE
  8
0
 62
7
  6
CONTINUOUS
 10
76.2262411642
 20
223.2539105942
 11
134.2753884711
 21
223.0798147205
  0
LINE
  8
0
 62
7
  6
CONTINUOUS
 10
63.7186852859
 20
223.2906978505
 11
76.2262411642
 21
223.2539105942
  0
LINE
  8
0
 62
7
  6
CONTINUOUS
 10
134.2753920997
 20
223.0822077624
 11
63.7186942037
 21
223.2931778697
  0
LINE
  8
0
 62
7
  6
CONTINUOUS
 10
134.1908989512
 20
222.6587510612
 11
63.7174651114
 21
222.8758422076
  0
LINE
  8
0
 62
7
  6
CONTINUOUS
 10
9.6889528208
 20
223.0516888382
 11
63.2275462707
 21
222.8745756158
  0
LINE
  8
0
 62
7
  6
CONTINUOUS
 10
63.7174651114
 20
222.8758422076
 11
9.688958934
 21
223.0534502182
  0
POLYLINE
  8
0
 62
9
  6
CONTINUOUS
 66
1
 70
0
  0
VERTEX
  8
0
 62
9
  6
CONTINUOUS
 10
8.7923232858
 20
220.9319987343
  0
VERTEX
  8
0
 62
9
  6
CONTINUOUS
 10
3.1832764416
 20
220.9516801407
  0
VERTEX
  8
0
 62
9
  6
CONTINUOUS
 10
-2.3199522257
 20
220.9609984689
  0
VERTEX
  8
0
 62
9
  6
CONTINUOUS
 10
-12.8912644813
 20
220.9724622219
  0
SEQEND
  0
LINE
  8
0
 62
7
  6
CONTINUOUS
 10
150.505921914
 20
222.5984880338
 11
134.3712553042
 21
222.6544512072
  0
LINE
  8
0
 62
7
  6
CONTINUOUS
 10
-57.556714353
 20
223.3307799409
 11
9.6889528208
 21
223.0516888382
  0
LINE
  8
0
 62
7
  6
CONTINUOUS
 10
134.3712386377
 20
222.6544510178
 11
63.2275462707
 21
222.8745756158
  0
POLYLINE
  8
0
 62
9
  6
CONTINUOUS
 66
1
 70
0
  0
VERTEX
  8
0
 62
9
  6
CONTINUOUS
 10
134.2753921952
 20
220.4496360679
  0
VERTEX
  8
0
 62
9
  6
CONTINUOUS
 10
150.9125641867
 20
220.3714341525
  0
VERTEX
  8
0
 62
9
  6
CONTINUOUS
 10
167.5767693435
 20
220.3243436556
  0
VERTEX
  8
0
 62
9
  6
CONTINUOUS
 10
184.2757255428
 20
220.3086370234
  0
VERTEX
  8
0
 62
9
  6
CONTINUOUS
 10
200.9748247212
 20
220.3243457825
  0
VERTEX
  8
0
 62
9
  6
CONTINUOUS
 10
217.6387363022
 20
220.3714363889
  0
SEQEND
  0
LINE
  8
0
 62
9
  6
CONTINUOUS
 10
118.6550972487
 20
220.5108959374
 11
134.2753953405
 21
220.4496963647
  0
LINE
  8
0
 62
7
  6
CONTINUOUS
 10
432.1081722928
 20
223.5576513404
 11
433.5032470845
 21
223.5502366313
  0
LINE
  8
0
 62
9
  6
CONTINUOUS
 10
-57.4023517884
 20
221.1386734361
 11
-59.6783582802
 21
221.1514115036
  0
POLYLINE
  8
0
 62
9
  6
CONTINUOUS
 66
1
 70
0
  0
VERTEX
  8
0
 62
9
  6
CONTINUOUS
 10
118.6550972487
 20
220.5108959374
  0
VERTEX
  8
0
 62
9
  6
CONTINUOUS
 10
103.7660966926
 20
220.5923620534
  0
VERTEX
  8
0
 62
9
  6
CONTINUOUS
 10
89.5079634515
 20
220.6630523074
  0
VERTEX
  8
0
 62
9
  6
CONTINUOUS
 10
75.8504231499
 20
220.6955043305
  0
VERTEX
  8
0
 62
9
  6
CONTINUOUS
 10
62.7555135124
 20
220.7342317563
  0
VERTEX
  8
0
 62
9
  6
CONTINUOUS
 10
50.3383326673
 20
220.7801488769
  0
VERTEX
  8
0
 62
9
  6
CONTINUOUS
 10
38.6645214274
 20
220.8077645411
  0
VERTEX
  8
0
 62
9
  6
CONTINUOUS
 10
27.8128607382
 20
220.8607872149
  0
VERTEX
  8
0
 62
9
  6
CONTINUOUS
 10
17.8717249615
 20
220.9161434253
  0
VERTEX
  8
0
 62
9
  6
CONTINUOUS
 10
8.7921474749
 20
220.9317170113
  0
SEQEND
  0
LINE
  8
0
 62
7
  6
CONTINUOUS
 10
-59.6165002206
 20
223.3426184001
 11
-57.556714353
 21
223.3307799409
  0
LINE
  8
0
 62
7
  6
CONTINUOUS
 10
436.8231070308
 20
223.5620817677
 11
431.5519155637
 21
223.5745832729
  0
LINE
  8
0
 62
7
  6
CONTINUOUS
 10
-65.4660331313
 20
223.3833548174
 11
-59.6165002206
 21
223.3426184001
  0
LINE
  8
0
 62
7
  6
CONTINUOUS
 10
9.688958934
 20
223.0534502182
 11
-57.6089567055
 21
223.3396862229
  0
LINE
  8
0
 62
7
  6
CONTINUOUS
 10
-57.5566652034
 20
223.3393315361
 11
-60.4135927174
 21
223.3598568812
  0
POLYLINE
  8
0
 62
9
  6
CONTINUOUS
 66
1
 70
0
  0
VERTEX
  8
0
 62
9
  6
CONTINUOUS
 10
-59.6783582802
 20
221.1514115036
  0
VERTEX
  8
0
 62
9
  6
CONTINUOUS
 10
-63.5197692848
 20
221.1868165238
  0
VERTEX
  8
0
 62
9
  6
CONTINUOUS
 10
-65.0803399565
 20
221.2070042101
  0
VERTEX
  8
0
 62
9
  6
CONTINUOUS
 10
-68.3775972019
 20
221.2621619388
  0
SEQEND
  0
LINE
  8
0
 62
7
  6
CONTINUOUS
 10
-60.4135927174
 20
223.3598568812
 11
-62.3346828412
 21
223.3765744792
  0
LINE
  8
0
 62
7
  6
CONTINUOUS
 10
-67.1080085031
 20
223.4000496744
 11
-65.4660331313
 21
223.3833548174
  0
LINE
  8
0
 62
7
  6
CONTINUOUS
 10
-57.6089567055
 20
223.3396862229
 11
-63.1878323444
 21
223.3855291736
  0
LINE
  8
0
 62
7
  6
CONTINUOUS
 10
-62.7371052573
 20
223.3805584366
 11
-64.457624987
 21
223.4029072744
  0
LINE
  8
0
 62
7
  6
CONTINUOUS
 10
-64.2030500327
 20
223.3989924188
 11
-65.1298766484
 21
223.4164020414
  0
LINE
  8
0
 62
9
  6
CONTINUOUS
 10
-68.3775972019
 20
221.2621619388
 11
-69.0977243685
 21
221.2781043155
  0
LINE
  8
0
 62
7
  6
CONTINUOUS
 10
-65.1298766484
 20
223.4164020414
 11
-65.6776288925
 21
223.4331113355
  0
POLYLINE
  8
0
 62
9
  6
CONTINUOUS
 66
1
 70
0
  0
VERTEX
  8
0
 62
9
  6
CONTINUOUS
 10
234.2753901404
 20
222.6548427698
  0
VERTEX
  8
0
 62
9
  6
CONTINUOUS
 10
234.2932030764
 20
222.6105103716
  0
VERTEX
  8
0
 62
9
  6
CONTINUOUS
 10
234.3107551577
 20
222.4807410907
  0
VERTEX
  8
0
 62
9
  6
CONTINUOUS
 10
234.3273222168
 20
222.2721899931
  0
VERTEX
  8
0
 62
9
  6
CONTINUOUS
 10
234.342046635
 20
221.9940417901
  0
SEQEND
  0
LINE
  8
0
 62
7
  6
CONTINUOUS
 10
-70.0276148144
 20
223.5150228518
 11
-70.0817824462
 21
223.5109477056
  0
LINE
  8
0
 62
7
  6
CONTINUOUS
 10
-69.8613455256
 20
223.5273884783
 11
-69.9647029264
 21
223.5195618477
  0
POLYLINE
  8
0
 62
7
  6
CONTINUOUS
 66
1
 70
0
  0
VERTEX
  8
0
 62
7
  6
CONTINUOUS
 10
-69.9647029264
 20
223.5195618477
  0
VERTEX
  8
0
 62
7
  6
CONTINUOUS
 10
-69.988661438
 20
223.5178347655
  0
VERTEX
  8
0
 62
7
  6
CONTINUOUS
 10
-70.0276148144
 20
223.5150228518
  0
SEQEND
  0
LINE
  8
0
 62
7
  6
CONTINUOUS
 10
-69.8209126748
 20
223.5302608528
 11
-69.8613455256
 21
223.5273884783
  0
LINE
  8
0
 62
7
  6
CONTINUOUS
 10
-69.7731544978
 20
223.5333352698
 11
-69.8209126748
 21
223.5302608528
  0
LINE
  8
0
 62
7
  6
CONTINUOUS
 10
-69.7178915874
 20
223.5364524498
 11
-69.7731544978
 21
223.5333352698
  0
LINE
  8
0
 62
7
  6
CONTINUOUS
 10
-69.6542228003
 20
223.5395091075
 11
-69.7178915874
 21
223.5364524498
  0
LINE
  8
0
 62
7
  6
CONTINUOUS
 10
-69.5802583239
 20
223.5424657949
 11
-69.6542228003
 21
223.5395091075
  0
LINE
  8
0
 62
7
  6
CONTINUOUS
 10
-69.4926950648
 20
223.5453334825
 11
-69.5802583239
 21
223.5424657949
  0
LINE
  8
0
 62
7
  6
CONTINUOUS
 10
-66.4424149798
 20
223.5263945827
 11
-65.973226323
 21
223.5388371381
  0
LINE
  8
0
 62
7
  6
CONTINUOUS
 10
-69.3869178304
 20
223.5481391907
 11
-69.4926950648
 21
223.5453334825
  0
POLYLINE
  8
0
 62
9
  6
CONTINUOUS
 66
1
 70
0
  0
VERTEX
  8
0
 62
9
  6
CONTINUOUS
 10
-69.0986473837
 20
221.2776813304
  0
VERTEX
  8
0
 62
9
  6
CONTINUOUS
 10
-70.3860989607
 20
221.2489205419
  0
VERTEX
  8
0
 62
9
  6
CONTINUOUS
 10
-71.1039515216
 20
221.303654431
  0
VERTEX
  8
0
 62
9
  6
CONTINUOUS
 10
-71.5607002394
 20
221.3240343368
  0
VERTEX
  8
0
 62
9
  6
CONTINUOUS
 10
-71.8568675111
 20
221.3237780075
  0
VERTEX
  8
0
 62
9
  6
CONTINUOUS
 10
-72.0360075384
 20
221.3351007779
  0
VERTEX
  8
0
 62
9
  6
CONTINUOUS
 10
-72.0840901929
 20
221.3455076638
  0
SEQEND
  0
LINE
  8
0
 62
7
  6
CONTINUOUS
 10
-69.2569385223
 20
223.550908551
 11
-69.3869178304
 21
223.5481391907
  0
LINE
  8
0
 62
7
  6
CONTINUOUS
 10
-68.9994776511
 20
223.5550290299
 11
-69.2569385223
 21
223.550908551
  0
LINE
  8
0
 62
7
  6
CONTINUOUS
 10
-65.973226323
 20
223.5388371381
 11
-65.0898820036
 21
223.5491884482
  0
POLYLINE
  8
0
 62
7
  6
CONTINUOUS
 66
1
 70
0
  0
VERTEX
  8
0
 62
7
  6
CONTINUOUS
 10
-68.312034376
 20
223.5617958677
  0
VERTEX
  8
0
 62
7
  6
CONTINUOUS
 10
-68.4835665769
 20
223.560460824
  0
VERTEX
  8
0
 62
7
  6
CONTINUOUS
 10
-68.9994776511
 20
223.5550290299
  0
SEQEND
  0
LINE
  8
0
 62
7
  6
CONTINUOUS
 10
433.5032470845
 20
223.5502366313
 11
434.441900625
 21
223.5403656386
  0
LINE
  8
0
 62
7
  6
CONTINUOUS
 10
437.4044425069
 20
223.5568484567
 11
436.8231070308
 21
223.5620817677
  0
LINE
  8
0
 62
7
  6
CONTINUOUS
 10
437.6959146843
 20
223.5528746674
 11
437.4044425069
 21
223.5568484567
  0
LINE
  8
0
 62
7
  6
CONTINUOUS
 10
437.9057042419
 20
223.5488801703
 11
437.6959146843
 21
223.5528746674
  0
LINE
  8
0
 62
7
  6
CONTINUOUS
 10
438.013554797
 20
223.5461901856
 11
437.9057042419
 21
223.5488801703
  0
LINE
  8
0
 62
7
  6
CONTINUOUS
 10
438.1028489815
 20
223.5434549151
 11
438.013554797
 21
223.5461901856
  0
LINE
  8
0
 62
7
  6
CONTINUOUS
 10
438.1781528137
 20
223.5406491389
 11
438.1028489815
 21
223.5434549151
  0
LINE
  8
0
 62
7
  6
CONTINUOUS
 10
438.2428705744
 20
223.5377558336
 11
438.1781528137
 21
223.5406491389
  0
LINE
  8
0
 62
7
  6
CONTINUOUS
 10
438.2992088589
 20
223.5347875846
 11
438.2428705744
 21
223.5377558336
  0
LINE
  8
0
 62
7
  6
CONTINUOUS
 10
438.3483093139
 20
223.5318113358
 11
438.2992088589
 21
223.5347875846
  0
LINE
  8
0
 62
7
  6
CONTINUOUS
 10
438.3906594888
 20
223.5289429745
 11
438.3483093139
 21
223.5318113358
  0
LINE
  8
0
 62
7
  6
CONTINUOUS
 10
438.4416058025
 20
223.5251682162
 11
438.3906594888
 21
223.5289429745
  0
LINE
  8
0
 62
7
  6
CONTINUOUS
 10
438.6187066981
 20
223.5120188436
 11
438.4790542517
 21
223.5222802605
  0
LINE
  8
0
 62
7
  6
CONTINUOUS
 10
438.6316457648
 20
223.5110199468
 11
438.6187066981
 21
223.5120188436
  0
LINE
  8
0
 62
7
  6
CONTINUOUS
 10
438.4790542517
 20
223.5222802605
 11
438.4416058025
 21
223.5251682162
  0
POLYLINE
  8
0
 62
9
  6
CONTINUOUS
 66
1
 70
0
  0
VERTEX
  8
0
 62
9
  6
CONTINUOUS
 10
234.1795486413
 20
222.6544509556
  0
VERTEX
  8
0
 62
9
  6
CONTINUOUS
 10
234.1975634161
 20
222.6119482866
  0
VERTEX
  8
0
 62
9
  6
CONTINUOUS
 10
234.2150819902
 20
222.4877338132
  0
VERTEX
  8
0
 62
9
  6
CONTINUOUS
 10
234.2312873296
 20
222.2895133443
  0
VERTEX
  8
0
 62
9
  6
CONTINUOUS
 10
234.2458115764
 20
222.0221967992
  0
SEQEND
  0
POLYLINE
  8
0
 62
9
  6
CONTINUOUS
 66
1
 70
0
  0
VERTEX
  8
0
 62
9
  6
CONTINUOUS
 10
9.6890718179
 20
223.0516878228
  0
VERTEX
  8
0
 62
9
  6
CONTINUOUS
 10
9.5127885307
 20
223.0123584175
  0
VERTEX
  8
0
 62
9
  6
CONTINUOUS
 10
9.3405149173
 20
222.8934325854
  0
VERTEX
  8
0
 62
9
  6
CONTINUOUS
 10
9.1852852692
 20
222.7034490552
  0
VERTEX
  8
0
 62
9
  6
CONTINUOUS
 10
9.0486798014
 20
222.4488296585
  0
VERTEX
  8
0
 62
9
  6
CONTINUOUS
 10
8.9349959776
 20
222.1295836986
  0
VERTEX
  8
0
 62
9
  6
CONTINUOUS
 10
8.8506132767
 20
221.7587740388
  0
VERTEX
  8
0
 62
9
  6
CONTINUOUS
 10
8.8017407472
 20
221.3492238626
  0
VERTEX
  8
0
 62
9
  6
CONTINUOUS
 10
8.7921927432
 20
220.9317259952
  0
SEQEND
  0
POLYLINE
  8
0
 62
7
  6
CONTINUOUS
 66
1
 70
0
  0
VERTEX
  8
0
 62
7
  6
CONTINUOUS
 10
-70.1981906744
 20
223.5006059433
  0
VERTEX
  8
0
 62
7
  6
CONTINUOUS
 10
-70.2145333116
 20
223.4988854857
  0
VERTEX
  8
0
 62
7
  6
CONTINUOUS
 10
-70.2317643044
 20
223.4969792697
  0
VERTEX
  8
0
 62
7
  6
CONTINUOUS
 10
-70.2500562572
 20
223.4948444966
  0
VERTEX
  8
0
 62
7
  6
CONTINUOUS
 10
-70.2697489989
 20
223.4924098553
  0
VERTEX
  8
0
 62
7
  6
CONTINUOUS
 10
-70.2910399853
 20
223.4896094728
  0
VERTEX
  8
0
 62
7
  6
CONTINUOUS
 10
-70.3145475885
 20
223.4863042085
  0
VERTEX
  8
0
 62
7
  6
CONTINUOUS
 10
-70.3406242818
 20
223.482363887
  0
VERTEX
  8
0
 62
7
  6
CONTINUOUS
 10
-70.3703045735
 20
223.477514673
  0
VERTEX
  8
0
 62
7
  6
CONTINUOUS
 10
-70.4041305288
 20
223.4714991686
  0
VERTEX
  8
0
 62
7
  6
CONTINUOUS
 10
-70.4439965474
 20
223.463721718
  0
VERTEX
  8
0
 62
7
  6
CONTINUOUS
 10
-70.4908638684
 20
223.453603736
  0
VERTEX
  8
0
 62
7
  6
CONTINUOUS
 10
-70.5481183457
 20
223.4397834214
  0
VERTEX
  8
0
 62
7
  6
CONTINUOUS
 10
-70.6169814559
 20
223.4209892826
  0
VERTEX
  8
0
 62
7
  6
CONTINUOUS
 10
-70.7046505122
 20
223.3935419893
  0
VERTEX
  8
0
 62
7
  6
CONTINUOUS
 10
-70.8147260901
 20
223.3532807268
  0
VERTEX
  8
0
 62
7
  6
CONTINUOUS
 10
-70.9566734948
 20
223.2912084464
  0
VERTEX
  8
0
 62
7
  6
CONTINUOUS
 10
-71.1395145634
 20
223.1923754876
  0
VERTEX
  8
0
 62
7
  6
CONTINUOUS
 10
-71.3517477874
 20
223.0450338762
  0
VERTEX
  8
0
 62
7
  6
CONTINUOUS
 10
-71.5817131137
 20
222.8290786841
  0
VERTEX
  8
0
 62
7
  6
CONTINUOUS
 10
-71.795912165
 20
222.5397983282
  0
VERTEX
  8
0
 62
7
  6
CONTINUOUS
 10
-71.9658639002
 20
222.1895121628
  0
VERTEX
  8
0
 62
7
  6
CONTINUOUS
 10
-72.065944122
 20
221.8051028141
  0
VERTEX
  8
0
 62
7
  6
CONTINUOUS
 10
-72.0880211538
 20
221.4079346695
  0
VERTEX
  8
0
 62
7
  6
CONTINUOUS
 10
-72.084371911
 20
221.3463675657
  0
SEQEND
  0
POLYLINE
  8
0
 62
9
  6
CONTINUOUS
 66
1
 70
0
  0
VERTEX
  8
0
 62
9
  6
CONTINUOUS
 10
-67.1081007767
 20
223.4000499601
  0
VERTEX
  8
0
 62
9
  6
CONTINUOUS
 10
-67.5090429176
 20
223.3599982138
  0
VERTEX
  8
0
 62
9
  6
CONTINUOUS
 10
-67.9007818514
 20
223.2364603842
  0
VERTEX
  8
0
 62
9
  6
CONTINUOUS
 10
-68.2541542664
 20
223.0371569926
  0
VERTEX
  8
0
 62
9
  6
CONTINUOUS
 10
-68.5595010856
 20
222.7723752101
  0
VERTEX
  8
0
 62
9
  6
CONTINUOUS
 10
-68.8044076187
 20
222.45015907
  0
VERTEX
  8
0
 62
9
  6
CONTINUOUS
 10
-68.981535092
 20
222.0835619175
  0
VERTEX
  8
0
 62
9
  6
CONTINUOUS
 10
-69.0812655966
 20
221.6829832888
  0
VERTEX
  8
0
 62
9
  6
CONTINUOUS
 10
-69.0977342936
 20
221.2781087548
  0
SEQEND
  0
LINE
  8
0
 62
7
  6
CONTINUOUS
 10
-70.1673235851
 20
223.5036453666
 11
-70.1981906744
 21
223.5006059433
  0
LINE
  8
0
 62
7
  6
CONTINUOUS
 10
-70.1379824838
 20
223.5063123557
 11
-70.1673235851
 21
223.5036453666
  0
LINE
  8
0
 62
7
  6
CONTINUOUS
 10
-70.1095025496
 20
223.5087281327
 11
-70.1379824838
 21
223.5063123557
  0
LINE
  8
0
 62
7
  6
CONTINUOUS
 10
-70.0817824462
 20
223.5109477056
 11
-70.1095025496
 21
223.5087281327
  0
LINE
  8
0
 62
7
  6
CONTINUOUS
 10
438.6711434218
 20
223.5078254615
 11
438.6316457648
 21
223.5110199468
  0
LINE
  8
0
 62
7
  6
CONTINUOUS
 10
438.6983219371
 20
223.5054657714
 11
438.6711434218
 21
223.5078254615
  0
LINE
  8
0
 62
7
  6
CONTINUOUS
 10
438.7264131954
 20
223.5028532193
 11
438.6983219371
 21
223.5054657714
  0
LINE
  8
0
 62
7
  6
CONTINUOUS
 10
434.441900625
 20
223.5403656386
 11
434.8647448982
 21
223.4680580498
  0
LINE
  8
0
 62
7
  6
CONTINUOUS
 10
-66.4270495069
 20
223.5700744487
 11
-67.1080085031
 21
223.4000496744
  0
POLYLINE
  8
0
 62
9
  6
CONTINUOUS
 66
1
 70
0
  0
VERTEX
  8
0
 62
9
  6
CONTINUOUS
 10
359.7586847707
 20
220.9317300949
  0
VERTEX
  8
0
 62
9
  6
CONTINUOUS
 10
359.7501505333
 20
221.3360958357
  0
VERTEX
  8
0
 62
9
  6
CONTINUOUS
 10
359.7043786075
 20
221.7359730561
  0
VERTEX
  8
0
 62
9
  6
CONTINUOUS
 10
359.6241312275
 20
222.1017924438
  0
VERTEX
  8
0
 62
9
  6
CONTINUOUS
 10
359.5137266663
 20
222.4233491712
  0
VERTEX
  8
0
 62
9
  6
CONTINUOUS
 10
359.3764254877
 20
222.6878069069
  0
VERTEX
  8
0
 62
9
  6
CONTINUOUS
 10
359.2178375524
 20
222.8870471629
  0
VERTEX
  8
0
 62
9
  6
CONTINUOUS
 10
359.0423364432
 20
223.0108747095
  0
VERTEX
  8
0
 62
9
  6
CONTINUOUS
 10
358.8629171779
 20
223.0516920228
  0
SEQEND
  0
LINE
  8
0
 62
9
  6
CONTINUOUS
 10
344.1970154245
 20
80.3754338505
 11
345.1197975763
 21
89.2130403669
  0
LINE
  8
0
 62
9
  6
CONTINUOUS
 10
345.1197975763
 20
89.2130403669
 11
345.6262831749
 21
94.0347249206
  0
POLYLINE
  8
0
 62
9
  6
CONTINUOUS
 66
1
 70
0
  0
VERTEX
  8
0
 62
9
  6
CONTINUOUS
 10
349.7399640323
 20
132.0548459647
  0
VERTEX
  8
0
 62
9
  6
CONTINUOUS
 10
348.513021596
 20
120.7845152028
  0
VERTEX
  8
0
 62
9
  6
CONTINUOUS
 10
347.406224023
 20
110.696633713
  0
VERTEX
  8
0
 62
9
  6
CONTINUOUS
 10
346.446759876
 20
101.8096650119
  0
VERTEX
  8
0
 62
9
  6
CONTINUOUS
 10
345.6264666116
 20
94.0344528043
  0
SEQEND
  0
POLYLINE
  8
0
 62
9
  6
CONTINUOUS
 66
1
 70
0
  0
VERTEX
  8
0
 62
9
  6
CONTINUOUS
 10
359.7583492697
 20
220.9323484181
  0
VERTEX
  8
0
 62
9
  6
CONTINUOUS
 10
357.8005754589
 20
203.8961873117
  0
VERTEX
  8
0
 62
9
  6
CONTINUOUS
 10
355.9691354293
 20
187.6389583042
  0
VERTEX
  8
0
 62
9
  6
CONTINUOUS
 10
354.2273123688
 20
172.3137323498
  0
VERTEX
  8
0
 62
9
  6
CONTINUOUS
 10
352.6193865296
 20
157.9295924558
  0
VERTEX
  8
0
 62
9
  6
CONTINUOUS
 10
349.7399640323
 20
132.0548459647
  0
SEQEND
  0
POLYLINE
  8
0
 62
7
  6
CONTINUOUS
 66
1
 70
0
  0
VERTEX
  8
0
 62
7
  6
CONTINUOUS
 10
383.3293585259
 20
80.3751688173
  0
VERTEX
  8
0
 62
7
  6
CONTINUOUS
 10
385.7595512769
 20
82.1270954027
  0
VERTEX
  8
0
 62
7
  6
CONTINUOUS
 10
388.1722189797
 20
83.9515015384
  0
VERTEX
  8
0
 62
7
  6
CONTINUOUS
 10
390.3078184067
 20
85.6365245584
  0
VERTEX
  8
0
 62
7
  6
CONTINUOUS
 10
392.1158518695
 20
87.114915242
  0
VERTEX
  8
0
 62
7
  6
CONTINUOUS
 10
393.6584844492
 20
88.4146636555
  0
VERTEX
  8
0
 62
7
  6
CONTINUOUS
 10
394.9285142626
 20
89.5119287267
  0
VERTEX
  8
0
 62
7
  6
CONTINUOUS
 10
396.1017264502
 20
90.5476961116
  0
VERTEX
  8
0
 62
7
  6
CONTINUOUS
 10
397.3358979395
 20
91.6611954087
  0
VERTEX
  8
0
 62
7
  6
CONTINUOUS
 10
398.6382876603
 20
92.8654238913
  0
VERTEX
  8
0
 62
7
  6
CONTINUOUS
 10
400.0758070472
 20
94.2330581031
  0
VERTEX
  8
0
 62
7
  6
CONTINUOUS
 10
401.6067296509
 20
95.7387014041
  0
VERTEX
  8
0
 62
7
  6
CONTINUOUS
 10
403.2076791666
 20
97.3734834104
  0
VERTEX
  8
0
 62
7
  6
CONTINUOUS
 10
404.8862229292
 20
99.1615481424
  0
VERTEX
  8
0
 62
7
  6
CONTINUOUS
 10
406.6168776051
 20
101.094548487
  0
VERTEX
  8
0
 62
7
  6
CONTINUOUS
 10
408.4580687288
 20
103.2645561126
  0
VERTEX
  8
0
 62
7
  6
CONTINUOUS
 10
410.4762790906
 20
105.7990972922
  0
VERTEX
  8
0
 62
7
  6
CONTINUOUS
 10
412.5518646603
 20
108.6056465197
  0
VERTEX
  8
0
 62
7
  6
CONTINUOUS
 10
414.6049047019
 20
111.6200233698
  0
VERTEX
  8
0
 62
7
  6
CONTINUOUS
 10
416.6275628057
 20
114.8724814802
  0
VERTEX
  8
0
 62
7
  6
CONTINUOUS
 10
418.5916705064
 20
118.360424325
  0
VERTEX
  8
0
 62
7
  6
CONTINUOUS
 10
420.4916359651
 20
122.1131787975
  0
VERTEX
  8
0
 62
7
  6
CONTINUOUS
 10
422.3163894257
 20
126.1522690711
  0
VERTEX
  8
0
 62
7
  6
CONTINUOUS
 10
424.0578990597
 20
130.496818483
  0
VERTEX
  8
0
 62
7
  6
CONTINUOUS
 10
425.7105851338
 20
135.1571240115
  0
VERTEX
  8
0
 62
7
  6
CONTINUOUS
 10
427.2829582335
 20
140.1727780281
  0
VERTEX
  8
0
 62
7
  6
CONTINUOUS
 10
428.7783007175
 20
145.5637330182
  0
VERTEX
  8
0
 62
7
  6
CONTINUOUS
 10
430.2167871154
 20
151.3956485431
  0
VERTEX
  8
0
 62
7
  6
CONTINUOUS
 10
431.611267635
 20
157.7069906218
  0
VERTEX
  8
0
 62
7
  6
CONTINUOUS
 10
432.9907564503
 20
164.598171285
  0
VERTEX
  8
0
 62
7
  6
CONTINUOUS
 10
434.3673722173
 20
172.1353533661
  0
VERTEX
  8
0
 62
7
  6
CONTINUOUS
 10
435.7596929772
 20
180.474312945
  0
VERTEX
  8
0
 62
7
  6
CONTINUOUS
 10
437.1755745613
 20
189.8593905854
  0
VERTEX
  8
0
 62
7
  6
CONTINUOUS
 10
438.5361707815
 20
200.1313778807
  0
VERTEX
  8
0
 62
7
  6
CONTINUOUS
 10
439.7580427815
 20
211.2096378928
  0
VERTEX
  8
0
 62
7
  6
CONTINUOUS
 10
440.6349876165
 20
221.3466207176
  0
SEQEND
  0
LINE
  8
0
 62
7
  6
CONTINUOUS
 10
436.2235634746
 20
223.4079757768
 11
435.8633563175
 21
223.5671610695
  0
POLYLINE
  8
0
 62
9
  6
CONTINUOUS
 66
1
 70
0
  0
VERTEX
  8
0
 62
9
  6
CONTINUOUS
 10
437.4091234894
 20
221.2753634188
  0
VERTEX
  8
0
 62
9
  6
CONTINUOUS
 10
437.3927035384
 20
221.6802433113
  0
VERTEX
  8
0
 62
9
  6
CONTINUOUS
 10
437.2931162549
 20
222.0808186627
  0
VERTEX
  8
0
 62
9
  6
CONTINUOUS
 10
437.1162264248
 20
222.4474034059
  0
VERTEX
  8
0
 62
9
  6
CONTINUOUS
 10
436.8716400056
 20
222.7696034834
  0
VERTEX
  8
0
 62
9
  6
CONTINUOUS
 10
436.5666808495
 20
223.0343736792
  0
VERTEX
  8
0
 62
9
  6
CONTINUOUS
 10
436.2137578293
 20
223.2336641593
  0
VERTEX
  8
0
 62
9
  6
CONTINUOUS
 10
435.8225269085
 20
223.3571923857
  0
VERTEX
  8
0
 62
9
  6
CONTINUOUS
 10
435.4221077238
 20
223.3972498494
  0
SEQEND
  0
POLYLINE
  8
0
 62
7
  6
CONTINUOUS
 66
1
 70
0
  0
VERTEX
  8
0
 62
7
  6
CONTINUOUS
 10
440.6351559914
 20
221.346365571
  0
VERTEX
  8
0
 62
7
  6
CONTINUOUS
 10
440.6380210914
 20
221.3915241876
  0
VERTEX
  8
0
 62
7
  6
CONTINUOUS
 10
440.6185894545
 20
221.7928928365
  0
VERTEX
  8
0
 62
7
  6
CONTINUOUS
 10
440.5207642856
 20
222.1783349603
  0
VERTEX
  8
0
 62
7
  6
CONTINUOUS
 10
440.3547490143
 20
222.5264508493
  0
VERTEX
  8
0
 62
7
  6
CONTINUOUS
 10
440.1511121574
 20
222.8080109656
  0
VERTEX
  8
0
 62
7
  6
CONTINUOUS
 10
439.9353791668
 20
223.0183732958
  0
VERTEX
  8
0
 62
7
  6
CONTINUOUS
 10
439.7356373137
 20
223.164144376
  0
VERTEX
  8
0
 62
7
  6
CONTINUOUS
 10
439.5607781685
 20
223.2647142648
  0
VERTEX
  8
0
 62
7
  6
CONTINUOUS
 10
439.4166306451
 20
223.3322908338
  0
VERTEX
  8
0
 62
7
  6
CONTINUOUS
 10
439.3002374069
 20
223.3779512171
  0
VERTEX
  8
0
 62
7
  6
CONTINUOUS
 10
439.206969147
 20
223.4092103875
  0
VERTEX
  8
0
 62
7
  6
CONTINUOUS
 10
439.1330003336
 20
223.4307776972
  0
VERTEX
  8
0
 62
7
  6
CONTINUOUS
 10
439.0726552551
 20
223.4463209101
  0
VERTEX
  8
0
 62
7
  6
CONTINUOUS
 10
439.0237438492
 20
223.4575950685
  0
VERTEX
  8
0
 62
7
  6
CONTINUOUS
 10
438.9823964231
 20
223.4662187976
  0
VERTEX
  8
0
 62
7
  6
CONTINUOUS
 10
438.9475500121
 20
223.472854302
  0
VERTEX
  8
0
 62
7
  6
CONTINUOUS
 10
438.9170289307
 20
223.4782017544
  0
VERTEX
  8
0
 62
7
  6
CONTINUOUS
 10
438.890296511
 20
223.4825384419
  0
VERTEX
  8
0
 62
7
  6
CONTINUOUS
 10
438.8662171447
 20
223.4861758016
  0
VERTEX
  8
0
 62
7
  6
CONTINUOUS
 10
438.8444472621
 20
223.4892525696
  0
VERTEX
  8
0
 62
7
  6
CONTINUOUS
 10
438.8243314657
 20
223.4919239326
  0
VERTEX
  8
0
 62
7
  6
CONTINUOUS
 10
438.8056955533
 20
223.4942581816
  0
VERTEX
  8
0
 62
7
  6
CONTINUOUS
 10
438.7882004968
 20
223.4963325519
  0
VERTEX
  8
0
 62
7
  6
CONTINUOUS
 10
438.7717058913
 20
223.4981904306
  0
VERTEX
  8
0
 62
7
  6
CONTINUOUS
 10
438.7560132135
 20
223.4998753111
  0
VERTEX
  8
0
 62
7
  6
CONTINUOUS
 10
438.7264131954
 20
223.5028532193
  0
SEQEND
  0
POLYLINE
  8
0
 62
9
  6
CONTINUOUS
 66
1
 70
0
  0
VERTEX
  8
0
 62
9
  6
CONTINUOUS
 10
437.4093633517
 20
221.2749322568
  0
VERTEX
  8
0
 62
9
  6
CONTINUOUS
 10
436.6219286781
 20
211.1979219864
  0
VERTEX
  8
0
 62
9
  6
CONTINUOUS
 10
435.5697468696
 20
201.5932768228
  0
VERTEX
  8
0
 62
9
  6
CONTINUOUS
 10
434.3091718124
 20
192.4430912937
  0
VERTEX
  8
0
 62
9
  6
CONTINUOUS
 10
432.9111718773
 20
183.7857635445
  0
VERTEX
  8
0
 62
9
  6
CONTINUOUS
 10
431.4433238049
 20
175.6811348927
  0
VERTEX
  8
0
 62
9
  6
CONTINUOUS
 10
429.9354389376
 20
168.072392486
  0
VERTEX
  8
0
 62
9
  6
CONTINUOUS
 10
428.4042640078
 20
160.9513272052
  0
VERTEX
  8
0
 62
9
  6
CONTINUOUS
 10
426.8432659283
 20
154.2656306304
  0
VERTEX
  8
0
 62
9
  6
CONTINUOUS
 10
425.2259909674
 20
147.9583333324
  0
VERTEX
  8
0
 62
9
  6
CONTINUOUS
 10
423.5470346644
 20
142.0622581679
  0
VERTEX
  8
0
 62
9
  6
CONTINUOUS
 10
421.8067404131
 20
136.5998380708
  0
VERTEX
  8
0
 62
9
  6
CONTINUOUS
 10
419.9948316269
 20
131.5343908275
  0
VERTEX
  8
0
 62
9
  6
CONTINUOUS
 10
418.1183030967
 20
126.8562223242
  0
VERTEX
  8
0
 62
9
  6
CONTINUOUS
 10
416.1615073312
 20
122.4947180996
  0
VERTEX
  8
0
 62
9
  6
CONTINUOUS
 10
414.1121989689
 20
118.3944780164
  0
VERTEX
  8
0
 62
9
  6
CONTINUOUS
 10
411.9568129851
 20
114.504041865
  0
VERTEX
  8
0
 62
9
  6
CONTINUOUS
 10
409.6731317379
 20
110.770529351
  0
VERTEX
  8
0
 62
9
  6
CONTINUOUS
 10
407.2410208512
 20
107.1534234551
  0
VERTEX
  8
0
 62
9
  6
CONTINUOUS
 10
404.6228860933
 20
103.5991673205
  0
VERTEX
  8
0
 62
9
  6
CONTINUOUS
 10
401.8114282729
 20
100.1055714364
  0
VERTEX
  8
0
 62
9
  6
CONTINUOUS
 10
398.7833412426
 20
96.6507375584
  0
VERTEX
  8
0
 62
9
  6
CONTINUOUS
 10
395.5447566908
 20
93.2497702281
  0
VERTEX
  8
0
 62
9
  6
CONTINUOUS
 10
392.0959310299
 20
89.9084634324
  0
VERTEX
  8
0
 62
9
  6
CONTINUOUS
 10
388.4175368198
 20
86.611313416
  0
VERTEX
  8
0
 62
9
  6
CONTINUOUS
 10
384.5535549954
 20
83.404443792
  0
VERTEX
  8
0
 62
9
  6
CONTINUOUS
 10
380.5937595545
 20
80.3748714524
  0
SEQEND
  0
LINE
  8
0
 62
7
  6
CONTINUOUS
 10
440.6349876165
 20
221.3466207176
 11
440.6349240268
 21
221.3461819426
  0
ARC
  8
0
 62
7
  6
CONTINUOUS
 10
184.2753920997
 20
16710.6330854937
 40
16487.6379213841
 50
269.826245887
 51
270.173754113
  0
ARC
  8
0
 62
7
  6
CONTINUOUS
 10
184.2753920997
 20
16710.635426465
 40
16487.6379213841
 50
269.8263564991
 51
270.1736435009
  0
ENDSEC
  0
EOF
