999
DXF file: K:\Client\125_Heirloom\001\00\Final_Data\Drawings\BASINS\lineal-362111_3.dxf
999
Pro/ENGINEER 2017110 by Parametric Technology Corporation
  0
SECTION
  2
HEADER
  9
$EXTMAX
 10
420.0
 20
297.0
 30
0.0
  9
$EXTMIN
 10
0.0
 20
0.0
 30
0.0
  9
$LIMMIN
 10
0.0
 20
0.0
  9
$LIMMAX
 10
420.0
 20
297.0
  9
$VIEWCTR
 10
210.0
 20
148.5
  9
$VIEWSIZE
 40
297.0
  9
$CLAYER
  8
0
  9
$LTSCALE
 40
23.1
  9
$CELTYPE
  6
BYLAYER
  9
$DIMSCALE
 40
1.0
  9
$DIMASZ
 40
3.0
  9
$DIMEXO
 40
1.0
  9
$DIMDLI
 40
15.96
  9
$DIMEXE
 40
1.0
  9
$DIMCEN
 40
3.78
  9
$DIMLFAC
 40
1.0
  9
$DIMBLK
  1
_FILLED
  9
$DIMALT
 70
0
  9
$DIMALTF
 40
0.0393700787
  9
$DIMTXT
 40
3.0
  9
$AUNITS
 70
0
  9
$PDMODE
 70
3
  9
$PDSIZE
 40
5.0
  9
$TILEMODE
 70
1
  0
ENDSEC
  0
SECTION
  2
TABLES
  0
TABLE
  2
LTYPE
 70
6
  0
LTYPE
  2
BYBLOCK
 70
0
  3

 72
65
 73
0
 40
0.0
  0
LTYPE
  2
BYLAYER
 70
0
  3

 72
65
 73
0
 40
0.0
  0
LTYPE
  2
CONTINUOUS
 70
64
  3
Solid line
 72
65
 73
0
 40
0.0
  0
LTYPE
  2
CENTER
 70
64
  3
____ _ ____ _ ____ _ ____ _ ____ _ ____ _ ____
 72
65
 73
4
 40
0.6
 49
0.375
 49
-0.075
 49
0.075
 49
-0.075
  0
LTYPE
  2
HIDDEN
 70
64
  3
- - - - - - - - - - - - - - - - - - - -
 72
65
 73
2
 40
0.2
 49
0.1
 49
-0.1
  0
LTYPE
  2
PHANTOM
 70
64
  3
_____ _ _ _____ _ _ _____ _ _ _____
 72
65
 73
6
 40
0.8
 49
0.45
 49
-0.05
 49
0.1
 49
-0.05
 49
0.1
 49
-0.05
  0
LTYPE
  2
DOT
 70
64
  3
. . . . . . . . . . . . . . . . . . . .
 72
65
 73
2
 40
0.2
 49
0.1
 49
-0.1
  0
LTYPE
  2
DASHED
 70
64
  3
- - - - - - - - - - - - - - - - - - - -
 72
65
 73
2
 40
0.2
 49
0.1
 49
-0.1
  0
ENDTAB
  0
TABLE
  2
LAYER
 70
36
  0
LAYER
  2
0
 70
0
 62
7
  6
CONTINUOUS
  0
LAYER
  2
DEFAULT_1
 70
0
 62
7
  6
CENTER
  0
LAYER
  2
DEFAULT_2
 70
0
 62
8
  6
HIDDEN
  0
LAYER
  2
DEFAULT_3
 70
0
 62
7
  6
PHANTOM
  0
LAYER
  2
0000_BOM
 70
0
 62
7
  6
CONTINUOUS
  0
LAYER
  2
0000_REV_TABLE
 70
0
 62
7
  6
CONTINUOUS
  0
LAYER
  2
0000_STEVENS_NOTE
 70
0
 62
7
  6
CONTINUOUS
  0
LAYER
  2
01_DATUM_PLANES
 70
0
 62
7
  6
CONTINUOUS
  0
LAYER
  2
01_DEF_PLANES
 70
0
 62
7
  6
CONTINUOUS
  0
LAYER
  2
02_DATUM_COS
 70
0
 62
7
  6
CONTINUOUS
  0
LAYER
  2
90_IMP_FEAT
 70
0
 62
7
  6
CONTINUOUS
  0
LAYER
  2
95_STL
 70
0
 62
7
  6
CONTINUOUS
  0
LAYER
  2
99_SOLID
 70
0
 62
7
  6
CONTINUOUS
  0
LAYER
  2
CAD-MASTER_ZINC-PL
 70
0
 62
7
  6
CONTINUOUS
  0
LAYER
  2
CURVE
 70
0
 62
7
  6
CONTINUOUS
  0
LAYER
  2
SKEL
 70
0
 62
7
  6
CONTINUOUS
  0
LAYER
  2
SKETCH
 70
0
 62
7
  6
CONTINUOUS
  0
LAYER
  2
SURFACE
 70
0
 62
7
  6
CONTINUOUS
  0
ENDTAB
  0
TABLE
  2
STYLE
 70
1
  0
STYLE
  2
STANDARD
 70
0
 40
0.0
 41
0.75
 50
0.0
 71
0
 42
0.2
  3
txt
  4

  0
STYLE
  2
TEXTSTYLE_1
 70
0
 40
0.0
 41
0.8
 50
0.0
 71
0
 42
0.2
  3
gdt
  4

  0
ENDTAB
  0
ENDSEC
  0
SECTION
  2
BLOCKS
  0
ENDSEC
  0
SECTION
  2
ENTITIES
  0
POLYLINE
  8
0
 62
7
  6
CONTINUOUS
 66
1
 70
0
  0
VERTEX
  8
0
 62
7
  6
CONTINUOUS
 10
-63.1652021548
 20
255.6340724883
  0
VERTEX
  8
0
 62
7
  6
CONTINUOUS
 10
-65.1133115237
 20
248.4110572516
  0
VERTEX
  8
0
 62
7
  6
CONTINUOUS
 10
-67.0971829297
 20
238.5914048087
  0
VERTEX
  8
0
 62
7
  6
CONTINUOUS
 10
-68.5175465803
 20
227.9037778654
  0
VERTEX
  8
0
 62
7
  6
CONTINUOUS
 10
-69.4858624277
 20
214.4002009835
  0
VERTEX
  8
0
 62
7
  6
CONTINUOUS
 10
-69.9565887742
 20
196.5946929383
  0
VERTEX
  8
0
 62
7
  6
CONTINUOUS
 10
-70.2547630934
 20
173.8435120181
  0
VERTEX
  8
0
 62
7
  6
CONTINUOUS
 10
-70.2066551823
 20
141.469352391
  0
VERTEX
  8
0
 62
7
  6
CONTINUOUS
 10
-69.4732507203
 20
109.8775798659
  0
VERTEX
  8
0
 62
7
  6
CONTINUOUS
 10
-68.4685193508
 20
88.8981144541
  0
VERTEX
  8
0
 62
7
  6
CONTINUOUS
 10
-67.3446132354
 20
76.2352124276
  0
SEQEND
  0
POLYLINE
  8
0
 62
7
  6
CONTINUOUS
 66
1
 70
0
  0
VERTEX
  8
0
 62
7
  6
CONTINUOUS
 10
-61.2439089399
 20
255.0561132501
  0
VERTEX
  8
0
 62
7
  6
CONTINUOUS
 10
-62.5488389154
 20
250.3785280847
  0
VERTEX
  8
0
 62
7
  6
CONTINUOUS
 10
-63.6833775481
 20
245.6824326358
  0
VERTEX
  8
0
 62
7
  6
CONTINUOUS
 10
-64.6349396352
 20
241.0333795514
  0
VERTEX
  8
0
 62
7
  6
CONTINUOUS
 10
-65.4412807858
 20
236.2347108875
  0
VERTEX
  8
0
 62
7
  6
CONTINUOUS
 10
-66.1444405985
 20
231.0233161689
  0
VERTEX
  8
0
 62
7
  6
CONTINUOUS
 10
-66.7189819028
 20
225.6641056383
  0
VERTEX
  8
0
 62
7
  6
CONTINUOUS
 10
-67.1391374714
 20
220.4219491045
  0
VERTEX
  8
0
 62
7
  6
CONTINUOUS
 10
-67.4479370735
 20
215.033857394
  0
VERTEX
  8
0
 62
7
  6
CONTINUOUS
 10
-67.6754103167
 20
209.2354339211
  0
VERTEX
  8
0
 62
7
  6
CONTINUOUS
 10
-67.8347904588
 20
203.2957707309
  0
VERTEX
  8
0
 62
7
  6
CONTINUOUS
 10
-67.9402504074
 20
197.4841670689
  0
VERTEX
  8
0
 62
7
  6
CONTINUOUS
 10
-68.019000821
 20
191.5356047485
  0
VERTEX
  8
0
 62
7
  6
CONTINUOUS
 10
-68.1097113651
 20
185.1856023427
  0
VERTEX
  8
0
 62
7
  6
CONTINUOUS
 10
-68.1921779253
 20
178.7018488189
  0
VERTEX
  8
0
 62
7
  6
CONTINUOUS
 10
-68.2625205149
 20
172.3503387679
  0
VERTEX
  8
0
 62
7
  6
CONTINUOUS
 10
-68.3104364157
 20
165.8716738929
  0
VERTEX
  8
0
 62
7
  6
CONTINUOUS
 10
-68.3241206819
 20
159.0093926828
  0
VERTEX
  8
0
 62
7
  6
CONTINUOUS
 10
-68.3042000089
 20
152.0206793711
  0
VERTEX
  8
0
 62
7
  6
CONTINUOUS
 10
-68.2473409074
 20
145.1660042136
  0
VERTEX
  8
0
 62
7
  6
CONTINUOUS
 10
-68.1536189864
 20
138.1790476324
  0
VERTEX
  8
0
 62
7
  6
CONTINUOUS
 10
-68.0210579671
 20
130.7905919263
  0
VERTEX
  8
0
 62
7
  6
CONTINUOUS
 10
-67.8524800248
 20
123.2698017217
  0
VERTEX
  8
0
 62
7
  6
CONTINUOUS
 10
-67.6600788651
 20
115.8862007588
  0
VERTEX
  8
0
 62
7
  6
CONTINUOUS
 10
-67.4137636185
 20
108.3694939945
  0
VERTEX
  8
0
 62
7
  6
CONTINUOUS
 10
-67.1032815016
 20
100.4472707412
  0
VERTEX
  8
0
 62
7
  6
CONTINUOUS
 10
-66.6813119606
 20
92.3954016728
  0
VERTEX
  8
0
 62
7
  6
CONTINUOUS
 10
-66.0907745787
 20
84.4220872898
  0
VERTEX
  8
0
 62
7
  6
CONTINUOUS
 10
-65.3506961614
 20
76.4579274254
  0
SEQEND
  0
POLYLINE
  8
0
 62
7
  6
CONTINUOUS
 66
1
 70
0
  0
VERTEX
  8
0
 62
7
  6
CONTINUOUS
 10
-57.4434883198
 20
255.8306012761
  0
VERTEX
  8
0
 62
7
  6
CONTINUOUS
 10
-53.5093548319
 20
267.177654385
  0
VERTEX
  8
0
 62
7
  6
CONTINUOUS
 10
-49.0653493541
 20
277.6673712288
  0
VERTEX
  8
0
 62
7
  6
CONTINUOUS
 10
-44.1273139097
 20
287.2584128608
  0
VERTEX
  8
0
 62
7
  6
CONTINUOUS
 10
-38.6477224288
 20
296.0747961208
  0
VERTEX
  8
0
 62
7
  6
CONTINUOUS
 10
-32.5727303185
 20
304.2395221616
  0
VERTEX
  8
0
 62
7
  6
CONTINUOUS
 10
-25.9371351702
 20
311.7142990972
  0
VERTEX
  8
0
 62
7
  6
CONTINUOUS
 10
-18.789748697
 20
318.4769731505
  0
VERTEX
  8
0
 62
7
  6
CONTINUOUS
 10
-11.0346839401
 20
324.6021311472
  0
VERTEX
  8
0
 62
7
  6
CONTINUOUS
 10
-2.5884042075
 20
330.1712119212
  0
VERTEX
  8
0
 62
7
  6
CONTINUOUS
 10
6.5373295893
 20
335.1415056696
  0
VERTEX
  8
0
 62
7
  6
CONTINUOUS
 10
16.3278135959
 20
339.4935776403
  0
VERTEX
  8
0
 62
7
  6
CONTINUOUS
 10
26.8754133327
 20
343.2390415153
  0
VERTEX
  8
0
 62
7
  6
CONTINUOUS
 10
38.2435632018
 20
346.3931538553
  0
VERTEX
  8
0
 62
7
  6
CONTINUOUS
 10
50.5043527033
 20
348.9255512716
  0
VERTEX
  8
0
 62
7
  6
CONTINUOUS
 10
63.7626704256
 20
350.8077961623
  0
VERTEX
  8
0
 62
7
  6
CONTINUOUS
 10
77.9835535058
 20
352.0493677281
  0
SEQEND
  0
POLYLINE
  8
0
 62
7
  6
CONTINUOUS
 66
1
 70
0
  0
VERTEX
  8
0
 62
7
  6
CONTINUOUS
 10
-67.3440356326
 20
76.235278538
  0
VERTEX
  8
0
 62
7
  6
CONTINUOUS
 10
-65.8683673688
 20
65.9549710521
  0
VERTEX
  8
0
 62
7
  6
CONTINUOUS
 10
-63.6390987599
 20
55.4211552183
  0
VERTEX
  8
0
 62
7
  6
CONTINUOUS
 10
-60.9253190162
 20
46.0465616291
  0
VERTEX
  8
0
 62
7
  6
CONTINUOUS
 10
-57.5406655757
 20
36.9118663561
  0
VERTEX
  8
0
 62
7
  6
CONTINUOUS
 10
-53.0230073921
 20
27.1229778585
  0
VERTEX
  8
0
 62
7
  6
CONTINUOUS
 10
-47.7799376763
 20
17.5811686061
  0
VERTEX
  8
0
 62
7
  6
CONTINUOUS
 10
-42.0899676401
 20
8.5965361884
  0
VERTEX
  8
0
 62
7
  6
CONTINUOUS
 10
-36.0191621528
 20
0.387701166
  0
VERTEX
  8
0
 62
7
  6
CONTINUOUS
 10
-30.0803958154
 20
-6.4754322408
  0
VERTEX
  8
0
 62
7
  6
CONTINUOUS
 10
-23.8856800369
 20
-12.6241686024
  0
VERTEX
  8
0
 62
7
  6
CONTINUOUS
 10
-17.0912098037
 20
-18.4263542543
  0
VERTEX
  8
0
 62
7
  6
CONTINUOUS
 10
-9.2710740855
 20
-24.1529276149
  0
VERTEX
  8
0
 62
7
  6
CONTINUOUS
 10
0.2949022908
 20
-30.1281519723
  0
VERTEX
  8
0
 62
7
  6
CONTINUOUS
 10
10.5484649528
 20
-35.6148800498
  0
SEQEND
  0
POLYLINE
  8
0
 62
7
  6
CONTINUOUS
 66
1
 70
0
  0
VERTEX
  8
0
 62
7
  6
CONTINUOUS
 10
-54.6839584568
 20
254.9715728601
  0
VERTEX
  8
0
 62
7
  6
CONTINUOUS
 10
-57.0550851821
 20
246.3670250659
  0
VERTEX
  8
0
 62
7
  6
CONTINUOUS
 10
-58.9955099801
 20
236.590135017
  0
VERTEX
  8
0
 62
7
  6
CONTINUOUS
 10
-60.4124919371
 20
225.5629408915
  0
VERTEX
  8
0
 62
7
  6
CONTINUOUS
 10
-61.2927563877
 20
213.5133197447
  0
VERTEX
  8
0
 62
7
  6
CONTINUOUS
 10
-61.7624949521
 20
200.5843948528
  0
VERTEX
  8
0
 62
7
  6
CONTINUOUS
 10
-61.9873318998
 20
186.9669268832
  0
VERTEX
  8
0
 62
7
  6
CONTINUOUS
 10
-62.0206752702
 20
172.8554991936
  0
VERTEX
  8
0
 62
7
  6
CONTINUOUS
 10
-61.8969172458
 20
158.3728171816
  0
VERTEX
  8
0
 62
7
  6
CONTINUOUS
 10
-61.6839945862
 20
143.6574065021
  0
VERTEX
  8
0
 62
7
  6
CONTINUOUS
 10
-61.4079905856
 20
128.8582423959
  0
VERTEX
  8
0
 62
7
  6
CONTINUOUS
 10
-61.0770996339
 20
114.1117666841
  0
VERTEX
  8
0
 62
7
  6
CONTINUOUS
 10
-60.5694566261
 20
99.5883092179
  0
VERTEX
  8
0
 62
7
  6
CONTINUOUS
 10
-59.701877233
 20
85.4448785713
  0
VERTEX
  8
0
 62
7
  6
CONTINUOUS
 10
-58.2456629862
 20
71.8475752556
  0
VERTEX
  8
0
 62
7
  6
CONTINUOUS
 10
-56.0322504986
 20
59.0463912395
  0
VERTEX
  8
0
 62
7
  6
CONTINUOUS
 10
-53.0305766238
 20
46.9572783894
  0
SEQEND
  0
POLYLINE
  8
0
 62
7
  6
CONTINUOUS
 66
1
 70
0
  0
VERTEX
  8
0
 62
7
  6
CONTINUOUS
 10
6.4586235921
 20
339.5282154192
  0
VERTEX
  8
0
 62
7
  6
CONTINUOUS
 10
-2.080840768
 20
334.8526138695
  0
VERTEX
  8
0
 62
7
  6
CONTINUOUS
 10
-10.6722297936
 20
329.4220457852
  0
VERTEX
  8
0
 62
7
  6
CONTINUOUS
 10
-18.2859685231
 20
323.8519133545
  0
VERTEX
  8
0
 62
7
  6
CONTINUOUS
 10
-25.1780857653
 20
318.0398709686
  0
VERTEX
  8
0
 62
7
  6
CONTINUOUS
 10
-31.4713087916
 20
311.9297897976
  0
VERTEX
  8
0
 62
7
  6
CONTINUOUS
 10
-37.1976968147
 20
305.5280170401
  0
VERTEX
  8
0
 62
7
  6
CONTINUOUS
 10
-42.4971628997
 20
298.6912020493
  0
VERTEX
  8
0
 62
7
  6
CONTINUOUS
 10
-47.3982405613
 20
291.358109163
  0
VERTEX
  8
0
 62
7
  6
CONTINUOUS
 10
-51.9152177583
 20
283.4636907722
  0
VERTEX
  8
0
 62
7
  6
CONTINUOUS
 10
-56.11908951
 20
274.7853341092
  0
VERTEX
  8
0
 62
7
  6
CONTINUOUS
 10
-60.0080960735
 20
265.1406110855
  0
VERTEX
  8
0
 62
7
  6
CONTINUOUS
 10
-63.1651002073
 20
255.6340416196
  0
SEQEND
  0
POLYLINE
  8
0
 62
7
  6
CONTINUOUS
 66
1
 70
0
  0
VERTEX
  8
0
 62
7
  6
CONTINUOUS
 10
7.37466878
 20
337.7451729557
  0
VERTEX
  8
0
 62
7
  6
CONTINUOUS
 10
2.4882653542
 20
335.1535142159
  0
VERTEX
  8
0
 62
7
  6
CONTINUOUS
 10
-2.2859331041
 20
332.4003824785
  0
VERTEX
  8
0
 62
7
  6
CONTINUOUS
 10
-6.9495128825
 20
329.4911898474
  0
VERTEX
  8
0
 62
7
  6
CONTINUOUS
 10
-11.4977151179
 20
326.4097000113
  0
VERTEX
  8
0
 62
7
  6
CONTINUOUS
 10
-15.9311007622
 20
323.14237591
  0
VERTEX
  8
0
 62
7
  6
CONTINUOUS
 10
-20.2352966576
 20
319.6865318944
  0
VERTEX
  8
0
 62
7
  6
CONTINUOUS
 10
-24.4058770843
 20
316.0277893076
  0
VERTEX
  8
0
 62
7
  6
CONTINUOUS
 10
-28.4135606806
 20
312.1876901132
  0
VERTEX
  8
0
 62
7
  6
CONTINUOUS
 10
-32.2287337094
 20
308.1792372172
  0
VERTEX
  8
0
 62
7
  6
CONTINUOUS
 10
-35.8479675774
 20
304.0136691353
  0
VERTEX
  8
0
 62
7
  6
CONTINUOUS
 10
-39.2533529625
 20
299.7092206689
  0
VERTEX
  8
0
 62
7
  6
CONTINUOUS
 10
-42.4587183134
 20
295.2579058674
  0
VERTEX
  8
0
 62
7
  6
CONTINUOUS
 10
-45.4724076193
 20
290.6544281528
  0
VERTEX
  8
0
 62
7
  6
CONTINUOUS
 10
-48.2929649358
 20
285.9089542087
  0
VERTEX
  8
0
 62
7
  6
CONTINUOUS
 10
-50.9206487513
 20
281.0258897079
  0
VERTEX
  8
0
 62
7
  6
CONTINUOUS
 10
-53.3586597561
 20
276.0172211049
  0
VERTEX
  8
0
 62
7
  6
CONTINUOUS
 10
-55.6106736857
 20
270.8850532591
  0
VERTEX
  8
0
 62
7
  6
CONTINUOUS
 10
-57.6755238935
 20
265.663436629
  0
VERTEX
  8
0
 62
7
  6
CONTINUOUS
 10
-59.5532763031
 20
260.3914673025
  0
VERTEX
  8
0
 62
7
  6
CONTINUOUS
 10
-61.2439089399
 20
255.0561132501
  0
SEQEND
  0
POLYLINE
  8
0
 62
7
  6
CONTINUOUS
 66
1
 70
0
  0
VERTEX
  8
0
 62
7
  6
CONTINUOUS
 10
10.5482616407
 20
-35.6152938585
  0
VERTEX
  8
0
 62
7
  6
CONTINUOUS
 10
18.529938564
 20
-39.2766681063
  0
VERTEX
  8
0
 62
7
  6
CONTINUOUS
 10
27.8554193681
 20
-42.7847208226
  0
VERTEX
  8
0
 62
7
  6
CONTINUOUS
 10
37.0720468703
 20
-45.4928537428
  0
VERTEX
  8
0
 62
7
  6
CONTINUOUS
 10
47.5459569397
 20
-47.7435336186
  0
VERTEX
  8
0
 62
7
  6
CONTINUOUS
 10
59.1695979566
 20
-49.3759371978
  0
VERTEX
  8
0
 62
7
  6
CONTINUOUS
 10
75.9471014706
 20
-50.7331722741
  0
VERTEX
  8
0
 62
7
  6
CONTINUOUS
 10
102.3585502191
 20
-52.1578505619
  0
VERTEX
  8
0
 62
7
  6
CONTINUOUS
 10
135.9369451119
 20
-53.9930830398
  0
SEQEND
  0
POLYLINE
  8
0
 62
7
  6
CONTINUOUS
 66
1
 70
0
  0
VERTEX
  8
0
 62
7
  6
CONTINUOUS
 10
11.4462651624
 20
-33.8268397063
  0
VERTEX
  8
0
 62
7
  6
CONTINUOUS
 10
20.4778908948
 20
-37.9878488473
  0
VERTEX
  8
0
 62
7
  6
CONTINUOUS
 10
30.3500870927
 20
-41.4924986847
  0
VERTEX
  8
0
 62
7
  6
CONTINUOUS
 10
41.0757164758
 20
-44.3464543864
  0
VERTEX
  8
0
 62
7
  6
CONTINUOUS
 10
52.6161908851
 20
-46.5327204486
  0
VERTEX
  8
0
 62
7
  6
CONTINUOUS
 10
64.9848586123
 20
-47.9164907108
  0
VERTEX
  8
0
 62
7
  6
CONTINUOUS
 10
78.0387730251
 20
-48.8568623118
  0
VERTEX
  8
0
 62
7
  6
CONTINUOUS
 10
91.6113575079
 20
-49.6456775216
  0
VERTEX
  8
0
 62
7
  6
CONTINUOUS
 10
105.786850302
 20
-50.3498947869
  0
VERTEX
  8
0
 62
7
  6
CONTINUOUS
 10
120.5975531981
 20
-51.1542832118
  0
VERTEX
  8
0
 62
7
  6
CONTINUOUS
 10
136.0326989325
 20
-51.9972530949
  0
SEQEND
  0
POLYLINE
  8
0
 62
7
  6
CONTINUOUS
 66
1
 70
0
  0
VERTEX
  8
0
 62
7
  6
CONTINUOUS
 10
-53.0318306966
 20
46.956959518
  0
VERTEX
  8
0
 62
7
  6
CONTINUOUS
 10
-49.7853962903
 20
37.1360189154
  0
VERTEX
  8
0
 62
7
  6
CONTINUOUS
 10
-45.9760528628
 20
27.9863256385
  0
VERTEX
  8
0
 62
7
  6
CONTINUOUS
 10
-41.6482879575
 20
19.4973599223
  0
VERTEX
  8
0
 62
7
  6
CONTINUOUS
 10
-36.8147021378
 20
11.6118012543
  0
VERTEX
  8
0
 62
7
  6
CONTINUOUS
 10
-31.4943274848
 20
4.3023106212
  0
VERTEX
  8
0
 62
7
  6
CONTINUOUS
 10
-25.6662303532
 20
-2.4904736446
  0
VERTEX
  8
0
 62
7
  6
CONTINUOUS
 10
-19.2876672771
 20
-8.8168198948
  0
VERTEX
  8
0
 62
7
  6
CONTINUOUS
 10
-12.3727692988
 20
-14.6514836
  0
VERTEX
  8
0
 62
7
  6
CONTINUOUS
 10
-4.9470410148
 20
-19.9681617071
  0
VERTEX
  8
0
 62
7
  6
CONTINUOUS
 10
3.067624142
 20
-24.806113057
  0
VERTEX
  8
0
 62
7
  6
CONTINUOUS
 10
11.7747606577
 20
-29.1835317699
  0
VERTEX
  8
0
 62
7
  6
CONTINUOUS
 10
21.1454059818
 20
-33.0343000989
  0
VERTEX
  8
0
 62
7
  6
CONTINUOUS
 10
31.1486642699
 20
-36.3075905289
  0
VERTEX
  8
0
 62
7
  6
CONTINUOUS
 10
41.8667408152
 20
-38.9857762383
  0
VERTEX
  8
0
 62
7
  6
CONTINUOUS
 10
53.3872268139
 20
-41.0290248453
  0
VERTEX
  8
0
 62
7
  6
CONTINUOUS
 10
65.6928966875
 20
-42.3802596954
  0
SEQEND
  0
POLYLINE
  8
0
 62
7
  6
CONTINUOUS
 66
1
 70
0
  0
VERTEX
  8
0
 62
7
  6
CONTINUOUS
 10
-55.8088447004
 20
46.1449551955
  0
VERTEX
  8
0
 62
7
  6
CONTINUOUS
 10
-58.741590911
 20
57.9548716488
  0
VERTEX
  8
0
 62
7
  6
CONTINUOUS
 10
-60.9797929156
 20
70.5017378029
  0
VERTEX
  8
0
 62
7
  6
CONTINUOUS
 10
-62.4457376911
 20
83.8624386578
  0
VERTEX
  8
0
 62
7
  6
CONTINUOUS
 10
-63.3725643068
 20
97.8063192137
  0
VERTEX
  8
0
 62
7
  6
CONTINUOUS
 10
-63.9203165509
 20
112.1792985067
  0
VERTEX
  8
0
 62
7
  6
CONTINUOUS
 10
-64.2305672443
 20
126.82853943
  0
VERTEX
  8
0
 62
7
  6
CONTINUOUS
 10
-64.5222664813
 20
141.5959279654
  0
VERTEX
  8
0
 62
7
  6
CONTINUOUS
 10
-64.7233262296
 20
156.3432138832
  0
VERTEX
  8
0
 62
7
  6
CONTINUOUS
 10
-64.8605858845
 20
170.924801148
  0
VERTEX
  8
0
 62
7
  6
CONTINUOUS
 10
-64.8562132568
 20
185.2046131587
  0
VERTEX
  8
0
 62
7
  6
CONTINUOUS
 10
-64.6851026381
 20
199.0617906936
  0
VERTEX
  8
0
 62
7
  6
CONTINUOUS
 10
-64.2159139814
 20
212.3050855788
  0
VERTEX
  8
0
 62
7
  6
CONTINUOUS
 10
-63.332569662
 20
224.7505855431
  0
VERTEX
  8
0
 62
7
  6
CONTINUOUS
 10
-61.964176704
 20
236.2554236572
  0
VERTEX
  8
0
 62
7
  6
CONTINUOUS
 10
-59.9874514003
 20
246.589907524
  0
VERTEX
  8
0
 62
7
  6
CONTINUOUS
 10
-57.4434883198
 20
255.8306012761
  0
SEQEND
  0
POLYLINE
  8
0
 62
7
  6
CONTINUOUS
 66
1
 70
0
  0
VERTEX
  8
0
 62
7
  6
CONTINUOUS
 10
-65.3506961614
 20
76.4579274254
  0
VERTEX
  8
0
 62
7
  6
CONTINUOUS
 10
-64.6292761713
 20
70.8400451317
  0
VERTEX
  8
0
 62
7
  6
CONTINUOUS
 10
-63.7087207897
 20
65.2681987365
  0
VERTEX
  8
0
 62
7
  6
CONTINUOUS
 10
-62.6000273582
 20
59.7510247013
  0
VERTEX
  8
0
 62
7
  6
CONTINUOUS
 10
-61.2702038517
 20
54.2626136415
  0
VERTEX
  8
0
 62
7
  6
CONTINUOUS
 10
-59.6847261817
 20
48.7585383357
  0
VERTEX
  8
0
 62
7
  6
CONTINUOUS
 10
-57.859187879
 20
43.3029887549
  0
VERTEX
  8
0
 62
7
  6
CONTINUOUS
 10
-55.795625837
 20
37.9521697357
  0
VERTEX
  8
0
 62
7
  6
CONTINUOUS
 10
-53.5001858791
 20
32.6856094594
  0
VERTEX
  8
0
 62
7
  6
CONTINUOUS
 10
-50.9662249897
 20
27.4972151677
  0
VERTEX
  8
0
 62
7
  6
CONTINUOUS
 10
-48.2341465786
 20
22.400054517
  0
VERTEX
  8
0
 62
7
  6
CONTINUOUS
 10
-45.3620485972
 20
17.4163416909
  0
VERTEX
  8
0
 62
7
  6
CONTINUOUS
 10
-42.2902044056
 20
12.5125443495
  0
VERTEX
  8
0
 62
7
  6
CONTINUOUS
 10
-38.9742919081
 20
7.6353649169
  0
VERTEX
  8
0
 62
7
  6
CONTINUOUS
 10
-35.4261954236
 20
2.866313285
  0
VERTEX
  8
0
 62
7
  6
CONTINUOUS
 10
-31.6403671912
 20
-1.7364105759
  0
VERTEX
  8
0
 62
7
  6
CONTINUOUS
 10
-27.6247813556
 20
-6.1561744774
  0
VERTEX
  8
0
 62
7
  6
CONTINUOUS
 10
-23.3758756098
 20
-10.3589836859
  0
VERTEX
  8
0
 62
7
  6
CONTINUOUS
 10
-18.922711548
 20
-14.3387258669
  0
VERTEX
  8
0
 62
7
  6
CONTINUOUS
 10
-14.2986087901
 20
-18.0640308184
  0
VERTEX
  8
0
 62
7
  6
CONTINUOUS
 10
-9.4872309524
 20
-21.576677409
  0
VERTEX
  8
0
 62
7
  6
CONTINUOUS
 10
-4.4682047962
 20
-24.9091367686
  0
VERTEX
  8
0
 62
7
  6
CONTINUOUS
 10
0.713039494
 20
-28.0579619101
  0
VERTEX
  8
0
 62
7
  6
CONTINUOUS
 10
6.0130329255
 20
-31.0314516463
  0
VERTEX
  8
0
 62
7
  6
CONTINUOUS
 10
11.4462651624
 20
-33.8268397063
  0
SEQEND
  0
POLYLINE
  8
0
 62
7
  6
CONTINUOUS
 66
1
 70
0
  0
VERTEX
  8
0
 62
7
  6
CONTINUOUS
 10
306.372523013
 20
-42.3802588365
  0
VERTEX
  8
0
 62
7
  6
CONTINUOUS
 10
318.8078482925
 20
-41.0102606417
  0
VERTEX
  8
0
 62
7
  6
CONTINUOUS
 10
330.433812975
 20
-38.9353834819
  0
VERTEX
  8
0
 62
7
  6
CONTINUOUS
 10
341.2457534148
 20
-36.2124310027
  0
VERTEX
  8
0
 62
7
  6
CONTINUOUS
 10
351.2988951019
 20
-32.8941992422
  0
VERTEX
  8
0
 62
7
  6
CONTINUOUS
 10
360.6228478792
 20
-29.0315969985
  0
VERTEX
  8
0
 62
7
  6
CONTINUOUS
 10
369.2864109363
 20
-24.6462053328
  0
VERTEX
  8
0
 62
7
  6
CONTINUOUS
 10
377.3626187252
 20
-19.7367563104
  0
VERTEX
  8
0
 62
7
  6
CONTINUOUS
 10
384.8277196286
 20
-14.3472211525
  0
VERTEX
  8
0
 62
7
  6
CONTINUOUS
 10
391.6585000889
 20
-8.53624456
  0
VERTEX
  8
0
 62
7
  6
CONTINUOUS
 10
397.9448969771
 20
-2.2605236203
  0
VERTEX
  8
0
 62
7
  6
CONTINUOUS
 10
403.7455779655
 20
4.5378822081
  0
VERTEX
  8
0
 62
7
  6
CONTINUOUS
 10
409.0470238785
 20
11.8620153976
  0
VERTEX
  8
0
 62
7
  6
CONTINUOUS
 10
413.8493713519
 20
19.7401199764
  0
VERTEX
  8
0
 62
7
  6
CONTINUOUS
 10
418.1376334245
 20
28.194869231
  0
VERTEX
  8
0
 62
7
  6
CONTINUOUS
 10
421.8984563418
 20
37.264350487
  0
VERTEX
  8
0
 62
7
  6
CONTINUOUS
 10
425.0972065001
 20
46.9568449842
  0
SEQEND
  0
POLYLINE
  8
0
 62
7
  6
CONTINUOUS
 66
1
 70
0
  0
VERTEX
  8
0
 62
7
  6
CONTINUOUS
 10
306.5906303484
 20
-45.2876553211
  0
VERTEX
  8
0
 62
7
  6
CONTINUOUS
 10
295.4905643962
 20
-45.9651161568
  0
VERTEX
  8
0
 62
7
  6
CONTINUOUS
 10
284.1322108675
 20
-46.5844886606
  0
VERTEX
  8
0
 62
7
  6
CONTINUOUS
 10
272.5154896418
 20
-47.1440168074
  0
VERTEX
  8
0
 62
7
  6
CONTINUOUS
 10
260.6406410805
 20
-47.6489686724
  0
VERTEX
  8
0
 62
7
  6
CONTINUOUS
 10
248.5079055448
 20
-48.1046123309
  0
SEQEND
  0
POLYLINE
  8
0
 62
7
  6
CONTINUOUS
 66
1
 70
0
  0
VERTEX
  8
0
 62
7
  6
CONTINUOUS
 10
236.1273415588
 20
-53.9931328055
  0
VERTEX
  8
0
 62
7
  6
CONTINUOUS
 10
270.1922598239
 20
-52.1309046297
  0
VERTEX
  8
0
 62
7
  6
CONTINUOUS
 10
296.8642845328
 20
-50.68729662
  0
VERTEX
  8
0
 62
7
  6
CONTINUOUS
 10
313.4906824298
 20
-49.3101475501
  0
VERTEX
  8
0
 62
7
  6
CONTINUOUS
 10
324.867644892
 20
-47.6816429018
  0
VERTEX
  8
0
 62
7
  6
CONTINUOUS
 10
335.2310206272
 20
-45.4319554177
  0
VERTEX
  8
0
 62
7
  6
CONTINUOUS
 10
344.3243036549
 20
-42.7465253503
  0
VERTEX
  8
0
 62
7
  6
CONTINUOUS
 10
353.5442372196
 20
-39.2729872002
  0
VERTEX
  8
0
 62
7
  6
CONTINUOUS
 10
361.5172746084
 20
-35.6152296277
  0
SEQEND
  0
POLYLINE
  8
0
 62
7
  6
CONTINUOUS
 66
1
 70
0
  0
VERTEX
  8
0
 62
7
  6
CONTINUOUS
 10
243.5940511045
 20
-51.6304893509
  0
VERTEX
  8
0
 62
7
  6
CONTINUOUS
 10
251.1532935144
 20
-51.2337993173
  0
VERTEX
  8
0
 62
7
  6
CONTINUOUS
 10
258.787533194
 20
-50.7914570311
  0
VERTEX
  8
0
 62
7
  6
CONTINUOUS
 10
266.2654821736
 20
-50.3506403801
  0
VERTEX
  8
0
 62
7
  6
CONTINUOUS
 10
273.2781903903
 20
-49.9661797955
  0
VERTEX
  8
0
 62
7
  6
CONTINUOUS
 10
280.1357401133
 20
-49.5993916838
  0
VERTEX
  8
0
 62
7
  6
CONTINUOUS
 10
287.1450387207
 20
-49.2370333968
  0
VERTEX
  8
0
 62
7
  6
CONTINUOUS
 10
294.0066608224
 20
-48.8576125286
  0
VERTEX
  8
0
 62
7
  6
CONTINUOUS
 10
300.4273152562
 20
-48.4562765092
  0
VERTEX
  8
0
 62
7
  6
CONTINUOUS
 10
306.6955067162
 20
-47.969863183
  0
VERTEX
  8
0
 62
7
  6
CONTINUOUS
 10
313.1056658225
 20
-47.3329413036
  0
VERTEX
  8
0
 62
7
  6
CONTINUOUS
 10
319.3467236347
 20
-46.5474655739
  0
VERTEX
  8
0
 62
7
  6
CONTINUOUS
 10
325.1158442968
 20
-45.6066638062
  0
VERTEX
  8
0
 62
7
  6
CONTINUOUS
 10
330.6827591748
 20
-44.4712854266
  0
VERTEX
  8
0
 62
7
  6
CONTINUOUS
 10
336.308974605
 20
-43.0681050316
  0
VERTEX
  8
0
 62
7
  6
CONTINUOUS
 10
341.7163298198
 20
-41.4922749223
  0
VERTEX
  8
0
 62
7
  6
CONTINUOUS
 10
346.616108075
 20
-39.8404464024
  0
VERTEX
  8
0
 62
7
  6
CONTINUOUS
 10
351.301483636
 20
-38.0348970608
  0
VERTEX
  8
0
 62
7
  6
CONTINUOUS
 10
355.9940087724
 20
-36.0244334243
  0
VERTEX
  8
0
 62
7
  6
CONTINUOUS
 10
360.6198327277
 20
-33.8261199841
  0
SEQEND
  0
LINE
  8
0
 62
7
  6
CONTINUOUS
 10
243.5940511045
 20
-51.6304893509
 11
235.9368609829
 21
-52.0015149459
  0
LINE
  8
0
 62
7
  6
CONTINUOUS
 10
236.128269245
 20
-53.9932008088
 11
236.0323308527
 21
-53.9974013988
  0
POLYLINE
  8
0
 62
7
  6
CONTINUOUS
 66
1
 70
0
  0
VERTEX
  8
0
 62
7
  6
CONTINUOUS
 10
248.4862094928
 20
-45.1833031794
  0
VERTEX
  8
0
 62
7
  6
CONTINUOUS
 10
260.6476300695
 20
-44.7240544619
  0
VERTEX
  8
0
 62
7
  6
CONTINUOUS
 10
272.5175030489
 20
-44.2084466337
  0
VERTEX
  8
0
 62
7
  6
CONTINUOUS
 10
284.0956917395
 20
-43.6643820337
  0
VERTEX
  8
0
 62
7
  6
CONTINUOUS
 10
295.380122908
 20
-43.0809500039
  0
VERTEX
  8
0
 62
7
  6
CONTINUOUS
 10
306.3674477604
 20
-42.3807486459
  0
SEQEND
  0
POLYLINE
  8
0
 62
7
  6
CONTINUOUS
 66
1
 70
0
  0
VERTEX
  8
0
 62
7
  6
CONTINUOUS
 10
235.9368459769
 20
-52.0011788215
  0
VERTEX
  8
0
 62
7
  6
CONTINUOUS
 10
219.3429430257
 20
-52.6106826246
  0
VERTEX
  8
0
 62
7
  6
CONTINUOUS
 10
202.7122724932
 20
-52.9767419348
  0
VERTEX
  8
0
 62
7
  6
CONTINUOUS
 10
186.0319336156
 20
-53.0991281212
  0
VERTEX
  8
0
 62
7
  6
CONTINUOUS
 10
169.351981771
 20
-52.9767241114
  0
VERTEX
  8
0
 62
7
  6
CONTINUOUS
 10
152.7217555206
 20
-52.6106616494
  0
VERTEX
  8
0
 62
7
  6
CONTINUOUS
 10
136.1285676458
 20
-52.0011790309
  0
SEQEND
  0
LINE
  8
0
 62
7
  6
CONTINUOUS
 10
236.0326989081
 20
-48.5118243512
 11
248.5079055448
 21
-48.1046123309
  0
LINE
  8
0
 62
7
  6
CONTINUOUS
 10
248.4862094928
 20
-45.1833031794
 11
235.9487684718
 21
-45.5878535594
  0
POLYLINE
  8
0
 62
7
  6
CONTINUOUS
 66
1
 70
0
  0
VERTEX
  8
0
 62
7
  6
CONTINUOUS
 10
236.0327032252
 20
-48.5118990057
  0
VERTEX
  8
0
 62
7
  6
CONTINUOUS
 10
219.3691044473
 20
-48.9474384908
  0
VERTEX
  8
0
 62
7
  6
CONTINUOUS
 10
202.7016577741
 20
-49.2160071279
  0
VERTEX
  8
0
 62
7
  6
CONTINUOUS
 10
186.0324572735
 20
-49.3018625986
  0
VERTEX
  8
0
 62
7
  6
CONTINUOUS
 10
169.3633069251
 20
-49.2160028631
  0
VERTEX
  8
0
 62
7
  6
CONTINUOUS
 10
152.6960119797
 20
-48.9474076291
  0
VERTEX
  8
0
 62
7
  6
CONTINUOUS
 10
136.0326641013
 20
-48.5118977006
  0
SEQEND
  0
POLYLINE
  8
0
 62
7
  6
CONTINUOUS
 66
1
 70
0
  0
VERTEX
  8
0
 62
7
  6
CONTINUOUS
 10
136.1162253542
 20
-45.5877251553
  0
VERTEX
  8
0
 62
7
  6
CONTINUOUS
 10
152.750493731
 20
-46.018470563
  0
VERTEX
  8
0
 62
7
  6
CONTINUOUS
 10
169.3914874925
 20
-46.2767815984
  0
VERTEX
  8
0
 62
7
  6
CONTINUOUS
 10
186.0327309681
 20
-46.3628426464
  0
VERTEX
  8
0
 62
7
  6
CONTINUOUS
 10
202.6739219745
 20
-46.2767815898
  0
VERTEX
  8
0
 62
7
  6
CONTINUOUS
 10
219.3147584211
 20
-46.0184738049
  0
VERTEX
  8
0
 62
7
  6
CONTINUOUS
 10
235.9487649173
 20
-45.5877380339
  0
SEQEND
  0
LINE
  8
0
 62
7
  6
CONTINUOUS
 10
123.5575053345
 20
-48.1045485663
 11
136.0327040488
 21
-48.5118374483
  0
POLYLINE
  8
0
 62
7
  6
CONTINUOUS
 66
1
 70
0
  0
VERTEX
  8
0
 62
7
  6
CONTINUOUS
 10
136.0330805525
 20
-53.9973616873
  0
VERTEX
  8
0
 62
7
  6
CONTINUOUS
 10
151.9248552785
 20
-54.5812938925
  0
VERTEX
  8
0
 62
7
  6
CONTINUOUS
 10
168.9397432957
 20
-54.9611725481
  0
VERTEX
  8
0
 62
7
  6
CONTINUOUS
 10
185.9868897932
 20
-55.0884518876
  0
VERTEX
  8
0
 62
7
  6
CONTINUOUS
 10
203.0343587556
 20
-54.9625293939
  0
VERTEX
  8
0
 62
7
  6
CONTINUOUS
 10
220.0494499386
 20
-54.5840018907
  0
VERTEX
  8
0
 62
7
  6
CONTINUOUS
 10
236.0323330633
 20
-53.9973614803
  0
SEQEND
  0
POLYLINE
  8
0
 62
7
  6
CONTINUOUS
 66
1
 70
0
  0
VERTEX
  8
0
 62
7
  6
CONTINUOUS
 10
123.5575053345
 20
-48.1045485663
  0
VERTEX
  8
0
 62
7
  6
CONTINUOUS
 10
111.4247678021
 20
-47.6489686724
  0
VERTEX
  8
0
 62
7
  6
CONTINUOUS
 10
99.5499189756
 20
-47.1440271478
  0
VERTEX
  8
0
 62
7
  6
CONTINUOUS
 10
87.9331980151
 20
-46.5844886606
  0
VERTEX
  8
0
 62
7
  6
CONTINUOUS
 10
76.574844081
 20
-45.9651178791
  0
VERTEX
  8
0
 62
7
  6
CONTINUOUS
 10
65.474777453
 20
-45.2876599139
  0
SEQEND
  0
LINE
  8
0
 62
7
  6
CONTINUOUS
 10
136.1285509794
 20
-52.0014461333
 11
136.0326825831
 21
-51.9972965264
  0
LINE
  8
0
 62
7
  6
CONTINUOUS
 10
136.0330832036
 20
-53.9974016251
 11
135.9369333387
 21
-53.9931918007
  0
POLYLINE
  8
0
 62
7
  6
CONTINUOUS
 66
1
 70
0
  0
VERTEX
  8
0
 62
7
  6
CONTINUOUS
 10
65.6979594633
 20
-42.3807485229
  0
VERTEX
  8
0
 62
7
  6
CONTINUOUS
 10
76.6852551014
 20
-43.0809483406
  0
VERTEX
  8
0
 62
7
  6
CONTINUOUS
 10
87.969699367
 20
-43.6643811586
  0
VERTEX
  8
0
 62
7
  6
CONTINUOUS
 10
99.5479731984
 20
-44.2084496323
  0
VERTEX
  8
0
 62
7
  6
CONTINUOUS
 10
111.4179142696
 20
-44.7240600646
  0
VERTEX
  8
0
 62
7
  6
CONTINUOUS
 10
123.5792967504
 20
-45.1833066585
  0
VERTEX
  8
0
 62
7
  6
CONTINUOUS
 10
136.1170594678
 20
-45.5878666261
  0
SEQEND
  0
POLYLINE
  8
0
 62
7
  6
CONTINUOUS
 66
1
 70
0
  0
VERTEX
  8
0
 62
7
  6
CONTINUOUS
 10
65.474777453
 20
-45.2876599139
  0
VERTEX
  8
0
 62
7
  6
CONTINUOUS
 10
52.7152180029
 20
-43.8404198801
  0
VERTEX
  8
0
 62
7
  6
CONTINUOUS
 10
40.7882340749
 20
-41.7244203315
  0
VERTEX
  8
0
 62
7
  6
CONTINUOUS
 10
29.7295639692
 20
-38.9211356155
  0
VERTEX
  8
0
 62
7
  6
CONTINUOUS
 10
19.4319927856
 20
-35.4861426901
  0
VERTEX
  8
0
 62
7
  6
CONTINUOUS
 10
9.7868769174
 20
-31.4500905078
  0
VERTEX
  8
0
 62
7
  6
CONTINUOUS
 10
0.8342407843
 20
-26.8692374333
  0
VERTEX
  8
0
 62
7
  6
CONTINUOUS
 10
-7.3921049039
 20
-21.8189960421
  0
VERTEX
  8
0
 62
7
  6
CONTINUOUS
 10
-14.9821626244
 20
-16.2725526538
  0
VERTEX
  8
0
 62
7
  6
CONTINUOUS
 10
-22.0244433567
 20
-10.2174603112
  0
VERTEX
  8
0
 62
7
  6
CONTINUOUS
 10
-28.4896108836
 20
-3.6860314213
  0
VERTEX
  8
0
 62
7
  6
CONTINUOUS
 10
-34.3630902484
 20
3.2714162787
  0
VERTEX
  8
0
 62
7
  6
CONTINUOUS
 10
-39.6891086501
 20
10.7213457361
  0
VERTEX
  8
0
 62
7
  6
CONTINUOUS
 10
-44.5159590699
 20
18.7039173188
  0
VERTEX
  8
0
 62
7
  6
CONTINUOUS
 10
-48.8168692057
 20
27.2477210278
  0
VERTEX
  8
0
 62
7
  6
CONTINUOUS
 10
-52.5798300857
 20
36.3999807522
  0
VERTEX
  8
0
 62
7
  6
CONTINUOUS
 10
-55.8088447004
 20
46.1449551955
  0
SEQEND
  0
POLYLINE
  8
0
 62
7
  6
CONTINUOUS
 66
1
 70
0
  0
VERTEX
  8
0
 62
7
  6
CONTINUOUS
 10
24.7540043791
 20
49.9408138475
  0
VERTEX
  8
0
 62
7
  6
CONTINUOUS
 10
25.0733784818
 20
48.055190817
  0
VERTEX
  8
0
 62
7
  6
CONTINUOUS
 10
25.6503946676
 20
46.1898546787
  0
VERTEX
  8
0
 62
7
  6
CONTINUOUS
 10
26.488019785
 20
44.3385356672
  0
VERTEX
  8
0
 62
7
  6
CONTINUOUS
 10
27.5788476773
 20
42.5254525492
  0
VERTEX
  8
0
 62
7
  6
CONTINUOUS
 10
28.9198050701
 20
40.7718105913
  0
VERTEX
  8
0
 62
7
  6
CONTINUOUS
 10
30.4996864151
 20
39.0792103346
  0
VERTEX
  8
0
 62
7
  6
CONTINUOUS
 10
32.3083044515
 20
37.4559146116
  0
VERTEX
  8
0
 62
7
  6
CONTINUOUS
 10
34.3401127739
 20
35.9027875871
  0
VERTEX
  8
0
 62
7
  6
CONTINUOUS
 10
36.5890982113
 20
34.4228878342
  0
VERTEX
  8
0
 62
7
  6
CONTINUOUS
 10
39.0476251086
 20
33.0177285894
  0
VERTEX
  8
0
 62
7
  6
CONTINUOUS
 10
41.7095126781
 20
31.6882098678
  0
VERTEX
  8
0
 62
7
  6
CONTINUOUS
 10
44.5641435777
 20
30.4400336633
  0
VERTEX
  8
0
 62
7
  6
CONTINUOUS
 10
47.6030791417
 20
29.2779076468
  0
VERTEX
  8
0
 62
7
  6
CONTINUOUS
 10
50.8155601677
 20
28.2060879359
  0
VERTEX
  8
0
 62
7
  6
CONTINUOUS
 10
54.1901985898
 20
27.2296385909
  0
VERTEX
  8
0
 62
7
  6
CONTINUOUS
 10
57.719877396
 20
26.3516968915
  0
VERTEX
  8
0
 62
7
  6
CONTINUOUS
 10
61.39501966
 20
25.5773251475
  0
VERTEX
  8
0
 62
7
  6
CONTINUOUS
 10
65.2110266275
 20
24.910869984
  0
VERTEX
  8
0
 62
7
  6
CONTINUOUS
 10
69.1569707028
 20
24.3601498641
  0
VERTEX
  8
0
 62
7
  6
CONTINUOUS
 10
73.2335440617
 20
23.936585678
  0
SEQEND
  0
POLYLINE
  8
0
 62
7
  6
CONTINUOUS
 66
1
 70
0
  0
VERTEX
  8
0
 62
7
  6
CONTINUOUS
 10
24.7544740377
 20
49.9410850614
  0
VERTEX
  8
0
 62
7
  6
CONTINUOUS
 10
25.3313926785
 20
64.0734737031
  0
VERTEX
  8
0
 62
7
  6
CONTINUOUS
 10
25.9661112691
 20
78.38728524
  0
VERTEX
  8
0
 62
7
  6
CONTINUOUS
 10
26.4768204323
 20
92.9096217127
  0
VERTEX
  8
0
 62
7
  6
CONTINUOUS
 10
26.987001461
 20
107.5687054549
  0
VERTEX
  8
0
 62
7
  6
CONTINUOUS
 10
27.479456693
 20
122.2986520365
  0
VERTEX
  8
0
 62
7
  6
CONTINUOUS
 10
27.9219027704
 20
137.1150376691
  0
VERTEX
  8
0
 62
7
  6
CONTINUOUS
 10
28.4344037801
 20
152.007213599
  0
VERTEX
  8
0
 62
7
  6
CONTINUOUS
 10
28.8868919574
 20
166.98019815
  0
VERTEX
  8
0
 62
7
  6
CONTINUOUS
 10
29.4321923217
 20
182.0314273587
  0
VERTEX
  8
0
 62
7
  6
CONTINUOUS
 10
29.888799295
 20
197.1606444512
  0
VERTEX
  8
0
 62
7
  6
CONTINUOUS
 10
30.333480859
 20
212.3876371955
  0
VERTEX
  8
0
 62
7
  6
CONTINUOUS
 10
30.8051246202
 20
227.6347838481
  0
VERTEX
  8
0
 62
7
  6
CONTINUOUS
 10
31.1123994767
 20
242.828139055
  0
VERTEX
  8
0
 62
7
  6
CONTINUOUS
 10
31.4544152704
 20
257.9892951639
  0
SEQEND
  0
POLYLINE
  8
0
 62
7
  6
CONTINUOUS
 66
1
 70
0
  0
VERTEX
  8
0
 62
7
  6
CONTINUOUS
 10
298.8318440492
 20
23.936347541
  0
VERTEX
  8
0
 62
7
  6
CONTINUOUS
 10
303.7242340869
 20
24.4639091011
  0
VERTEX
  8
0
 62
7
  6
CONTINUOUS
 10
308.3809663757
 20
25.1610314923
  0
VERTEX
  8
0
 62
7
  6
CONTINUOUS
 10
312.810621799
 20
26.0128493559
  0
VERTEX
  8
0
 62
7
  6
CONTINUOUS
 10
316.9813474111
 20
26.9945371929
  0
VERTEX
  8
0
 62
7
  6
CONTINUOUS
 10
320.8690430407
 20
28.0905771146
  0
VERTEX
  8
0
 62
7
  6
CONTINUOUS
 10
324.4689211224
 20
29.2818509562
  0
VERTEX
  8
0
 62
7
  6
CONTINUOUS
 10
327.7676350381
 20
30.5516718115
  0
VERTEX
  8
0
 62
7
  6
CONTINUOUS
 10
330.7707382706
 20
31.8847137155
  0
VERTEX
  8
0
 62
7
  6
CONTINUOUS
 10
333.4593930664
 20
33.2535846602
  0
VERTEX
  8
0
 62
7
  6
CONTINUOUS
 10
335.8881892571
 20
34.6801147851
  0
VERTEX
  8
0
 62
7
  6
CONTINUOUS
 10
338.0705988817
 20
36.1324081478
  0
VERTEX
  8
0
 62
7
  6
CONTINUOUS
 10
340.106332339
 20
37.7506020411
  0
VERTEX
  8
0
 62
7
  6
CONTINUOUS
 10
342.1913853226
 20
39.7542644668
  0
VERTEX
  8
0
 62
7
  6
CONTINUOUS
 10
344.0346321068
 20
41.8917449403
  0
VERTEX
  8
0
 62
7
  6
CONTINUOUS
 10
345.3731493968
 20
43.9605574591
  0
VERTEX
  8
0
 62
7
  6
CONTINUOUS
 10
346.3419801543
 20
46.0035248036
  0
VERTEX
  8
0
 62
7
  6
CONTINUOUS
 10
346.9930673431
 20
47.9953146687
  0
VERTEX
  8
0
 62
7
  6
CONTINUOUS
 10
347.3114045035
 20
49.9408138475
  0
SEQEND
  0
LINE
  8
0
 62
7
  6
CONTINUOUS
 10
74.6973946856
 20
51.1395266753
 11
74.7031858025
 21
50.9075825386
  0
LINE
  8
0
 62
7
  6
CONTINUOUS
 10
74.7031858025
 20
50.9075825386
 11
74.7079455527
 21
50.674614105
  0
POLYLINE
  8
0
 62
7
  6
CONTINUOUS
 66
1
 70
0
  0
VERTEX
  8
0
 62
7
  6
CONTINUOUS
 10
73.2335440617
 20
23.936585678
  0
VERTEX
  8
0
 62
7
  6
CONTINUOUS
 10
73.1945352053
 20
27.6262059598
  0
VERTEX
  8
0
 62
7
  6
CONTINUOUS
 10
73.2866744395
 20
31.2023265376
  0
VERTEX
  8
0
 62
7
  6
CONTINUOUS
 10
73.563370901
 20
34.6698919728
  0
VERTEX
  8
0
 62
7
  6
CONTINUOUS
 10
73.9135638496
 20
38.043621748
  0
VERTEX
  8
0
 62
7
  6
CONTINUOUS
 10
74.2426434613
 20
41.3360761212
  0
VERTEX
  8
0
 62
7
  6
CONTINUOUS
 10
74.5183961638
 20
44.540600262
  0
VERTEX
  8
0
 62
7
  6
CONTINUOUS
 10
74.666663835
 20
47.6533017698
  0
VERTEX
  8
0
 62
7
  6
CONTINUOUS
 10
74.707898042
 20
50.6745218134
  0
SEQEND
  0
POLYLINE
  8
0
 62
7
  6
CONTINUOUS
 66
1
 70
0
  0
VERTEX
  8
0
 62
7
  6
CONTINUOUS
 10
74.6981017849
 20
51.1395398519
  0
VERTEX
  8
0
 62
7
  6
CONTINUOUS
 10
75.2374441802
 20
65.2655723593
  0
VERTEX
  8
0
 62
7
  6
CONTINUOUS
 10
75.7900997341
 20
80.1682286124
  0
VERTEX
  8
0
 62
7
  6
CONTINUOUS
 10
76.3637207146
 20
96.049117345
  0
VERTEX
  8
0
 62
7
  6
CONTINUOUS
 10
76.9370995274
 20
112.3013207286
  0
VERTEX
  8
0
 62
7
  6
CONTINUOUS
 10
77.4953407879
 20
128.4938330701
  0
VERTEX
  8
0
 62
7
  6
CONTINUOUS
 10
78.0250453291
 20
144.3021260219
  0
VERTEX
  8
0
 62
7
  6
CONTINUOUS
 10
78.5074138174
 20
159.2078084545
  0
VERTEX
  8
0
 62
7
  6
CONTINUOUS
 10
78.9477495368
 20
173.3103244775
  0
VERTEX
  8
0
 62
7
  6
CONTINUOUS
 10
79.3457218581
 20
186.5171745397
  0
VERTEX
  8
0
 62
7
  6
CONTINUOUS
 10
79.7066806684
 20
198.9361079447
  0
VERTEX
  8
0
 62
7
  6
CONTINUOUS
 10
80.0333577235
 20
210.6247628353
  0
VERTEX
  8
0
 62
7
  6
CONTINUOUS
 10
80.3263591295
 20
221.5965306477
  0
VERTEX
  8
0
 62
7
  6
CONTINUOUS
 10
80.5862941009
 20
231.8877864708
  0
VERTEX
  8
0
 62
7
  6
CONTINUOUS
 10
80.8137935916
 20
241.5326825203
  0
VERTEX
  8
0
 62
7
  6
CONTINUOUS
 10
81.010831067
 20
250.5857290586
  0
VERTEX
  8
0
 62
7
  6
CONTINUOUS
 10
81.1784394202
 20
259.0320959125
  0
SEQEND
  0
POLYLINE
  8
0
 62
7
  6
CONTINUOUS
 66
1
 70
0
  0
VERTEX
  8
0
 62
7
  6
CONTINUOUS
 10
136.0327044412
 20
25.1743346064
  0
VERTEX
  8
0
 62
7
  6
CONTINUOUS
 10
152.6939259609
 20
25.4377234276
  0
VERTEX
  8
0
 62
7
  6
CONTINUOUS
 10
169.3614740176
 20
25.5958647081
  0
VERTEX
  8
0
 62
7
  6
CONTINUOUS
 10
186.033398047
 20
25.6486669993
  0
VERTEX
  8
0
 62
7
  6
CONTINUOUS
 10
202.7051731857
 20
25.5960388074
  0
VERTEX
  8
0
 62
7
  6
CONTINUOUS
 10
219.3722747091
 20
25.4379374579
  0
VERTEX
  8
0
 62
7
  6
CONTINUOUS
 10
236.0327524689
 20
25.1743203254
  0
SEQEND
  0
POLYLINE
  8
0
 62
7
  6
CONTINUOUS
 66
1
 70
0
  0
VERTEX
  8
0
 62
7
  6
CONTINUOUS
 10
136.0327143628
 20
25.1724464671
  0
VERTEX
  8
0
 62
7
  6
CONTINUOUS
 10
124.6681908759
 20
24.9998370278
  0
VERTEX
  8
0
 62
7
  6
CONTINUOUS
 10
113.6608056446
 20
24.7456531027
  0
VERTEX
  8
0
 62
7
  6
CONTINUOUS
 10
103.0180011126
 20
24.5336054426
  0
VERTEX
  8
0
 62
7
  6
CONTINUOUS
 10
92.7347305844
 20
24.338448224
  0
VERTEX
  8
0
 62
7
  6
CONTINUOUS
 10
82.8050692187
 20
24.1173975103
  0
VERTEX
  8
0
 62
7
  6
CONTINUOUS
 10
73.2335636487
 20
23.9363409002
  0
SEQEND
  0
POLYLINE
  8
0
 62
7
  6
CONTINUOUS
 66
1
 70
0
  0
VERTEX
  8
0
 62
7
  6
CONTINUOUS
 10
298.831845234
 20
23.9363409002
  0
VERTEX
  8
0
 62
7
  6
CONTINUOUS
 10
289.2805254183
 20
24.1176132721
  0
VERTEX
  8
0
 62
7
  6
CONTINUOUS
 10
279.3583321379
 20
24.3379802826
  0
VERTEX
  8
0
 62
7
  6
CONTINUOUS
 10
269.0653475201
 20
24.5330158022
  0
VERTEX
  8
0
 62
7
  6
CONTINUOUS
 10
258.4088146635
 20
24.7456351491
  0
VERTEX
  8
0
 62
7
  6
CONTINUOUS
 10
247.3969135074
 20
25.0000411375
  0
VERTEX
  8
0
 62
7
  6
CONTINUOUS
 10
236.0326942332
 20
25.1725382945
  0
SEQEND
  0
LINE
  8
0
 62
7
  6
CONTINUOUS
 10
77.9835472312
 20
352.0494946239
 11
78.0929341611
 21
350.1649686708
  0
POLYLINE
  8
0
 62
7
  6
CONTINUOUS
 66
1
 70
0
  0
VERTEX
  8
0
 62
7
  6
CONTINUOUS
 10
78.0929341611
 20
350.1649686708
  0
VERTEX
  8
0
 62
7
  6
CONTINUOUS
 10
78.1430526642
 20
349.253509208
  0
VERTEX
  8
0
 62
7
  6
CONTINUOUS
 10
78.1500159586
 20
349.110184599
  0
SEQEND
  0
POLYLINE
  8
0
 62
7
  6
CONTINUOUS
 66
1
 70
0
  0
VERTEX
  8
0
 62
7
  6
CONTINUOUS
 10
81.1785436142
 20
259.0314710541
  0
VERTEX
  8
0
 62
7
  6
CONTINUOUS
 10
81.153179939
 20
262.8507085885
  0
VERTEX
  8
0
 62
7
  6
CONTINUOUS
 10
81.13908424
 20
266.6563456982
  0
VERTEX
  8
0
 62
7
  6
CONTINUOUS
 10
81.1413010707
 20
270.3939394313
  0
VERTEX
  8
0
 62
7
  6
CONTINUOUS
 10
81.1544987028
 20
274.2140584951
  0
VERTEX
  8
0
 62
7
  6
CONTINUOUS
 10
81.1767964604
 20
278.3174096954
  0
VERTEX
  8
0
 62
7
  6
CONTINUOUS
 10
81.207611818
 20
282.4776463453
  0
VERTEX
  8
0
 62
7
  6
CONTINUOUS
 10
81.2403729432
 20
286.4701028295
  0
VERTEX
  8
0
 62
7
  6
CONTINUOUS
 10
81.2708159536
 20
290.5335618246
  0
VERTEX
  8
0
 62
7
  6
CONTINUOUS
 10
81.2968986188
 20
294.9107673011
  0
VERTEX
  8
0
 62
7
  6
CONTINUOUS
 10
81.3135445742
 20
299.3158244654
  0
VERTEX
  8
0
 62
7
  6
CONTINUOUS
 10
81.3108828574
 20
303.5367960763
  0
VERTEX
  8
0
 62
7
  6
CONTINUOUS
 10
81.2859726008
 20
307.6489647881
  0
SEQEND
  0
POLYLINE
  8
0
 62
7
  6
CONTINUOUS
 66
1
 70
0
  0
VERTEX
  8
0
 62
7
  6
CONTINUOUS
 10
73.2335636487
 20
23.9363409002
  0
VERTEX
  8
0
 62
7
  6
CONTINUOUS
 10
72.6985137352
 20
15.6885660862
  0
VERTEX
  8
0
 62
7
  6
CONTINUOUS
 10
72.1394079962
 20
7.7859638932
  0
VERTEX
  8
0
 62
7
  6
CONTINUOUS
 10
71.557615078
 20
0.2425332112
  0
VERTEX
  8
0
 62
7
  6
CONTINUOUS
 10
70.9556938149
 20
-6.8544650599
  0
VERTEX
  8
0
 62
7
  6
CONTINUOUS
 10
70.3334322698
 20
-13.4560979986
  0
VERTEX
  8
0
 62
7
  6
CONTINUOUS
 10
69.7011631932
 20
-19.4218811443
  0
VERTEX
  8
0
 62
7
  6
CONTINUOUS
 10
69.0691156623
 20
-24.6047253222
  0
VERTEX
  8
0
 62
7
  6
CONTINUOUS
 10
68.4302054032
 20
-29.1185709278
  0
VERTEX
  8
0
 62
7
  6
CONTINUOUS
 10
67.7784076158
 20
-33.0520179398
  0
VERTEX
  8
0
 62
7
  6
CONTINUOUS
 10
67.1125324045
 20
-36.4990453925
  0
VERTEX
  8
0
 62
7
  6
CONTINUOUS
 10
66.4312938694
 20
-39.5516424383
  0
VERTEX
  8
0
 62
7
  6
CONTINUOUS
 10
65.7325527993
 20
-42.2311806002
  0
SEQEND
  0
LINE
  8
0
 62
7
  6
CONTINUOUS
 10
65.6639283013
 20
-42.7916453521
 11
65.6928967707
 21
-42.3802717161
  0
LINE
  8
0
 62
7
  6
CONTINUOUS
 10
65.4747647322
 20
-45.2878373855
 11
65.6639283013
 21
-42.7916453521
  0
POLYLINE
  8
0
 62
7
  6
CONTINUOUS
 66
1
 70
0
  0
VERTEX
  8
0
 62
7
  6
CONTINUOUS
 10
-52.8041100149
 20
46.9758659866
  0
VERTEX
  8
0
 62
7
  6
CONTINUOUS
 10
-51.8429307433
 20
47.0515360233
  0
VERTEX
  8
0
 62
7
  6
CONTINUOUS
 10
-51.5888205969
 20
47.0707357561
  0
SEQEND
  0
POLYLINE
  8
0
 62
7
  6
CONTINUOUS
 66
1
 70
0
  0
VERTEX
  8
0
 62
7
  6
CONTINUOUS
 10
-51.5888205969
 20
47.0707357561
  0
VERTEX
  8
0
 62
7
  6
CONTINUOUS
 10
-48.5072084988
 20
47.2851527264
  0
VERTEX
  8
0
 62
7
  6
CONTINUOUS
 10
-44.8381329569
 20
47.5081016106
  0
VERTEX
  8
0
 62
7
  6
CONTINUOUS
 10
-40.5123474847
 20
47.7389996912
  0
VERTEX
  8
0
 62
7
  6
CONTINUOUS
 10
-35.5000299812
 20
47.9762359966
  0
VERTEX
  8
0
 62
7
  6
CONTINUOUS
 10
-29.7565472777
 20
48.2202779161
  0
VERTEX
  8
0
 62
7
  6
CONTINUOUS
 10
-23.318683539
 20
48.4671295574
  0
VERTEX
  8
0
 62
7
  6
CONTINUOUS
 10
-16.2838154473
 20
48.7158571543
  0
VERTEX
  8
0
 62
7
  6
CONTINUOUS
 10
-8.741273693
 20
48.9647185192
  0
VERTEX
  8
0
 62
7
  6
CONTINUOUS
 10
-0.8088883303
 20
49.2120001719
  0
VERTEX
  8
0
 62
7
  6
CONTINUOUS
 10
7.439165281
 20
49.4580610996
  0
VERTEX
  8
0
 62
7
  6
CONTINUOUS
 10
15.9521547893
 20
49.7009263312
  0
SEQEND
  0
POLYLINE
  8
0
 62
7
  6
CONTINUOUS
 66
1
 70
0
  0
VERTEX
  8
0
 62
7
  6
CONTINUOUS
 10
15.9521547893
 20
49.7009263312
  0
VERTEX
  8
0
 62
7
  6
CONTINUOUS
 10
27.8763814384
 20
50.0250965817
  0
VERTEX
  8
0
 62
7
  6
CONTINUOUS
 10
31.2673276253
 20
50.1149884409
  0
VERTEX
  8
0
 62
7
  6
CONTINUOUS
 10
34.9373874376
 20
50.2126029297
  0
VERTEX
  8
0
 62
7
  6
CONTINUOUS
 10
38.8726868903
 20
50.3236403659
  0
VERTEX
  8
0
 62
7
  6
CONTINUOUS
 10
43.0675133874
 20
50.4282947585
  0
VERTEX
  8
0
 62
7
  6
CONTINUOUS
 10
47.4920898095
 20
50.543398195
  0
VERTEX
  8
0
 62
7
  6
CONTINUOUS
 10
52.1543866
 20
50.6506646818
  0
VERTEX
  8
0
 62
7
  6
CONTINUOUS
 10
56.9176404298
 20
50.7608845379
  0
VERTEX
  8
0
 62
7
  6
CONTINUOUS
 10
61.6897051739
 20
50.8739260901
  0
VERTEX
  8
0
 62
7
  6
CONTINUOUS
 10
66.3287164451
 20
50.9673337271
  0
VERTEX
  8
0
 62
7
  6
CONTINUOUS
 10
70.6473782356
 20
51.0670994721
  0
VERTEX
  8
0
 62
7
  6
CONTINUOUS
 10
74.6981017849
 20
51.1395398519
  0
SEQEND
  0
LINE
  8
0
 62
7
  6
CONTINUOUS
 10
74.6981213065
 20
51.1396369982
 11
84.4266858682
 21
51.3398025254
  0
LINE
  8
0
 62
7
  6
CONTINUOUS
 10
84.4266858682
 20
51.3398025254
 11
104.4765769187
 21
51.7463894895
  0
POLYLINE
  8
0
 62
7
  6
CONTINUOUS
 66
1
 70
0
  0
VERTEX
  8
0
 62
7
  6
CONTINUOUS
 10
104.4765769187
 20
51.7463894895
  0
VERTEX
  8
0
 62
7
  6
CONTINUOUS
 10
125.3165468315
 20
52.1624471249
  0
VERTEX
  8
0
 62
7
  6
CONTINUOUS
 10
136.0327056447
 20
52.374607484
  0
SEQEND
  0
POLYLINE
  8
0
 62
7
  6
CONTINUOUS
 66
1
 70
0
  0
VERTEX
  8
0
 62
7
  6
CONTINUOUS
 10
136.0326811801
 20
52.3745576106
  0
VERTEX
  8
0
 62
7
  6
CONTINUOUS
 10
152.6991515259
 20
52.3651747224
  0
VERTEX
  8
0
 62
7
  6
CONTINUOUS
 10
169.3658211285
 20
52.3595449518
  0
VERTEX
  8
0
 62
7
  6
CONTINUOUS
 10
186.0326390407
 20
52.3576683401
  0
VERTEX
  8
0
 62
7
  6
CONTINUOUS
 10
202.6994714918
 20
52.3595449256
  0
VERTEX
  8
0
 62
7
  6
CONTINUOUS
 10
219.3661847111
 20
52.3651746896
  0
VERTEX
  8
0
 62
7
  6
CONTINUOUS
 10
236.0327277499
 20
52.3745576106
  0
SEQEND
  0
POLYLINE
  8
0
 62
7
  6
CONTINUOUS
 66
1
 70
0
  0
VERTEX
  8
0
 62
7
  6
CONTINUOUS
 10
297.3673380192
 20
51.1395405148
  0
VERTEX
  8
0
 62
7
  6
CONTINUOUS
 10
301.3706404152
 20
51.0667878343
  0
VERTEX
  8
0
 62
7
  6
CONTINUOUS
 10
305.6582147981
 20
50.9690101134
  0
VERTEX
  8
0
 62
7
  6
CONTINUOUS
 10
310.2845448659
 20
50.8768583938
  0
VERTEX
  8
0
 62
7
  6
CONTINUOUS
 10
315.0572995068
 20
50.7638551126
  0
VERTEX
  8
0
 62
7
  6
CONTINUOUS
 10
319.8307299479
 20
50.653552197
  0
VERTEX
  8
0
 62
7
  6
CONTINUOUS
 10
324.5102269512
 20
50.5451540375
  0
VERTEX
  8
0
 62
7
  6
CONTINUOUS
 10
328.9565301271
 20
50.4278890191
  0
VERTEX
  8
0
 62
7
  6
CONTINUOUS
 10
333.1735536264
 20
50.3212607224
  0
VERTEX
  8
0
 62
7
  6
CONTINUOUS
 10
337.1284607918
 20
50.2084137417
  0
VERTEX
  8
0
 62
7
  6
CONTINUOUS
 10
340.8108486875
 20
50.1107765839
  0
SEQEND
  0
LINE
  8
0
 62
7
  6
CONTINUOUS
 10
246.7660786823
 20
52.1620334677
 11
236.0327045044
 21
52.3745445288
  0
LINE
  8
0
 62
7
  6
CONTINUOUS
 10
267.6250263142
 20
51.7453407865
 11
246.7660786823
 21
52.1620334677
  0
POLYLINE
  8
0
 62
7
  6
CONTINUOUS
 66
1
 70
0
  0
VERTEX
  8
0
 62
7
  6
CONTINUOUS
 10
297.3673380204
 20
51.139540542
  0
VERTEX
  8
0
 62
7
  6
CONTINUOUS
 10
287.6616576946
 20
51.3389820019
  0
VERTEX
  8
0
 62
7
  6
CONTINUOUS
 10
267.6250263142
 20
51.7453407865
  0
SEQEND
  0
LINE
  8
0
 62
7
  6
CONTINUOUS
 10
340.8108486875
 20
50.1107765839
 11
347.3113671235
 21
49.9408352249
  0
POLYLINE
  8
0
 62
7
  6
CONTINUOUS
 66
1
 70
0
  0
VERTEX
  8
0
 62
7
  6
CONTINUOUS
 10
347.3109348449
 20
49.9410850614
  0
VERTEX
  8
0
 62
7
  6
CONTINUOUS
 10
355.8976541541
 20
49.7068335142
  0
VERTEX
  8
0
 62
7
  6
CONTINUOUS
 10
364.3100554533
 20
49.467354311
  0
VERTEX
  8
0
 62
7
  6
CONTINUOUS
 10
372.5848307755
 20
49.2209660678
  0
VERTEX
  8
0
 62
7
  6
CONTINUOUS
 10
380.5799163915
 20
48.9719910152
  0
VERTEX
  8
0
 62
7
  6
CONTINUOUS
 10
388.1135325728
 20
48.7237175996
  0
VERTEX
  8
0
 62
7
  6
CONTINUOUS
 10
395.1917070439
 20
48.4741830945
  0
VERTEX
  8
0
 62
7
  6
CONTINUOUS
 10
401.8360098396
 20
48.2197652391
  0
VERTEX
  8
0
 62
7
  6
CONTINUOUS
 10
407.7541303249
 20
47.9672623253
  0
VERTEX
  8
0
 62
7
  6
CONTINUOUS
 10
412.804792678
 20
47.7271610105
  0
VERTEX
  8
0
 62
7
  6
CONTINUOUS
 10
417.0978186294
 20
47.496831597
  0
VERTEX
  8
0
 62
7
  6
CONTINUOUS
 10
420.6836776652
 20
47.2775762513
  0
VERTEX
  8
0
 62
7
  6
CONTINUOUS
 10
423.6542294414
 20
47.0707357604
  0
SEQEND
  0
POLYLINE
  8
0
 62
7
  6
CONTINUOUS
 66
1
 70
0
  0
VERTEX
  8
0
 62
7
  6
CONTINUOUS
 10
423.6542294414
 20
47.0707357604
  0
VERTEX
  8
0
 62
7
  6
CONTINUOUS
 10
424.6368117246
 20
46.9945896419
  0
VERTEX
  8
0
 62
7
  6
CONTINUOUS
 10
424.8691004517
 20
46.9758332893
  0
VERTEX
  8
0
 62
7
  6
CONTINUOUS
 10
425.0959657535
 20
46.9572058391
  0
SEQEND
  0
LINE
  8
0
 62
7
  6
CONTINUOUS
 10
65.7139775193
 20
-42.3060175081
 11
65.7350934308
 21
-42.2312706049
  0
LINE
  8
0
 62
7
  6
CONTINUOUS
 10
11.4463841595
 20
-33.8274643799
 11
10.805992143
 21
-35.1081252208
  0
POLYLINE
  8
0
 62
7
  6
CONTINUOUS
 66
1
 70
0
  0
VERTEX
  8
0
 62
7
  6
CONTINUOUS
 10
10.805992143
 20
-35.1081252208
  0
VERTEX
  8
0
 62
7
  6
CONTINUOUS
 10
10.6079256183
 20
-35.5006285204
  0
VERTEX
  8
0
 62
7
  6
CONTINUOUS
 10
10.5590530888
 20
-35.5957714048
  0
VERTEX
  8
0
 62
7
  6
CONTINUOUS
 10
10.5482669681
 20
-35.615295546
  0
SEQEND
  0
LINE
  8
0
 62
7
  6
CONTINUOUS
 10
-53.0305766238
 20
46.9572783894
 11
-52.8041100149
 21
46.9758659866
  0
LINE
  8
0
 62
7
  6
CONTINUOUS
 10
6.4708915891
 20
339.5057679666
 11
6.4586235921
 21
339.5282154192
  0
LINE
  8
0
 62
7
  6
CONTINUOUS
 10
6.6084369668
 20
339.2403486365
 11
6.4708915891
 21
339.5057679666
  0
LINE
  8
0
 62
7
  6
CONTINUOUS
 10
7.3746798384
 20
337.7451472781
 11
6.6084369668
 21
339.2403486365
  0
LINE
  8
0
 62
7
  6
CONTINUOUS
 10
136.0205935523
 20
358.0787981093
 11
136.0324837929
 21
357.369500474
  0
LINE
  8
0
 62
7
  6
CONTINUOUS
 10
136.0109615363
 20
353.9077771121
 11
136.041379094
 21
352.0289305311
  0
LINE
  8
0
 62
7
  6
CONTINUOUS
 10
136.0341068202
 20
260.0205694478
 11
136.0330588333
 21
260.0955506738
  0
LINE
  8
0
 62
7
  6
CONTINUOUS
 10
136.0324837929
 20
357.369500474
 11
136.0486254147
 21
356.1923733297
  0
POLYLINE
  8
0
 62
7
  6
CONTINUOUS
 66
1
 70
0
  0
VERTEX
  8
0
 62
7
  6
CONTINUOUS
 10
136.041379094
 20
352.0289305311
  0
VERTEX
  8
0
 62
7
  6
CONTINUOUS
 10
136.0533403892
 20
351.1199858576
  0
VERTEX
  8
0
 62
7
  6
CONTINUOUS
 10
136.0544040701
 20
350.9714542609
  0
SEQEND
  0
POLYLINE
  8
0
 62
7
  6
CONTINUOUS
 66
1
 70
0
  0
VERTEX
  8
0
 62
7
  6
CONTINUOUS
 10
136.0330588333
 20
260.0955506738
  0
VERTEX
  8
0
 62
7
  6
CONTINUOUS
 10
136.0287961081
 20
263.9906685757
  0
VERTEX
  8
0
 62
7
  6
CONTINUOUS
 10
136.0333570426
 20
267.8322684384
  0
VERTEX
  8
0
 62
7
  6
CONTINUOUS
 10
136.0338033563
 20
271.5565276143
  0
SEQEND
  0
LINE
  8
0
 62
7
  6
CONTINUOUS
 10
136.0327186414
 20
308.5858775603
 11
136.0329527158
 21
315.0271522127
  0
LINE
  8
0
 62
7
  6
CONTINUOUS
 10
136.0327008128
 20
353.9066806755
 11
136.0327044413
 21
356.1923598683
  0
LINE
  8
0
 62
7
  6
CONTINUOUS
 10
136.0326989325
 20
-51.9972530949
 11
136.0327040488
 21
-48.5118374483
  0
POLYLINE
  8
0
 62
7
  6
CONTINUOUS
 66
1
 70
0
  0
VERTEX
  8
0
 62
7
  6
CONTINUOUS
 10
136.0338033563
 20
271.5565276143
  0
VERTEX
  8
0
 62
7
  6
CONTINUOUS
 10
136.0331016982
 20
283.5555522614
  0
VERTEX
  8
0
 62
7
  6
CONTINUOUS
 10
136.031411498
 20
287.5207084162
  0
VERTEX
  8
0
 62
7
  6
CONTINUOUS
 10
136.0327373251
 20
300.1680530654
  0
SEQEND
  0
LINE
  8
0
 62
7
  6
CONTINUOUS
 10
136.0327040731
 20
-45.5853235918
 11
136.0327014913
 21
260.0209470243
  0
LINE
  8
0
 62
7
  6
CONTINUOUS
 10
136.0329527158
 20
315.0271522127
 11
136.0328342217
 21
350.9706096518
  0
POLYLINE
  8
0
 62
7
  6
CONTINUOUS
 66
1
 70
0
  0
VERTEX
  8
0
 62
7
  6
CONTINUOUS
 10
136.0327373251
 20
300.1680530654
  0
VERTEX
  8
0
 62
7
  6
CONTINUOUS
 10
136.0410481497
 20
304.4072029168
  0
VERTEX
  8
0
 62
7
  6
CONTINUOUS
 10
136.0327135427
 20
308.586549175
  0
SEQEND
  0
LINE
  8
0
 62
7
  6
CONTINUOUS
 10
136.1078573114
 20
-45.9757028708
 11
136.1170594678
 21
-45.5878666261
  0
LINE
  8
0
 62
7
  6
CONTINUOUS
 10
136.0231199511
 20
-45.9839597145
 11
136.032719977
 21
-45.5853013677
  0
LINE
  8
0
 62
7
  6
CONTINUOUS
 10
135.9481909439
 20
-48.5091912875
 11
136.0231199511
 21
-45.9839597145
  0
POLYLINE
  8
0
 62
7
  6
CONTINUOUS
 66
1
 70
0
  0
VERTEX
  8
0
 62
7
  6
CONTINUOUS
 10
136.0327115631
 20
-48.5118114665
  0
VERTEX
  8
0
 62
7
  6
CONTINUOUS
 10
136.0483599201
 20
-48.0090870701
  0
VERTEX
  8
0
 62
7
  6
CONTINUOUS
 10
136.1078573114
 20
-45.9757028708
  0
SEQEND
  0
LINE
  8
0
 62
7
  6
CONTINUOUS
 10
65.6928966875
 20
-42.3802596954
 11
65.7139775193
 21
-42.3060175081
  0
LINE
  8
0
 62
7
  6
CONTINUOUS
 10
-65.3507884351
 20
76.4579350308
 11
-67.0470952771
 21
76.267008187
  0
POLYLINE
  8
0
 62
7
  6
CONTINUOUS
 66
1
 70
0
  0
VERTEX
  8
0
 62
7
  6
CONTINUOUS
 10
-67.0470952771
 20
76.267008187
  0
VERTEX
  8
0
 62
7
  6
CONTINUOUS
 10
-67.323953255
 20
76.2370162544
  0
VERTEX
  8
0
 62
7
  6
CONTINUOUS
 10
-67.3440356326
 20
76.235278538
  0
SEQEND
  0
LINE
  8
0
 62
7
  6
CONTINUOUS
 10
439.1700549737
 20
74.2250188855
 11
439.1500158801
 21
74.2272331687
  0
LINE
  8
0
 62
7
  6
CONTINUOUS
 10
439.1500158801
 20
74.2272331687
 11
437.1794200654
 21
74.4692997873
  0
LINE
  8
0
 62
7
  6
CONTINUOUS
 10
78.1500590008
 20
349.109624743
 11
78.1851673564
 21
348.9897805602
  0
LINE
  8
0
 62
7
  6
CONTINUOUS
 10
78.1851673564
 20
348.9897805602
 11
78.2027143756
 21
348.9290217901
  0
POLYLINE
  8
0
 62
7
  6
CONTINUOUS
 66
1
 70
0
  0
VERTEX
  8
0
 62
7
  6
CONTINUOUS
 10
78.2027143756
 20
348.9290217901
  0
VERTEX
  8
0
 62
7
  6
CONTINUOUS
 10
78.6930752909
 20
346.9749985423
  0
VERTEX
  8
0
 62
7
  6
CONTINUOUS
 10
79.1495148412
 20
344.6087295622
  0
VERTEX
  8
0
 62
7
  6
CONTINUOUS
 10
79.5752870504
 20
341.7907870549
  0
VERTEX
  8
0
 62
7
  6
CONTINUOUS
 10
79.9632275308
 20
338.4759402444
  0
VERTEX
  8
0
 62
7
  6
CONTINUOUS
 10
80.3083927844
 20
334.6065671136
  0
VERTEX
  8
0
 62
7
  6
CONTINUOUS
 10
80.607236332
 20
330.169581278
  0
VERTEX
  8
0
 62
7
  6
CONTINUOUS
 10
80.8519549535
 20
325.1836621168
  0
VERTEX
  8
0
 62
7
  6
CONTINUOUS
 10
81.0466781777
 20
319.6985761017
  0
VERTEX
  8
0
 62
7
  6
CONTINUOUS
 10
81.1920412281
 20
313.8335382002
  0
VERTEX
  8
0
 62
7
  6
CONTINUOUS
 10
81.2860480992
 20
307.6467266402
  0
SEQEND
  0
POLYLINE
  8
0
 62
7
  6
CONTINUOUS
 66
1
 70
0
  0
VERTEX
  8
0
 62
7
  6
CONTINUOUS
 10
136.0170923564
 20
358.1945010483
  0
VERTEX
  8
0
 62
7
  6
CONTINUOUS
 10
136.0181870393
 20
358.1749364983
  0
VERTEX
  8
0
 62
7
  6
CONTINUOUS
 10
136.0205935523
 20
358.0787981093
  0
SEQEND
  0
LINE
  8
0
 62
7
  6
CONTINUOUS
 10
136.1285509794
 20
-52.0014461333
 11
136.076813563
 21
-53.1502921351
  0
LINE
  8
0
 62
7
  6
CONTINUOUS
 10
136.0326825831
 20
-51.9972965264
 11
135.9645343491
 21
-53.4793543448
  0
POLYLINE
  8
0
 62
7
  6
CONTINUOUS
 66
1
 70
0
  0
VERTEX
  8
0
 62
7
  6
CONTINUOUS
 10
136.076813563
 20
-53.1502921351
  0
VERTEX
  8
0
 62
7
  6
CONTINUOUS
 10
136.0498801985
 20
-53.7099036964
  0
VERTEX
  8
0
 62
7
  6
CONTINUOUS
 10
136.0404480051
 20
-53.8895636054
  0
VERTEX
  8
0
 62
7
  6
CONTINUOUS
 10
136.0345966235
 20
-53.9842285886
  0
VERTEX
  8
0
 62
7
  6
CONTINUOUS
 10
136.0330988176
 20
-53.99739851
  0
SEQEND
  0
POLYLINE
  8
0
 62
7
  6
CONTINUOUS
 66
1
 70
0
  0
VERTEX
  8
0
 62
7
  6
CONTINUOUS
 10
135.9645343491
 20
-53.4793543448
  0
VERTEX
  8
0
 62
7
  6
CONTINUOUS
 10
135.9435765703
 20
-53.8938110795
  0
VERTEX
  8
0
 62
7
  6
CONTINUOUS
 10
135.9382112444
 20
-53.9816917248
  0
SEQEND
  0
LINE
  8
0
 62
7
  6
CONTINUOUS
 10
135.9382112444
 20
-53.9816917248
 11
135.9369463192
 21
-53.9931891241
  0
POLYLINE
  8
0
 62
7
  6
CONTINUOUS
 66
1
 70
0
  0
VERTEX
  8
0
 62
7
  6
CONTINUOUS
 10
177.1149241718
 20
185.4794673762
  0
VERTEX
  8
0
 62
7
  6
CONTINUOUS
 10
173.8775541873
 20
184.2992141703
  0
VERTEX
  8
0
 62
7
  6
CONTINUOUS
 10
170.752840192
 20
182.7609890954
  0
VERTEX
  8
0
 62
7
  6
CONTINUOUS
 10
167.780163428
 20
180.8678040329
  0
VERTEX
  8
0
 62
7
  6
CONTINUOUS
 10
165.0144238527
 20
178.6472630958
  0
VERTEX
  8
0
 62
7
  6
CONTINUOUS
 10
162.5042465837
 20
176.1361327611
  0
VERTEX
  8
0
 62
7
  6
CONTINUOUS
 10
160.2754121648
 20
173.3593252438
  0
VERTEX
  8
0
 62
7
  6
CONTINUOUS
 10
158.3560428352
 20
170.3505818168
  0
VERTEX
  8
0
 62
7
  6
CONTINUOUS
 10
156.7674827915
 20
167.1371790231
  0
VERTEX
  8
0
 62
7
  6
CONTINUOUS
 10
155.5274782488
 20
163.7405036243
  0
VERTEX
  8
0
 62
7
  6
CONTINUOUS
 10
154.6651580022
 20
160.2219155317
  0
VERTEX
  8
0
 62
7
  6
CONTINUOUS
 10
154.1938146722
 20
156.6455031043
  0
VERTEX
  8
0
 62
7
  6
CONTINUOUS
 10
154.1152327898
 20
153.0441939389
  0
VERTEX
  8
0
 62
7
  6
CONTINUOUS
 10
154.4292287025
 20
149.4562031952
  0
VERTEX
  8
0
 62
7
  6
CONTINUOUS
 10
155.1318567735
 20
145.9296770535
  0
VERTEX
  8
0
 62
7
  6
CONTINUOUS
 10
156.2122059569
 20
142.5099259961
  0
VERTEX
  8
0
 62
7
  6
CONTINUOUS
 10
157.6550149439
 20
139.237766669
  0
VERTEX
  8
0
 62
7
  6
CONTINUOUS
 10
159.4373746555
 20
136.1562927324
  0
VERTEX
  8
0
 62
7
  6
CONTINUOUS
 10
161.5418158823
 20
133.2902421597
  0
VERTEX
  8
0
 62
7
  6
CONTINUOUS
 10
163.9502720552
 20
130.66532261
  0
VERTEX
  8
0
 62
7
  6
CONTINUOUS
 10
166.6348359111
 20
128.3170792699
  0
VERTEX
  8
0
 62
7
  6
CONTINUOUS
 10
169.5703890083
 20
126.2717136901
  0
VERTEX
  8
0
 62
7
  6
CONTINUOUS
 10
172.7082108479
 20
124.5674863958
  0
VERTEX
  8
0
 62
7
  6
CONTINUOUS
 10
175.9897324908
 20
123.2321494624
  0
VERTEX
  8
0
 62
7
  6
CONTINUOUS
 10
179.384523442
 20
122.2728558678
  0
VERTEX
  8
0
 62
7
  6
CONTINUOUS
 10
182.856478513
 20
121.6993753353
  0
VERTEX
  8
0
 62
7
  6
CONTINUOUS
 10
186.3588459376
 20
121.5148140514
  0
SEQEND
  0
LINE
  8
0
 62
7
  6
CONTINUOUS
 10
429.5086005871
 20
255.8305659272
 11
426.7506179072
 21
254.9720115611
  0
LINE
  8
0
 62
7
  6
CONTINUOUS
 10
433.3091072539
 20
255.0560852902
 11
435.2304994224
 21
255.6340735575
  0
POLYLINE
  8
0
 62
7
  6
CONTINUOUS
 66
1
 70
0
  0
VERTEX
  8
0
 62
7
  6
CONTINUOUS
 10
197.6824082105
 20
115.2784879784
  0
VERTEX
  8
0
 62
7
  6
CONTINUOUS
 10
195.8021679352
 20
114.7715069563
  0
VERTEX
  8
0
 62
7
  6
CONTINUOUS
 10
193.9041540234
 20
114.356842909
  0
VERTEX
  8
0
 62
7
  6
CONTINUOUS
 10
191.9861501051
 20
114.0341982401
  0
VERTEX
  8
0
 62
7
  6
CONTINUOUS
 10
190.0548438894
 20
113.8045148129
  0
VERTEX
  8
0
 62
7
  6
CONTINUOUS
 10
188.1169234612
 20
113.6687294831
  0
VERTEX
  8
0
 62
7
  6
CONTINUOUS
 10
186.1701726673
 20
113.6265365881
  0
SEQEND
  0
POLYLINE
  8
0
 62
7
  6
CONTINUOUS
 66
1
 70
0
  0
VERTEX
  8
0
 62
7
  6
CONTINUOUS
 10
186.3588456968
 20
121.5147111631
  0
VERTEX
  8
0
 62
7
  6
CONTINUOUS
 10
187.8840157828
 20
121.5568872674
  0
VERTEX
  8
0
 62
7
  6
CONTINUOUS
 10
189.405339416
 20
121.6727934925
  0
VERTEX
  8
0
 62
7
  6
CONTINUOUS
 10
190.9191484714
 20
121.8622313373
  0
VERTEX
  8
0
 62
7
  6
CONTINUOUS
 10
192.4219438704
 20
122.1245436652
  0
VERTEX
  8
0
 62
7
  6
CONTINUOUS
 10
193.910291286
 20
122.4589164378
  0
VERTEX
  8
0
 62
7
  6
CONTINUOUS
 10
195.3806368532
 20
122.8646372219
  0
SEQEND
  0
POLYLINE
  8
0
 62
7
  6
CONTINUOUS
 66
1
 70
0
  0
VERTEX
  8
0
 62
7
  6
CONTINUOUS
 10
186.3752317151
 20
128.5141631969
  0
VERTEX
  8
0
 62
7
  6
CONTINUOUS
 10
184.2370648746
 20
128.5714740735
  0
VERTEX
  8
0
 62
7
  6
CONTINUOUS
 10
182.1102669399
 20
128.80177833
  0
VERTEX
  8
0
 62
7
  6
CONTINUOUS
 10
180.0077197641
 20
129.2033582777
  0
VERTEX
  8
0
 62
7
  6
CONTINUOUS
 10
177.9431093576
 20
129.7741736634
  0
VERTEX
  8
0
 62
7
  6
CONTINUOUS
 10
175.9300301829
 20
130.5110229388
  0
VERTEX
  8
0
 62
7
  6
CONTINUOUS
 10
173.9807716014
 20
131.4092108176
  0
SEQEND
  0
POLYLINE
  8
0
 62
7
  6
CONTINUOUS
 66
1
 70
0
  0
VERTEX
  8
0
 62
7
  6
CONTINUOUS
 10
186.1701726673
 20
113.6265365881
  0
VERTEX
  8
0
 62
7
  6
CONTINUOUS
 10
182.0702072427
 20
113.8485075243
  0
VERTEX
  8
0
 62
7
  6
CONTINUOUS
 10
178.0553338541
 20
114.4757454805
  0
VERTEX
  8
0
 62
7
  6
CONTINUOUS
 10
174.1087592485
 20
115.5123537497
  0
VERTEX
  8
0
 62
7
  6
CONTINUOUS
 10
170.2812144381
 20
116.9455782322
  0
VERTEX
  8
0
 62
7
  6
CONTINUOUS
 10
166.5981552118
 20
118.7769566855
  0
VERTEX
  8
0
 62
7
  6
CONTINUOUS
 10
163.1185378086
 20
120.9671813368
  0
VERTEX
  8
0
 62
7
  6
CONTINUOUS
 10
159.9073410849
 20
123.48375949
  0
VERTEX
  8
0
 62
7
  6
CONTINUOUS
 10
156.9716888858
 20
126.307842192
  0
VERTEX
  8
0
 62
7
  6
CONTINUOUS
 10
154.331294859
 20
129.4216079396
  0
VERTEX
  8
0
 62
7
  6
CONTINUOUS
 10
152.0131322852
 20
132.7899758918
  0
VERTEX
  8
0
 62
7
  6
CONTINUOUS
 10
150.0441400197
 20
136.3892221085
  0
VERTEX
  8
0
 62
7
  6
CONTINUOUS
 10
148.4439243685
 20
140.1676475794
  0
VERTEX
  8
0
 62
7
  6
CONTINUOUS
 10
147.2405298713
 20
144.0723806675
  0
VERTEX
  8
0
 62
7
  6
CONTINUOUS
 10
146.4356038807
 20
148.0836695141
  0
VERTEX
  8
0
 62
7
  6
CONTINUOUS
 10
146.0386676022
 20
152.1844377336
  0
VERTEX
  8
0
 62
7
  6
CONTINUOUS
 10
146.0543997055
 20
156.3154370306
  0
VERTEX
  8
0
 62
7
  6
CONTINUOUS
 10
146.4946661066
 20
160.4241506998
  0
VERTEX
  8
0
 62
7
  6
CONTINUOUS
 10
147.3476413346
 20
164.4712731361
  0
VERTEX
  8
0
 62
7
  6
CONTINUOUS
 10
148.6122735989
 20
168.4137511454
  0
VERTEX
  8
0
 62
7
  6
CONTINUOUS
 10
150.2682854902
 20
172.2082601589
  0
VERTEX
  8
0
 62
7
  6
CONTINUOUS
 10
152.3036635144
 20
175.808670344
  0
VERTEX
  8
0
 62
7
  6
CONTINUOUS
 10
154.6926411475
 20
179.183379092
  0
VERTEX
  8
0
 62
7
  6
CONTINUOUS
 10
157.4154153414
 20
182.2950661719
  0
VERTEX
  8
0
 62
7
  6
CONTINUOUS
 10
160.4420032905
 20
185.1153829285
  0
VERTEX
  8
0
 62
7
  6
CONTINUOUS
 10
163.755579101
 20
187.6137629025
  0
VERTEX
  8
0
 62
7
  6
CONTINUOUS
 10
167.2966820378
 20
189.7596889666
  0
VERTEX
  8
0
 62
7
  6
CONTINUOUS
 10
170.9920356212
 20
191.507231163
  0
VERTEX
  8
0
 62
7
  6
CONTINUOUS
 10
174.8660264731
 20
192.8719047942
  0
SEQEND
  0
LINE
  8
0
 62
7
  6
CONTINUOUS
 10
427.8746880018
 20
46.144915298
 11
425.7722333304
 21
46.7581578179
  0
LINE
  8
0
 62
7
  6
CONTINUOUS
 10
425.7722333304
 20
46.7581578179
 11
425.0972294836
 21
46.9569168878
  0
POLYLINE
  8
0
 62
7
  6
CONTINUOUS
 66
1
 70
0
  0
VERTEX
  8
0
 62
7
  6
CONTINUOUS
 10
173.9807716014
 20
131.4092108176
  0
VERTEX
  8
0
 62
7
  6
CONTINUOUS
 10
171.4136258561
 20
132.9082240869
  0
VERTEX
  8
0
 62
7
  6
CONTINUOUS
 10
169.0354841174
 20
134.6846350045
  0
VERTEX
  8
0
 62
7
  6
CONTINUOUS
 10
166.8723229615
 20
136.7141288985
  0
VERTEX
  8
0
 62
7
  6
CONTINUOUS
 10
164.9531237347
 20
138.9693594723
  0
VERTEX
  8
0
 62
7
  6
CONTINUOUS
 10
163.3036337103
 20
141.4160634469
  0
VERTEX
  8
0
 62
7
  6
CONTINUOUS
 10
161.9376647944
 20
144.0302084686
  0
VERTEX
  8
0
 62
7
  6
CONTINUOUS
 10
160.8689523943
 20
146.7881439496
  0
VERTEX
  8
0
 62
7
  6
CONTINUOUS
 10
160.1148621645
 20
149.6491677444
  0
VERTEX
  8
0
 62
7
  6
CONTINUOUS
 10
159.685730774
 20
152.5719672348
  0
VERTEX
  8
0
 62
7
  6
CONTINUOUS
 10
159.5853287446
 20
155.5224638587
  0
VERTEX
  8
0
 62
7
  6
CONTINUOUS
 10
159.8142536704
 20
158.4628676263
  0
VERTEX
  8
0
 62
7
  6
CONTINUOUS
 10
160.3696222268
 20
161.3609545811
  0
VERTEX
  8
0
 62
7
  6
CONTINUOUS
 10
161.2476430193
 20
164.1871284841
  0
VERTEX
  8
0
 62
7
  6
CONTINUOUS
 10
162.4355474168
 20
166.8968370254
  0
VERTEX
  8
0
 62
7
  6
CONTINUOUS
 10
163.9130852233
 20
169.447960979
  0
VERTEX
  8
0
 62
7
  6
CONTINUOUS
 10
165.6632438793
 20
171.8161881035
  0
VERTEX
  8
0
 62
7
  6
CONTINUOUS
 10
167.6658202313
 20
173.9749351192
  0
VERTEX
  8
0
 62
7
  6
CONTINUOUS
 10
169.8975412256
 20
175.8989202093
  0
VERTEX
  8
0
 62
7
  6
CONTINUOUS
 10
172.3365794026
 20
177.5668030603
  0
VERTEX
  8
0
 62
7
  6
CONTINUOUS
 10
174.9456336204
 20
178.9520074974
  0
VERTEX
  8
0
 62
7
  6
CONTINUOUS
 10
177.6831517462
 20
180.0341980301
  0
VERTEX
  8
0
 62
7
  6
CONTINUOUS
 10
180.5210788709
 20
180.8048841735
  0
VERTEX
  8
0
 62
7
  6
CONTINUOUS
 10
183.4296094934
 20
181.2559853161
  0
VERTEX
  8
0
 62
7
  6
CONTINUOUS
 10
186.3688865638
 20
181.3809767687
  0
SEQEND
  0
POLYLINE
  8
0
 62
7
  6
CONTINUOUS
 66
1
 70
0
  0
VERTEX
  8
0
 62
7
  6
CONTINUOUS
 10
174.9366258637
 20
133.4795616864
  0
VERTEX
  8
0
 62
7
  6
CONTINUOUS
 10
174.9232259722
 20
133.4109868408
  0
VERTEX
  8
0
 62
7
  6
CONTINUOUS
 10
174.8491950192
 20
133.2258443657
  0
VERTEX
  8
0
 62
7
  6
CONTINUOUS
 10
174.7168732133
 20
132.9301573934
  0
VERTEX
  8
0
 62
7
  6
CONTINUOUS
 10
174.5260238814
 20
132.5238653075
  0
VERTEX
  8
0
 62
7
  6
CONTINUOUS
 10
174.2784768766
 20
132.0108304294
  0
VERTEX
  8
0
 62
7
  6
CONTINUOUS
 10
173.9825156777
 20
131.4083656826
  0
SEQEND
  0
POLYLINE
  8
0
 62
7
  6
CONTINUOUS
 66
1
 70
0
  0
VERTEX
  8
0
 62
7
  6
CONTINUOUS
 10
197.1382687965
 20
176.2813307013
  0
VERTEX
  8
0
 62
7
  6
CONTINUOUS
 10
197.1862195635
 20
176.335594783
  0
VERTEX
  8
0
 62
7
  6
CONTINUOUS
 10
197.2973662123
 20
176.5119848495
  0
VERTEX
  8
0
 62
7
  6
CONTINUOUS
 10
197.4678788208
 20
176.8045325637
  0
VERTEX
  8
0
 62
7
  6
CONTINUOUS
 10
197.6976954055
 20
177.2134869167
  0
VERTEX
  8
0
 62
7
  6
CONTINUOUS
 10
197.984560768
 20
177.7348096827
  0
VERTEX
  8
0
 62
7
  6
CONTINUOUS
 10
198.3182758887
 20
178.3500896572
  0
SEQEND
  0
LINE
  8
0
 62
7
  6
CONTINUOUS
 10
177.1149241718
 20
185.4794673762
 11
176.4365051203
 21
187.692607027
  0
LINE
  8
0
 62
7
  6
CONTINUOUS
 10
195.3806239938
 20
122.8646792443
 11
196.0689084058
 21
120.6126552437
  0
LINE
  8
0
 62
7
  6
CONTINUOUS
 10
176.4365051203
 20
187.692607027
 11
175.6769510728
 21
190.1893317736
  0
LINE
  8
0
 62
7
  6
CONTINUOUS
 10
196.0689084058
 20
120.6126552437
 11
196.8468330116
 21
118.0483083689
  0
LINE
  8
0
 62
7
  6
CONTINUOUS
 10
175.6769510728
 20
190.1893317736
 11
174.8660552014
 21
192.871913432
  0
LINE
  8
0
 62
7
  6
CONTINUOUS
 10
196.8468330116
 20
118.0483083689
 11
197.6819734466
 21
115.2783040504
  0
LINE
  8
0
 62
7
  6
CONTINUOUS
 10
236.1204511106
 20
-53.8938715148
 11
236.1259734597
 21
-53.9817453188
  0
POLYLINE
  8
0
 62
7
  6
CONTINUOUS
 66
1
 70
0
  0
VERTEX
  8
0
 62
7
  6
CONTINUOUS
 10
236.0249654696
 20
-53.8895606921
  0
VERTEX
  8
0
 62
7
  6
CONTINUOUS
 10
236.030816962
 20
-53.9842278533
  0
VERTEX
  8
0
 62
7
  6
CONTINUOUS
 10
236.0323148013
 20
-53.997398299
  0
SEQEND
  0
LINE
  8
0
 62
7
  6
CONTINUOUS
 10
236.0993589767
 20
-53.4794205375
 11
236.1204511106
 21
-53.8938715148
  0
LINE
  8
0
 62
7
  6
CONTINUOUS
 10
236.003123918
 20
-53.4573698626
 11
236.0249654696
 21
-53.8895606921
  0
LINE
  8
0
 62
7
  6
CONTINUOUS
 10
235.9368609829
 20
-52.0015149459
 11
236.003123918
 21
-53.4573698626
  0
POLYLINE
  8
0
 62
7
  6
CONTINUOUS
 66
1
 70
0
  0
VERTEX
  8
0
 62
7
  6
CONTINUOUS
 10
236.0327024821
 20
-51.99720878
  0
VERTEX
  8
0
 62
7
  6
CONTINUOUS
 10
236.0505154181
 20
-52.4138490092
  0
VERTEX
  8
0
 62
7
  6
CONTINUOUS
 10
236.0993589767
 20
-53.4794205375
  0
SEQEND
  0
LINE
  8
0
 62
7
  6
CONTINUOUS
 10
236.1172122669
 20
-48.5090212598
 11
236.0613479747
 21
-46.664492794
  0
LINE
  8
0
 62
7
  6
CONTINUOUS
 10
236.0327048514
 20
-48.5118374474
 11
235.9663243275
 21
-46.2791176036
  0
POLYLINE
  8
0
 62
7
  6
CONTINUOUS
 66
1
 70
0
  0
VERTEX
  8
0
 62
7
  6
CONTINUOUS
 10
236.0613479747
 20
-46.664492794
  0
VERTEX
  8
0
 62
7
  6
CONTINUOUS
 10
236.036199994
 20
-45.7448260665
  0
VERTEX
  8
0
 62
7
  6
CONTINUOUS
 10
236.0327053211
 20
-45.5853008682
  0
SEQEND
  0
POLYLINE
  8
0
 62
7
  6
CONTINUOUS
 66
1
 70
0
  0
VERTEX
  8
0
 62
7
  6
CONTINUOUS
 10
235.9663243275
 20
-46.2791176036
  0
VERTEX
  8
0
 62
7
  6
CONTINUOUS
 10
235.9521459969
 20
-45.7428838025
  0
VERTEX
  8
0
 62
7
  6
CONTINUOUS
 10
235.9487684718
 20
-45.5878535594
  0
SEQEND
  0
LINE
  8
0
 62
7
  6
CONTINUOUS
 10
236.029876295
 20
352.4171448891
 11
236.0543939284
 21
353.9077780104
  0
POLYLINE
  8
0
 62
7
  6
CONTINUOUS
 66
1
 70
0
  0
VERTEX
  8
0
 62
7
  6
CONTINUOUS
 10
236.032189515
 20
357.3198825079
  0
VERTEX
  8
0
 62
7
  6
CONTINUOUS
 10
236.044521027
 20
358.0646485574
  0
VERTEX
  8
0
 62
7
  6
CONTINUOUS
 10
236.0471223528
 20
358.171924724
  0
VERTEX
  8
0
 62
7
  6
CONTINUOUS
 10
236.0483178517
 20
358.1945010311
  0
SEQEND
  0
POLYLINE
  8
0
 62
7
  6
CONTINUOUS
 66
1
 70
0
  0
VERTEX
  8
0
 62
7
  6
CONTINUOUS
 10
195.3806368532
 20
122.8646372219
  0
VERTEX
  8
0
 62
7
  6
CONTINUOUS
 10
198.6570648547
 20
124.0552179479
  0
VERTEX
  8
0
 62
7
  6
CONTINUOUS
 10
201.798656854
 20
125.6003269187
  0
VERTEX
  8
0
 62
7
  6
CONTINUOUS
 10
204.7657542581
 20
127.4876867798
  0
VERTEX
  8
0
 62
7
  6
CONTINUOUS
 10
207.5210052732
 20
129.6957598934
  0
VERTEX
  8
0
 62
7
  6
CONTINUOUS
 10
210.0315562873
 20
132.2014390663
  0
VERTEX
  8
0
 62
7
  6
CONTINUOUS
 10
212.2603201883
 20
134.9732977681
  0
VERTEX
  8
0
 62
7
  6
CONTINUOUS
 10
214.1761253633
 20
137.9739857302
  0
VERTEX
  8
0
 62
7
  6
CONTINUOUS
 10
215.7566204505
 20
141.1708240937
  0
VERTEX
  8
0
 62
7
  6
CONTINUOUS
 10
216.9819137616
 20
144.5266827787
  0
VERTEX
  8
0
 62
7
  6
CONTINUOUS
 10
217.8365540195
 20
148.0034571321
  0
VERTEX
  8
0
 62
7
  6
CONTINUOUS
 10
218.3094353536
 20
151.564300459
  0
VERTEX
  8
0
 62
7
  6
CONTINUOUS
 10
218.3917071581
 20
155.1598679602
  0
VERTEX
  8
0
 62
7
  6
CONTINUOUS
 10
218.0829338869
 20
158.7428394413
  0
VERTEX
  8
0
 62
7
  6
CONTINUOUS
 10
217.3875048224
 20
162.2665919962
  0
VERTEX
  8
0
 62
7
  6
CONTINUOUS
 10
216.3192908159
 20
165.6804825313
  0
VERTEX
  8
0
 62
7
  6
CONTINUOUS
 10
214.8891535391
 20
168.9562023504
  0
VERTEX
  8
0
 62
7
  6
CONTINUOUS
 10
213.1077700516
 20
172.0661987916
  0
VERTEX
  8
0
 62
7
  6
CONTINUOUS
 10
211.0005081027
 20
174.9610064838
  0
VERTEX
  8
0
 62
7
  6
CONTINUOUS
 10
208.6019358891
 20
177.5974675037
  0
VERTEX
  8
0
 62
7
  6
CONTINUOUS
 10
205.9355377686
 20
179.951885004
  0
VERTEX
  8
0
 62
7
  6
CONTINUOUS
 10
203.0287423784
 20
181.9995605081
  0
VERTEX
  8
0
 62
7
  6
CONTINUOUS
 10
199.9192094451
 20
183.7118628031
  0
VERTEX
  8
0
 62
7
  6
CONTINUOUS
 10
196.6428295687
 20
185.0673108712
  0
VERTEX
  8
0
 62
7
  6
CONTINUOUS
 10
193.2541493463
 20
186.0452538976
  0
VERTEX
  8
0
 62
7
  6
CONTINUOUS
 10
189.8113360734
 20
186.6334909136
  0
VERTEX
  8
0
 62
7
  6
CONTINUOUS
 10
186.3563936744
 20
186.837469418
  0
SEQEND
  0
LINE
  8
0
 62
7
  6
CONTINUOUS
 10
-54.4628207117
 20
46.5370675194
 11
-53.0315359347
 21
46.9569209075
  0
LINE
  8
0
 62
7
  6
CONTINUOUS
 10
-55.8088814911
 20
46.1449438585
 11
-54.4628207117
 21
46.5370675194
  0
POLYLINE
  8
0
 62
7
  6
CONTINUOUS
 66
1
 70
0
  0
VERTEX
  8
0
 62
7
  6
CONTINUOUS
 10
174.8660264731
 20
192.8719047942
  0
VERTEX
  8
0
 62
7
  6
CONTINUOUS
 10
176.7429428637
 20
193.3790289504
  0
VERTEX
  8
0
 62
7
  6
CONTINUOUS
 10
178.6378187004
 20
193.7939394586
  0
VERTEX
  8
0
 62
7
  6
CONTINUOUS
 10
180.5529030595
 20
194.1169698214
  0
VERTEX
  8
0
 62
7
  6
CONTINUOUS
 10
182.48141496
 20
194.3471396467
  0
VERTEX
  8
0
 62
7
  6
CONTINUOUS
 10
184.4165728282
 20
194.4834691767
  0
VERTEX
  8
0
 62
7
  6
CONTINUOUS
 10
186.3606247357
 20
194.526286871
  0
SEQEND
  0
POLYLINE
  8
0
 62
7
  6
CONTINUOUS
 66
1
 70
0
  0
VERTEX
  8
0
 62
7
  6
CONTINUOUS
 10
186.3563936949
 20
186.8374604463
  0
VERTEX
  8
0
 62
7
  6
CONTINUOUS
 10
184.7883247028
 20
186.8035517669
  0
VERTEX
  8
0
 62
7
  6
CONTINUOUS
 10
183.2270228979
 20
186.6916665127
  0
VERTEX
  8
0
 62
7
  6
CONTINUOUS
 10
181.677423421
 20
186.5026034029
  0
VERTEX
  8
0
 62
7
  6
CONTINUOUS
 10
180.1407848906
 20
186.2371501519
  0
VERTEX
  8
0
 62
7
  6
CONTINUOUS
 10
178.6183478279
 20
185.8957966259
  0
VERTEX
  8
0
 62
7
  6
CONTINUOUS
 10
177.1149241718
 20
185.4794673762
  0
SEQEND
  0
POLYLINE
  8
0
 62
7
  6
CONTINUOUS
 66
1
 70
0
  0
VERTEX
  8
0
 62
7
  6
CONTINUOUS
 10
186.3688865578
 20
181.3809793629
  0
VERTEX
  8
0
 62
7
  6
CONTINUOUS
 10
188.4403765915
 20
181.2722933659
  0
VERTEX
  8
0
 62
7
  6
CONTINUOUS
 10
190.4969654894
 20
181.001792342
  0
VERTEX
  8
0
 62
7
  6
CONTINUOUS
 10
192.5255714931
 20
180.5709033545
  0
VERTEX
  8
0
 62
7
  6
CONTINUOUS
 10
194.5128933992
 20
179.9828291609
  0
VERTEX
  8
0
 62
7
  6
CONTINUOUS
 10
196.4460367131
 20
179.2419397707
  0
VERTEX
  8
0
 62
7
  6
CONTINUOUS
 10
198.3128349838
 20
178.3529886336
  0
SEQEND
  0
POLYLINE
  8
0
 62
7
  6
CONTINUOUS
 66
1
 70
0
  0
VERTEX
  8
0
 62
7
  6
CONTINUOUS
 10
186.3606247357
 20
194.526286871
  0
VERTEX
  8
0
 62
7
  6
CONTINUOUS
 10
190.4675436033
 20
194.3054468498
  0
VERTEX
  8
0
 62
7
  6
CONTINUOUS
 10
194.4955686923
 20
193.6740850062
  0
VERTEX
  8
0
 62
7
  6
CONTINUOUS
 10
198.4669042294
 20
192.6254188869
  0
VERTEX
  8
0
 62
7
  6
CONTINUOUS
 10
202.3146200776
 20
191.1796672403
  0
VERTEX
  8
0
 62
7
  6
CONTINUOUS
 10
205.9899607636
 20
189.3464770997
  0
VERTEX
  8
0
 62
7
  6
CONTINUOUS
 10
209.4607409512
 20
187.1506620366
  0
VERTEX
  8
0
 62
7
  6
CONTINUOUS
 10
212.6878985054
 20
184.6103242812
  0
VERTEX
  8
0
 62
7
  6
CONTINUOUS
 10
215.6435047354
 20
181.754994964
  0
VERTEX
  8
0
 62
7
  6
CONTINUOUS
 10
218.2941359729
 20
178.609429106
  0
VERTEX
  8
0
 62
7
  6
CONTINUOUS
 10
220.6174080323
 20
175.2059767706
  0
VERTEX
  8
0
 62
7
  6
CONTINUOUS
 10
222.5865562815
 20
171.5696483646
  0
VERTEX
  8
0
 62
7
  6
CONTINUOUS
 10
224.1814363761
 20
167.7474415682
  0
VERTEX
  8
0
 62
7
  6
CONTINUOUS
 10
225.3744377266
 20
163.7786252431
  0
VERTEX
  8
0
 62
7
  6
CONTINUOUS
 10
226.1611884881
 20
159.713932535
  0
VERTEX
  8
0
 62
7
  6
CONTINUOUS
 10
226.5266998463
 20
155.6083285547
  0
VERTEX
  8
0
 62
7
  6
CONTINUOUS
 10
226.475064203
 20
151.4890766173
  0
VERTEX
  8
0
 62
7
  6
CONTINUOUS
 10
226.0002002902
 20
147.3789154953
  0
VERTEX
  8
0
 62
7
  6
CONTINUOUS
 10
225.1174311458
 20
143.3415825973
  0
VERTEX
  8
0
 62
7
  6
CONTINUOUS
 10
223.8331476553
 20
139.4410996951
  0
VERTEX
  8
0
 62
7
  6
CONTINUOUS
 10
222.1678205428
 20
135.7000634201
  0
VERTEX
  8
0
 62
7
  6
CONTINUOUS
 10
220.1385962668
 20
132.1536694662
  0
VERTEX
  8
0
 62
7
  6
CONTINUOUS
 10
217.7616981352
 20
128.8290819727
  0
VERTEX
  8
0
 62
7
  6
CONTINUOUS
 10
215.044024837
 20
125.7517919781
  0
VERTEX
  8
0
 62
7
  6
CONTINUOUS
 10
212.030789678
 20
122.9621423174
  0
VERTEX
  8
0
 62
7
  6
CONTINUOUS
 10
208.7611014323
 20
120.505466915
  0
VERTEX
  8
0
 62
7
  6
CONTINUOUS
 10
205.260488283
 20
118.3928334031
  0
VERTEX
  8
0
 62
7
  6
CONTINUOUS
 10
201.5723995193
 20
116.6536428702
  0
VERTEX
  8
0
 62
7
  6
CONTINUOUS
 10
197.6824082105
 20
115.2784879784
  0
SEQEND
  0
LINE
  8
0
 62
7
  6
CONTINUOUS
 10
-61.243870732
 20
255.0561016155
 11
-63.1652021548
 21
255.6340724883
  0
LINE
  8
0
 62
7
  6
CONTINUOUS
 10
-57.4436373399
 20
255.8306474432
 11
-54.6855330917
 21
254.972059158
  0
POLYLINE
  8
0
 62
7
  6
CONTINUOUS
 66
1
 70
0
  0
VERTEX
  8
0
 62
7
  6
CONTINUOUS
 10
198.3128349838
 20
178.3529886336
  0
VERTEX
  8
0
 62
7
  6
CONTINUOUS
 10
199.4701340387
 20
177.7078330174
  0
VERTEX
  8
0
 62
7
  6
CONTINUOUS
 10
200.592174158
 20
177.0066322661
  0
VERTEX
  8
0
 62
7
  6
CONTINUOUS
 10
201.6757673548
 20
176.2515423448
  0
VERTEX
  8
0
 62
7
  6
CONTINUOUS
 10
202.7193586414
 20
175.4440441074
  0
VERTEX
  8
0
 62
7
  6
CONTINUOUS
 10
203.7213721325
 20
174.5855491694
  0
VERTEX
  8
0
 62
7
  6
CONTINUOUS
 10
204.6788116736
 20
173.6784364467
  0
SEQEND
  0
POLYLINE
  8
0
 62
7
  6
CONTINUOUS
 66
1
 70
0
  0
VERTEX
  8
0
 62
7
  6
CONTINUOUS
 10
204.6788116736
 20
173.6784364467
  0
VERTEX
  8
0
 62
7
  6
CONTINUOUS
 10
206.7259220669
 20
171.3864300407
  0
VERTEX
  8
0
 62
7
  6
CONTINUOUS
 10
208.4987066978
 20
168.866993107
  0
VERTEX
  8
0
 62
7
  6
CONTINUOUS
 10
209.9687614088
 20
166.1508287916
  0
VERTEX
  8
0
 62
7
  6
CONTINUOUS
 10
211.1128393238
 20
163.2793550837
  0
VERTEX
  8
0
 62
7
  6
CONTINUOUS
 10
211.9128891954
 20
160.2982520438
  0
VERTEX
  8
0
 62
7
  6
CONTINUOUS
 10
212.3602150285
 20
157.2416094405
  0
VERTEX
  8
0
 62
7
  6
CONTINUOUS
 10
212.4475404639
 20
154.1452552668
  0
VERTEX
  8
0
 62
7
  6
CONTINUOUS
 10
212.171118741
 20
151.0538937203
  0
VERTEX
  8
0
 62
7
  6
CONTINUOUS
 10
211.5319529197
 20
148.0077253647
  0
VERTEX
  8
0
 62
7
  6
CONTINUOUS
 10
210.5384888831
 20
145.0564449937
  0
VERTEX
  8
0
 62
7
  6
CONTINUOUS
 10
209.2072047278
 20
142.2465053109
  0
VERTEX
  8
0
 62
7
  6
CONTINUOUS
 10
207.5566932562
 20
139.6146346426
  0
VERTEX
  8
0
 62
7
  6
CONTINUOUS
 10
205.6113615811
 20
137.1970857203
  0
VERTEX
  8
0
 62
7
  6
CONTINUOUS
 10
203.3958757662
 20
135.024003766
  0
VERTEX
  8
0
 62
7
  6
CONTINUOUS
 10
200.9356137723
 20
133.1214491727
  0
VERTEX
  8
0
 62
7
  6
CONTINUOUS
 10
198.2692159845
 20
131.521355475
  0
VERTEX
  8
0
 62
7
  6
CONTINUOUS
 10
195.4376108237
 20
130.246559069
  0
VERTEX
  8
0
 62
7
  6
CONTINUOUS
 10
192.4821226383
 20
129.314299488
  0
VERTEX
  8
0
 62
7
  6
CONTINUOUS
 10
189.4490923733
 20
128.7355924554
  0
VERTEX
  8
0
 62
7
  6
CONTINUOUS
 10
186.3752317107
 20
128.514161325
  0
SEQEND
  0
LINE
  8
0
 62
7
  6
CONTINUOUS
 10
236.1259734597
 20
-53.9817453188
 11
236.1273399878
 21
-53.9932381842
  0
LINE
  8
0
 62
7
  6
CONTINUOUS
 10
236.0760236854
 20
353.9053270929
 11
236.0327008128
 21
356.1923598683
  0
POLYLINE
  8
0
 62
7
  6
CONTINUOUS
 66
1
 70
0
  0
VERTEX
  8
0
 62
7
  6
CONTINUOUS
 10
236.0327239527
 20
30.0209819252
  0
VERTEX
  8
0
 62
7
  6
CONTINUOUS
 10
236.0418307167
 20
27.592865025
  0
VERTEX
  8
0
 62
7
  6
CONTINUOUS
 10
236.0327012634
 20
25.1724702521
  0
SEQEND
  0
POLYLINE
  8
0
 62
7
  6
CONTINUOUS
 66
1
 70
0
  0
VERTEX
  8
0
 62
7
  6
CONTINUOUS
 10
236.0321983199
 20
267.8162690888
  0
VERTEX
  8
0
 62
7
  6
CONTINUOUS
 10
236.0370106036
 20
263.9825743538
  0
VERTEX
  8
0
 62
7
  6
CONTINUOUS
 10
236.0330527294
 20
260.0955502454
  0
SEQEND
  0
POLYLINE
  8
0
 62
7
  6
CONTINUOUS
 66
1
 70
0
  0
VERTEX
  8
0
 62
7
  6
CONTINUOUS
 10
236.0310155865
 20
291.5138878822
  0
VERTEX
  8
0
 62
7
  6
CONTINUOUS
 10
236.0330738114
 20
287.4903592853
  0
VERTEX
  8
0
 62
7
  6
CONTINUOUS
 10
236.0331699284
 20
279.3894898394
  0
SEQEND
  0
POLYLINE
  8
0
 62
7
  6
CONTINUOUS
 66
1
 70
0
  0
VERTEX
  8
0
 62
7
  6
CONTINUOUS
 10
236.0326285624
 20
-19.8228366481
  0
VERTEX
  8
0
 62
7
  6
CONTINUOUS
 10
236.0341349289
 20
-25.9484434779
  0
VERTEX
  8
0
 62
7
  6
CONTINUOUS
 10
236.0326221592
 20
-31.3552429874
  0
SEQEND
  0
LINE
  8
0
 62
7
  6
CONTINUOUS
 10
236.0327681377
 20
343.7179273724
 11
236.0327030448
 21
340.3305074523
  0
LINE
  8
0
 62
7
  6
CONTINUOUS
 10
236.0327099745
 20
-51.9972530946
 11
236.0326989081
 21
-48.5118243512
  0
LINE
  8
0
 62
7
  6
CONTINUOUS
 10
236.0317979078
 20
133.4864841567
 11
236.0327032377
 21
52.3746265391
  0
LINE
  8
0
 62
7
  6
CONTINUOUS
 10
236.0324261987
 20
260.0955570231
 11
236.0317979078
 21
133.4864841567
  0
LINE
  8
0
 62
7
  6
CONTINUOUS
 10
236.0326672673
 20
331.8031755258
 11
236.0326906756
 21
308.5861437713
  0
LINE
  8
0
 62
7
  6
CONTINUOUS
 10
236.0327030448
 20
340.3305074523
 11
236.0326672673
 21
331.8031755258
  0
LINE
  8
0
 62
7
  6
CONTINUOUS
 10
236.0326942332
 20
25.1725382945
 11
236.0323754673
 21
-6.0940348658
  0
LINE
  8
0
 62
7
  6
CONTINUOUS
 10
236.0323754673
 20
-6.0940348658
 11
236.0326285624
 21
-19.8228366481
  0
LINE
  8
0
 62
7
  6
CONTINUOUS
 10
236.0326724009
 20
350.9706079037
 11
236.0327681377
 21
343.7179273724
  0
POLYLINE
  8
0
 62
7
  6
CONTINUOUS
 66
1
 70
0
  0
VERTEX
  8
0
 62
7
  6
CONTINUOUS
 10
236.0331699284
 20
279.3894898394
  0
VERTEX
  8
0
 62
7
  6
CONTINUOUS
 10
236.0320474096
 20
275.3121804818
  0
VERTEX
  8
0
 62
7
  6
CONTINUOUS
 10
236.0321983199
 20
267.8162690888
  0
SEQEND
  0
POLYLINE
  8
0
 62
7
  6
CONTINUOUS
 66
1
 70
0
  0
VERTEX
  8
0
 62
7
  6
CONTINUOUS
 10
236.0326221592
 20
-31.3552429874
  0
VERTEX
  8
0
 62
7
  6
CONTINUOUS
 10
236.0325594675
 20
-39.8106667034
  0
VERTEX
  8
0
 62
7
  6
CONTINUOUS
 10
236.0304290068
 20
-42.9896987991
  0
VERTEX
  8
0
 62
7
  6
CONTINUOUS
 10
236.0326875153
 20
-45.5853241427
  0
SEQEND
  0
POLYLINE
  8
0
 62
7
  6
CONTINUOUS
 66
1
 70
0
  0
VERTEX
  8
0
 62
7
  6
CONTINUOUS
 10
236.0338863227
 20
46.038026284
  0
VERTEX
  8
0
 62
7
  6
CONTINUOUS
 10
236.0312142869
 20
41.6676871926
  0
VERTEX
  8
0
 62
7
  6
CONTINUOUS
 10
236.032755714
 20
39.3645872598
  0
VERTEX
  8
0
 62
7
  6
CONTINUOUS
 10
236.0327239527
 20
30.0209819252
  0
SEQEND
  0
POLYLINE
  8
0
 62
7
  6
CONTINUOUS
 66
1
 70
0
  0
VERTEX
  8
0
 62
7
  6
CONTINUOUS
 10
236.0327045502
 20
308.586728171
  0
VERTEX
  8
0
 62
7
  6
CONTINUOUS
 10
236.024660692
 20
304.4003263774
  0
VERTEX
  8
0
 62
7
  6
CONTINUOUS
 10
236.0328128809
 20
300.1539479684
  0
VERTEX
  8
0
 62
7
  6
CONTINUOUS
 10
236.0310155865
 20
291.5138878822
  0
SEQEND
  0
POLYLINE
  8
0
 62
7
  6
CONTINUOUS
 66
1
 70
0
  0
VERTEX
  8
0
 62
7
  6
CONTINUOUS
 10
236.0327045044
 20
52.3745445288
  0
VERTEX
  8
0
 62
7
  6
CONTINUOUS
 10
236.0276454923
 20
50.2257127498
  0
VERTEX
  8
0
 62
7
  6
CONTINUOUS
 10
236.0327562035
 20
48.1027678318
  0
VERTEX
  8
0
 62
7
  6
CONTINUOUS
 10
236.0338863227
 20
46.038026284
  0
SEQEND
  0
LINE
  8
0
 62
7
  6
CONTINUOUS
 10
236.0109516388
 20
350.9714552045
 11
236.0144422992
 21
351.3377735009
  0
LINE
  8
0
 62
7
  6
CONTINUOUS
 10
236.0167848244
 20
356.1923733123
 11
236.032189515
 21
357.3198825079
  0
LINE
  8
0
 62
7
  6
CONTINUOUS
 10
236.0144422992
 20
351.3377735009
 11
236.029876295
 21
352.4171448891
  0
LINE
  8
0
 62
7
  6
CONTINUOUS
 10
293.8978274229
 20
349.0503796889
 11
293.8626938606
 21
348.9290218387
  0
LINE
  8
0
 62
7
  6
CONTINUOUS
 10
293.9153828159
 20
349.1101040992
 11
293.8978274229
 21
349.0503796889
  0
POLYLINE
  8
0
 62
7
  6
CONTINUOUS
 66
1
 70
0
  0
VERTEX
  8
0
 62
7
  6
CONTINUOUS
 10
361.5172719047
 20
-35.6152306283
  0
VERTEX
  8
0
 62
7
  6
CONTINUOUS
 10
361.5074628749
 20
-35.5973666126
  0
VERTEX
  8
0
 62
7
  6
CONTINUOUS
 10
361.4616909491
 20
-35.508049167
  0
SEQEND
  0
POLYLINE
  8
0
 62
7
  6
CONTINUOUS
 66
1
 70
0
  0
VERTEX
  8
0
 62
7
  6
CONTINUOUS
 10
306.3328552558
 20
-42.2311806709
  0
VERTEX
  8
0
 62
7
  6
CONTINUOUS
 10
305.6808161511
 20
-39.7492747727
  0
VERTEX
  8
0
 62
7
  6
CONTINUOUS
 10
305.0292916036
 20
-36.8651081187
  0
VERTEX
  8
0
 62
7
  6
CONTINUOUS
 10
304.3723005756
 20
-33.5240203658
  0
VERTEX
  8
0
 62
7
  6
CONTINUOUS
 10
303.7150192094
 20
-29.6336283458
  0
VERTEX
  8
0
 62
7
  6
CONTINUOUS
 10
303.058031719
 20
-25.0644568874
  0
VERTEX
  8
0
 62
7
  6
CONTINUOUS
 10
302.4041080192
 20
-19.7717788421
  0
VERTEX
  8
0
 62
7
  6
CONTINUOUS
 10
301.7612774111
 20
-13.7524004377
  0
VERTEX
  8
0
 62
7
  6
CONTINUOUS
 10
301.132074821
 20
-7.1072267981
  0
VERTEX
  8
0
 62
7
  6
CONTINUOUS
 10
300.523071955
 20
0.0517717156
  0
VERTEX
  8
0
 62
7
  6
CONTINUOUS
 10
299.935247687
 20
7.6604069838
  0
VERTEX
  8
0
 62
7
  6
CONTINUOUS
 10
299.3709709848
 20
15.6272873213
  0
VERTEX
  8
0
 62
7
  6
CONTINUOUS
 10
298.831845234
 20
23.9363409002
  0
SEQEND
  0
LINE
  8
0
 62
7
  6
CONTINUOUS
 10
364.6908003983
 20
337.7452650649
 11
365.456979526
 21
339.2403200895
  0
POLYLINE
  8
0
 62
7
  6
CONTINUOUS
 66
1
 70
0
  0
VERTEX
  8
0
 62
7
  6
CONTINUOUS
 10
365.456979526
 20
339.2403200895
  0
VERTEX
  8
0
 62
7
  6
CONTINUOUS
 10
365.5945167284
 20
339.5057199538
  0
VERTEX
  8
0
 62
7
  6
CONTINUOUS
 10
365.6067861546
 20
339.5281752841
  0
SEQEND
  0
LINE
  8
0
 62
7
  6
CONTINUOUS
 10
361.4616909491
 20
-35.508049167
 11
360.975149894
 21
-34.5385324926
  0
LINE
  8
0
 62
7
  6
CONTINUOUS
 10
360.975149894
 20
-34.5385324926
 11
360.6202295195
 21
-33.826939844
  0
POLYLINE
  8
0
 62
7
  6
CONTINUOUS
 66
1
 70
0
  0
VERTEX
  8
0
 62
7
  6
CONTINUOUS
 10
306.3674477604
 20
-42.3807486459
  0
VERTEX
  8
0
 62
7
  6
CONTINUOUS
 10
306.3567799024
 20
-42.3310355918
  0
VERTEX
  8
0
 62
7
  6
CONTINUOUS
 10
306.3515941861
 20
-42.3060731713
  0
VERTEX
  8
0
 62
7
  6
CONTINUOUS
 10
306.34608787
 20
-42.2810865589
  0
VERTEX
  8
0
 62
7
  6
CONTINUOUS
 10
306.3397891167
 20
-42.2561280979
  0
VERTEX
  8
0
 62
7
  6
CONTINUOUS
 10
306.3328552558
 20
-42.2311806709
  0
SEQEND
  0
LINE
  8
0
 62
7
  6
CONTINUOUS
 10
306.5906246636
 20
-45.2875680137
 11
306.4511808996
 21
-43.4625767937
  0
POLYLINE
  8
0
 62
7
  6
CONTINUOUS
 66
1
 70
0
  0
VERTEX
  8
0
 62
7
  6
CONTINUOUS
 10
306.4511808996
 20
-43.4625767937
  0
VERTEX
  8
0
 62
7
  6
CONTINUOUS
 10
306.3835679986
 20
-42.54228831
  0
VERTEX
  8
0
 62
7
  6
CONTINUOUS
 10
306.3725102648
 20
-42.38024438
  0
SEQEND
  0
POLYLINE
  8
0
 62
7
  6
CONTINUOUS
 66
1
 70
0
  0
VERTEX
  8
0
 62
7
  6
CONTINUOUS
 10
297.3672875764
 20
51.1396369929
  0
VERTEX
  8
0
 62
7
  6
CONTINUOUS
 10
296.8253469924
 20
65.2998409776
  0
VERTEX
  8
0
 62
7
  6
CONTINUOUS
 10
296.2698979825
 20
80.2219337177
  0
VERTEX
  8
0
 62
7
  6
CONTINUOUS
 10
295.6930884054
 20
96.107760217
  0
VERTEX
  8
0
 62
7
  6
CONTINUOUS
 10
295.1184495957
 20
112.3499120583
  0
VERTEX
  8
0
 62
7
  6
CONTINUOUS
 10
294.563907273
 20
128.5156759055
  0
VERTEX
  8
0
 62
7
  6
CONTINUOUS
 10
294.0384597427
 20
144.2852912614
  0
VERTEX
  8
0
 62
7
  6
CONTINUOUS
 10
293.5591539831
 20
159.1587607526
  0
VERTEX
  8
0
 62
7
  6
CONTINUOUS
 10
293.1198232683
 20
173.2454355104
  0
VERTEX
  8
0
 62
7
  6
CONTINUOUS
 10
292.7210840228
 20
186.4594372213
  0
VERTEX
  8
0
 62
7
  6
CONTINUOUS
 10
292.3596858254
 20
198.8881950926
  0
VERTEX
  8
0
 62
7
  6
CONTINUOUS
 10
292.0326355549
 20
210.5820154898
  0
VERTEX
  8
0
 62
7
  6
CONTINUOUS
 10
291.7397302586
 20
221.5647841258
  0
VERTEX
  8
0
 62
7
  6
CONTINUOUS
 10
291.4803560302
 20
231.8643229907
  0
VERTEX
  8
0
 62
7
  6
CONTINUOUS
 10
291.2527282329
 20
241.51826637
  0
VERTEX
  8
0
 62
7
  6
CONTINUOUS
 10
291.0546132893
 20
250.5795442329
  0
VERTEX
  8
0
 62
7
  6
CONTINUOUS
 10
290.8867698046
 20
259.0310226108
  0
SEQEND
  0
POLYLINE
  8
0
 62
7
  6
CONTINUOUS
 66
1
 70
0
  0
VERTEX
  8
0
 62
7
  6
CONTINUOUS
 10
297.3579064768
 20
50.7319948848
  0
VERTEX
  8
0
 62
7
  6
CONTINUOUS
 10
297.3884148639
 20
47.8325405086
  0
VERTEX
  8
0
 62
7
  6
CONTINUOUS
 10
297.5307813267
 20
44.7801702852
  0
VERTEX
  8
0
 62
7
  6
CONTINUOUS
 10
297.802193706
 20
41.5684609548
  0
VERTEX
  8
0
 62
7
  6
CONTINUOUS
 10
298.130818445
 20
38.2310723854
  0
VERTEX
  8
0
 62
7
  6
CONTINUOUS
 10
298.4902633891
 20
34.7936217969
  0
VERTEX
  8
0
 62
7
  6
CONTINUOUS
 10
298.7763275009
 20
31.262142235
  0
VERTEX
  8
0
 62
7
  6
CONTINUOUS
 10
298.871344984
 20
27.6479331427
  0
VERTEX
  8
0
 62
7
  6
CONTINUOUS
 10
298.8318440492
 20
23.936347541
  0
SEQEND
  0
POLYLINE
  8
0
 62
7
  6
CONTINUOUS
 66
1
 70
0
  0
VERTEX
  8
0
 62
7
  6
CONTINUOUS
 10
290.7794362818
 20
307.6489647881
  0
VERTEX
  8
0
 62
7
  6
CONTINUOUS
 10
290.7543873798
 20
303.556063369
  0
VERTEX
  8
0
 62
7
  6
CONTINUOUS
 10
290.7516384974
 20
299.3552373397
  0
VERTEX
  8
0
 62
7
  6
CONTINUOUS
 10
290.7682541304
 20
294.9797579775
  0
VERTEX
  8
0
 62
7
  6
CONTINUOUS
 10
290.7946082641
 20
290.6160438102
  0
VERTEX
  8
0
 62
7
  6
CONTINUOUS
 10
290.8251032965
 20
286.514036353
  0
VERTEX
  8
0
 62
7
  6
CONTINUOUS
 10
290.8577426521
 20
282.4643392309
  0
VERTEX
  8
0
 62
7
  6
CONTINUOUS
 10
290.8892204434
 20
278.2447327094
  0
VERTEX
  8
0
 62
7
  6
CONTINUOUS
 10
290.9116486044
 20
274.1000476343
  0
VERTEX
  8
0
 62
7
  6
CONTINUOUS
 10
290.9241908575
 20
270.2977230082
  0
VERTEX
  8
0
 62
7
  6
CONTINUOUS
 10
290.9261047973
 20
266.5986640466
  0
VERTEX
  8
0
 62
7
  6
CONTINUOUS
 10
290.9120041345
 20
262.8217273489
  0
VERTEX
  8
0
 62
7
  6
CONTINUOUS
 10
290.8868652685
 20
259.0314710541
  0
SEQEND
  0
POLYLINE
  8
0
 62
7
  6
CONTINUOUS
 66
1
 70
0
  0
VERTEX
  8
0
 62
7
  6
CONTINUOUS
 10
290.7793607834
 20
307.6467266402
  0
VERTEX
  8
0
 62
7
  6
CONTINUOUS
 10
290.8709373458
 20
313.5273840863
  0
VERTEX
  8
0
 62
7
  6
CONTINUOUS
 10
290.9950548536
 20
318.8748046578
  0
VERTEX
  8
0
 62
7
  6
CONTINUOUS
 10
291.1522856066
 20
323.6880920984
  0
VERTEX
  8
0
 62
7
  6
CONTINUOUS
 10
291.341869068
 20
328.0144556947
  0
VERTEX
  8
0
 62
7
  6
CONTINUOUS
 10
291.5670287349
 20
331.9346618501
  0
VERTEX
  8
0
 62
7
  6
CONTINUOUS
 10
291.8168549097
 20
335.3698221884
  0
VERTEX
  8
0
 62
7
  6
CONTINUOUS
 10
292.0779207859
 20
338.2517463995
  0
VERTEX
  8
0
 62
7
  6
CONTINUOUS
 10
292.3643165348
 20
340.8075030598
  0
VERTEX
  8
0
 62
7
  6
CONTINUOUS
 10
292.6831974101
 20
343.1579052356
  0
VERTEX
  8
0
 62
7
  6
CONTINUOUS
 10
293.0369808495
 20
345.2913665213
  0
VERTEX
  8
0
 62
7
  6
CONTINUOUS
 10
293.4309736722
 20
347.2259778808
  0
VERTEX
  8
0
 62
7
  6
CONTINUOUS
 10
293.8626945231
 20
348.9290218451
  0
SEQEND
  0
LINE
  8
0
 62
7
  6
CONTINUOUS
 10
293.9351206166
 20
349.4936759228
 11
293.9153854277
 21
349.1101037982
  0
POLYLINE
  8
0
 62
7
  6
CONTINUOUS
 66
1
 70
0
  0
VERTEX
  8
0
 62
7
  6
CONTINUOUS
 10
294.0818650706
 20
352.0494091163
  0
VERTEX
  8
0
 62
7
  6
CONTINUOUS
 10
294.0519236445
 20
351.5404371238
  0
VERTEX
  8
0
 62
7
  6
CONTINUOUS
 10
293.9351206166
 20
349.4936759228
  0
SEQEND
  0
POLYLINE
  8
0
 62
7
  6
CONTINUOUS
 66
1
 70
0
  0
VERTEX
  8
0
 62
7
  6
CONTINUOUS
 10
31.4544152704
 20
257.9892951639
  0
VERTEX
  8
0
 62
7
  6
CONTINUOUS
 10
22.1474062475
 20
257.7654189881
  0
VERTEX
  8
0
 62
7
  6
CONTINUOUS
 10
13.0946027698
 20
257.5384720676
  0
VERTEX
  8
0
 62
7
  6
CONTINUOUS
 10
4.2949681532
 20
257.3069702554
  0
VERTEX
  8
0
 62
7
  6
CONTINUOUS
 10
-4.1598120707
 20
257.0733656462
  0
VERTEX
  8
0
 62
7
  6
CONTINUOUS
 10
-12.1794348018
 20
256.8389496325
  0
VERTEX
  8
0
 62
7
  6
CONTINUOUS
 10
-19.6842616052
 20
256.6039925241
  0
VERTEX
  8
0
 62
7
  6
CONTINUOUS
 10
-26.6231536821
 20
256.3682661449
  0
VERTEX
  8
0
 62
7
  6
CONTINUOUS
 10
-32.8278262057
 20
256.1347298255
  0
VERTEX
  8
0
 62
7
  6
CONTINUOUS
 10
-38.2420068881
 20
255.9083295399
  0
VERTEX
  8
0
 62
7
  6
CONTINUOUS
 10
-42.8524568497
 20
255.6912979111
  0
VERTEX
  8
0
 62
7
  6
CONTINUOUS
 10
-46.670043057
 20
255.4902078872
  0
VERTEX
  8
0
 62
7
  6
CONTINUOUS
 10
-49.8542408942
 20
255.3033144381
  0
VERTEX
  8
0
 62
7
  6
CONTINUOUS
 10
-52.4997287239
 20
255.1295478214
  0
VERTEX
  8
0
 62
7
  6
CONTINUOUS
 10
-54.6839584568
 20
254.9715728601
  0
SEQEND
  0
LINE
  8
0
 62
7
  6
CONTINUOUS
 10
117.1411350915
 20
259.6848616227
 11
81.178639078
 21
259.0310226108
  0
LINE
  8
0
 62
7
  6
CONTINUOUS
 10
136.0327014913
 20
260.0209470243
 11
117.1411350915
 21
259.6848616227
  0
POLYLINE
  8
0
 62
7
  6
CONTINUOUS
 66
1
 70
0
  0
VERTEX
  8
0
 62
7
  6
CONTINUOUS
 10
290.8868652685
 20
259.0314710541
  0
VERTEX
  8
0
 62
7
  6
CONTINUOUS
 10
299.0599807988
 20
259.0786514516
  0
VERTEX
  8
0
 62
7
  6
CONTINUOUS
 10
307.3161126989
 20
259.0656343397
  0
VERTEX
  8
0
 62
7
  6
CONTINUOUS
 10
315.6629178622
 20
258.9796144211
  0
VERTEX
  8
0
 62
7
  6
CONTINUOUS
 10
324.0323869499
 20
258.7762070194
  0
VERTEX
  8
0
 62
7
  6
CONTINUOUS
 10
332.3498978871
 20
258.4410599299
  0
VERTEX
  8
0
 62
7
  6
CONTINUOUS
 10
340.6116905683
 20
257.9898112163
  0
SEQEND
  0
POLYLINE
  8
0
 62
7
  6
CONTINUOUS
 66
1
 70
0
  0
VERTEX
  8
0
 62
7
  6
CONTINUOUS
 10
236.0327277501
 20
260.0208725708
  0
VERTEX
  8
0
 62
7
  6
CONTINUOUS
 10
219.3665059342
 20
260.2648938935
  0
VERTEX
  8
0
 62
7
  6
CONTINUOUS
 10
202.6998588578
 20
260.4098881863
  0
VERTEX
  8
0
 62
7
  6
CONTINUOUS
 10
186.0326168061
 20
260.4579604036
  0
VERTEX
  8
0
 62
7
  6
CONTINUOUS
 10
169.3653942329
 20
260.4098171366
  0
VERTEX
  8
0
 62
7
  6
CONTINUOUS
 10
152.6988055935
 20
260.2647521104
  0
VERTEX
  8
0
 62
7
  6
CONTINUOUS
 10
136.0326811799
 20
260.0206595929
  0
SEQEND
  0
LINE
  8
0
 62
7
  6
CONTINUOUS
 10
245.5520615865
 20
259.8525493124
 11
236.0327073788
 21
260.0212723132
  0
LINE
  8
0
 62
7
  6
CONTINUOUS
 10
264.1396562953
 20
259.5192568703
 11
245.5520615865
 21
259.8525493124
  0
POLYLINE
  8
0
 62
7
  6
CONTINUOUS
 66
1
 70
0
  0
VERTEX
  8
0
 62
7
  6
CONTINUOUS
 10
290.8867698046
 20
259.0310226108
  0
VERTEX
  8
0
 62
7
  6
CONTINUOUS
 10
282.1228767385
 20
259.1919818379
  0
VERTEX
  8
0
 62
7
  6
CONTINUOUS
 10
264.1396562953
 20
259.5192568703
  0
SEQEND
  0
LINE
  8
0
 62
7
  6
CONTINUOUS
 10
297.3638726
 20
51.00393875
 11
297.3579064768
 21
50.7319948848
  0
LINE
  8
0
 62
7
  6
CONTINUOUS
 10
297.3673843285
 20
51.1394537906
 11
297.3638726
 21
51.00393875
  0
POLYLINE
  8
0
 62
7
  6
CONTINUOUS
 66
1
 70
0
  0
VERTEX
  8
0
 62
7
  6
CONTINUOUS
 10
31.4537183143
 20
257.9898112163
  0
VERTEX
  8
0
 62
7
  6
CONTINUOUS
 10
39.7218495979
 20
258.4418549597
  0
VERTEX
  8
0
 62
7
  6
CONTINUOUS
 10
48.025103463
 20
258.7764234627
  0
VERTEX
  8
0
 62
7
  6
CONTINUOUS
 10
56.3420368251
 20
258.9784823185
  0
VERTEX
  8
0
 62
7
  6
CONTINUOUS
 10
64.6490921804
 20
259.065060241
  0
VERTEX
  8
0
 62
7
  6
CONTINUOUS
 10
72.9308226384
 20
259.0793229598
  0
VERTEX
  8
0
 62
7
  6
CONTINUOUS
 10
81.1785436142
 20
259.0314710541
  0
SEQEND
  0
POLYLINE
  8
0
 62
7
  6
CONTINUOUS
 66
1
 70
0
  0
VERTEX
  8
0
 62
7
  6
CONTINUOUS
 10
426.7493542264
 20
254.9716174434
  0
VERTEX
  8
0
 62
7
  6
CONTINUOUS
 10
423.9747460291
 20
255.1700862372
  0
VERTEX
  8
0
 62
7
  6
CONTINUOUS
 10
420.7353257121
 20
255.375340684
  0
VERTEX
  8
0
 62
7
  6
CONTINUOUS
 10
416.9801447594
 20
255.5857583074
  0
VERTEX
  8
0
 62
7
  6
CONTINUOUS
 10
412.6557545801
 20
255.8012506264
  0
VERTEX
  8
0
 62
7
  6
CONTINUOUS
 10
407.6826716321
 20
256.0219369901
  0
VERTEX
  8
0
 62
7
  6
CONTINUOUS
 10
402.0419376958
 20
256.2451113132
  0
VERTEX
  8
0
 62
7
  6
CONTINUOUS
 10
395.7443686555
 20
256.4710591824
  0
VERTEX
  8
0
 62
7
  6
CONTINUOUS
 10
388.8665345587
 20
256.6965148648
  0
VERTEX
  8
0
 62
7
  6
CONTINUOUS
 10
381.5317370244
 20
256.9199874217
  0
VERTEX
  8
0
 62
7
  6
CONTINUOUS
 10
373.8194931813
 20
257.1411346635
  0
VERTEX
  8
0
 62
7
  6
CONTINUOUS
 10
365.826969382
 20
257.3589583207
  0
VERTEX
  8
0
 62
7
  6
CONTINUOUS
 10
357.6004172227
 20
257.5733905474
  0
VERTEX
  8
0
 62
7
  6
CONTINUOUS
 10
349.1913053328
 20
257.7831452701
  0
VERTEX
  8
0
 62
7
  6
CONTINUOUS
 10
340.6109936123
 20
257.9892951639
  0
SEQEND
  0
POLYLINE
  8
0
 62
7
  6
CONTINUOUS
 66
1
 70
0
  0
VERTEX
  8
0
 62
7
  6
CONTINUOUS
 10
340.6116905683
 20
257.9898112163
  0
VERTEX
  8
0
 62
7
  6
CONTINUOUS
 10
340.0557278059
 20
263.1584086341
  0
VERTEX
  8
0
 62
7
  6
CONTINUOUS
 10
339.0413631178
 20
268.1482413552
  0
VERTEX
  8
0
 62
7
  6
CONTINUOUS
 10
337.5724684976
 20
272.9649501171
  0
VERTEX
  8
0
 62
7
  6
CONTINUOUS
 10
335.6744063548
 20
277.5831487631
  0
VERTEX
  8
0
 62
7
  6
CONTINUOUS
 10
333.3613181509
 20
281.9964112482
  0
VERTEX
  8
0
 62
7
  6
CONTINUOUS
 10
330.655284321
 20
286.1675633181
  0
VERTEX
  8
0
 62
7
  6
CONTINUOUS
 10
327.5546209685
 20
290.0839698105
  0
VERTEX
  8
0
 62
7
  6
CONTINUOUS
 10
324.1356506485
 20
293.6731926899
  0
VERTEX
  8
0
 62
7
  6
CONTINUOUS
 10
320.4692588059
 20
296.8589678633
  0
VERTEX
  8
0
 62
7
  6
CONTINUOUS
 10
316.5753385936
 20
299.6537895495
  0
VERTEX
  8
0
 62
7
  6
CONTINUOUS
 10
312.4781250329
 20
302.0476626658
  0
VERTEX
  8
0
 62
7
  6
CONTINUOUS
 10
308.2357265075
 20
304.0250358776
  0
VERTEX
  8
0
 62
7
  6
CONTINUOUS
 10
303.9032243143
 20
305.5642316478
  0
VERTEX
  8
0
 62
7
  6
CONTINUOUS
 10
299.5205581416
 20
306.6778038725
  0
VERTEX
  8
0
 62
7
  6
CONTINUOUS
 10
295.1517687781
 20
307.3727003745
  0
VERTEX
  8
0
 62
7
  6
CONTINUOUS
 10
290.7794362818
 20
307.6489647881
  0
SEQEND
  0
POLYLINE
  8
0
 62
7
  6
CONTINUOUS
 66
1
 70
0
  0
VERTEX
  8
0
 62
7
  6
CONTINUOUS
 10
340.6109936123
 20
257.9892951639
  0
VERTEX
  8
0
 62
7
  6
CONTINUOUS
 10
340.9551626411
 20
242.8370777753
  0
VERTEX
  8
0
 62
7
  6
CONTINUOUS
 10
341.2586553734
 20
227.6946801406
  0
VERTEX
  8
0
 62
7
  6
CONTINUOUS
 10
341.723968251
 20
212.5591630363
  0
VERTEX
  8
0
 62
7
  6
CONTINUOUS
 10
342.166892276
 20
197.4489027058
  0
VERTEX
  8
0
 62
7
  6
CONTINUOUS
 10
342.6225915883
 20
182.3842312806
  0
VERTEX
  8
0
 62
7
  6
CONTINUOUS
 10
343.1656262242
 20
167.3683145366
  0
VERTEX
  8
0
 62
7
  6
CONTINUOUS
 10
343.6182033023
 20
152.4050525428
  0
VERTEX
  8
0
 62
7
  6
CONTINUOUS
 10
344.1320974363
 20
137.4981118629
  0
VERTEX
  8
0
 62
7
  6
CONTINUOUS
 10
344.5746353063
 20
122.6374009784
  0
VERTEX
  8
0
 62
7
  6
CONTINUOUS
 10
345.0683515898
 20
107.855605918
  0
VERTEX
  8
0
 62
7
  6
CONTINUOUS
 10
345.5774868447
 20
93.1716028644
  0
VERTEX
  8
0
 62
7
  6
CONTINUOUS
 10
346.0906401425
 20
78.6087445706
  0
VERTEX
  8
0
 62
7
  6
CONTINUOUS
 10
346.7324844631
 20
64.203789296
  0
VERTEX
  8
0
 62
7
  6
CONTINUOUS
 10
347.3109348449
 20
49.9410850614
  0
SEQEND
  0
POLYLINE
  8
0
 62
7
  6
CONTINUOUS
 66
1
 70
0
  0
VERTEX
  8
0
 62
7
  6
CONTINUOUS
 10
81.2859726008
 20
307.6489647881
  0
VERTEX
  8
0
 62
7
  6
CONTINUOUS
 10
76.8730795563
 20
307.3627041017
  0
VERTEX
  8
0
 62
7
  6
CONTINUOUS
 10
72.5346417076
 20
306.6801769835
  0
VERTEX
  8
0
 62
7
  6
CONTINUOUS
 10
68.2633325318
 20
305.5991533653
  0
VERTEX
  8
0
 62
7
  6
CONTINUOUS
 10
64.0907676427
 20
304.1314402751
  0
VERTEX
  8
0
 62
7
  6
CONTINUOUS
 10
60.0364244278
 20
302.2864183338
  0
VERTEX
  8
0
 62
7
  6
CONTINUOUS
 10
56.1294034478
 20
300.0691725793
  0
VERTEX
  8
0
 62
7
  6
CONTINUOUS
 10
52.3985858541
 20
297.4866709436
  0
VERTEX
  8
0
 62
7
  6
CONTINUOUS
 10
48.8597543518
 20
294.5405515841
  0
VERTEX
  8
0
 62
7
  6
CONTINUOUS
 10
45.5245866454
 20
291.2323850582
  0
VERTEX
  8
0
 62
7
  6
CONTINUOUS
 10
42.4353034869
 20
287.5604145454
  0
VERTEX
  8
0
 62
7
  6
CONTINUOUS
 10
39.6229385873
 20
283.5200350177
  0
VERTEX
  8
0
 62
7
  6
CONTINUOUS
 10
37.1345669506
 20
279.1167930263
  0
VERTEX
  8
0
 62
7
  6
CONTINUOUS
 10
35.009552981
 20
274.3502383353
  0
VERTEX
  8
0
 62
7
  6
CONTINUOUS
 10
33.3117917404
 20
269.2315658652
  0
VERTEX
  8
0
 62
7
  6
CONTINUOUS
 10
32.1292600884
 20
263.7816221387
  0
VERTEX
  8
0
 62
7
  6
CONTINUOUS
 10
31.4537183143
 20
257.9898112163
  0
SEQEND
  0
POLYLINE
  8
0
 62
7
  6
CONTINUOUS
 66
1
 70
0
  0
VERTEX
  8
0
 62
7
  6
CONTINUOUS
 10
81.2860480992
 20
307.6467266402
  0
VERTEX
  8
0
 62
7
  6
CONTINUOUS
 10
89.8718758854
 20
307.8236072205
  0
VERTEX
  8
0
 62
7
  6
CONTINUOUS
 10
98.676773843
 20
307.9513150964
  0
VERTEX
  8
0
 62
7
  6
CONTINUOUS
 10
107.7020689582
 20
308.102886479
  0
VERTEX
  8
0
 62
7
  6
CONTINUOUS
 10
116.9400093875
 20
308.2623524111
  0
VERTEX
  8
0
 62
7
  6
CONTINUOUS
 10
126.3829548048
 20
308.4077362513
  0
VERTEX
  8
0
 62
7
  6
CONTINUOUS
 10
136.0327186414
 20
308.5858775603
  0
SEQEND
  0
POLYLINE
  8
0
 62
7
  6
CONTINUOUS
 66
1
 70
0
  0
VERTEX
  8
0
 62
7
  6
CONTINUOUS
 10
136.0325885478
 20
308.5863595251
  0
VERTEX
  8
0
 62
7
  6
CONTINUOUS
 10
152.470615465
 20
308.8214016099
  0
VERTEX
  8
0
 62
7
  6
CONTINUOUS
 10
169.0058478123
 20
308.9620314528
  0
VERTEX
  8
0
 62
7
  6
CONTINUOUS
 10
185.6343863682
 20
309.0111553149
  0
VERTEX
  8
0
 62
7
  6
CONTINUOUS
 10
202.3515138172
 20
308.9658673034
  0
VERTEX
  8
0
 62
7
  6
CONTINUOUS
 10
219.1523862255
 20
308.8233131478
  0
VERTEX
  8
0
 62
7
  6
CONTINUOUS
 10
236.0327046941
 20
308.5863890199
  0
SEQEND
  0
POLYLINE
  8
0
 62
7
  6
CONTINUOUS
 66
1
 70
0
  0
VERTEX
  8
0
 62
7
  6
CONTINUOUS
 10
236.0326906756
 20
308.5861437713
  0
VERTEX
  8
0
 62
7
  6
CONTINUOUS
 10
245.7018757696
 20
308.4075817741
  0
VERTEX
  8
0
 62
7
  6
CONTINUOUS
 10
255.1530639903
 20
308.2620003878
  0
VERTEX
  8
0
 62
7
  6
CONTINUOUS
 10
264.3848710887
 20
308.10258067
  0
VERTEX
  8
0
 62
7
  6
CONTINUOUS
 10
273.3992485616
 20
307.9511715072
  0
VERTEX
  8
0
 62
7
  6
CONTINUOUS
 10
282.1980346837
 20
307.82352235
  0
VERTEX
  8
0
 62
7
  6
CONTINUOUS
 10
290.7793607834
 20
307.6467266402
  0
SEQEND
  0
POLYLINE
  8
0
 62
7
  6
CONTINUOUS
 66
1
 70
0
  0
VERTEX
  8
0
 62
7
  6
CONTINUOUS
 10
136.0328342217
 20
350.9706096518
  0
VERTEX
  8
0
 62
7
  6
CONTINUOUS
 10
125.8994635933
 20
350.7702815933
  0
VERTEX
  8
0
 62
7
  6
CONTINUOUS
 10
115.9602133868
 20
350.5308404991
  0
VERTEX
  8
0
 62
7
  6
CONTINUOUS
 10
106.2147098056
 20
350.257887922
  0
VERTEX
  8
0
 62
7
  6
CONTINUOUS
 10
96.6638759814
 20
349.9451855837
  0
VERTEX
  8
0
 62
7
  6
CONTINUOUS
 10
87.3088289108
 20
349.5760715999
  0
VERTEX
  8
0
 62
7
  6
CONTINUOUS
 10
78.1500590008
 20
349.109624743
  0
SEQEND
  0
POLYLINE
  8
0
 62
7
  6
CONTINUOUS
 66
1
 70
0
  0
VERTEX
  8
0
 62
7
  6
CONTINUOUS
 10
136.0544040759
 20
350.9714520659
  0
VERTEX
  8
0
 62
7
  6
CONTINUOUS
 10
152.7193543482
 20
351.2122496178
  0
VERTEX
  8
0
 62
7
  6
CONTINUOUS
 10
169.379807728
 20
351.3567153017
  0
VERTEX
  8
0
 62
7
  6
CONTINUOUS
 10
186.0328093158
 20
351.404782052
  0
VERTEX
  8
0
 62
7
  6
CONTINUOUS
 10
202.6858537278
 20
351.3567140032
  0
VERTEX
  8
0
 62
7
  6
CONTINUOUS
 10
219.3461675636
 20
351.2122479567
  0
VERTEX
  8
0
 62
7
  6
CONTINUOUS
 10
236.010951633
 20
350.9714530267
  0
SEQEND
  0
POLYLINE
  8
0
 62
7
  6
CONTINUOUS
 66
1
 70
0
  0
VERTEX
  8
0
 62
7
  6
CONTINUOUS
 10
78.1500246882
 20
349.110104009
  0
VERTEX
  8
0
 62
7
  6
CONTINUOUS
 10
63.869969149
 20
347.8672497945
  0
VERTEX
  8
0
 62
7
  6
CONTINUOUS
 10
50.6194308069
 20
345.956216173
  0
VERTEX
  8
0
 62
7
  6
CONTINUOUS
 10
38.4081616957
 20
343.4027961012
  0
VERTEX
  8
0
 62
7
  6
CONTINUOUS
 10
27.1351678002
 20
340.2403926883
  0
VERTEX
  8
0
 62
7
  6
CONTINUOUS
 10
16.7265692784
 20
336.4895954502
  0
VERTEX
  8
0
 62
7
  6
CONTINUOUS
 10
7.1089277561
 20
332.1582334522
  0
VERTEX
  8
0
 62
7
  6
CONTINUOUS
 10
-1.8054873394
 20
327.2328111751
  0
VERTEX
  8
0
 62
7
  6
CONTINUOUS
 10
-10.0121380689
 20
321.7393764801
  0
VERTEX
  8
0
 62
7
  6
CONTINUOUS
 10
-17.5101885749
 20
315.7182115442
  0
VERTEX
  8
0
 62
7
  6
CONTINUOUS
 10
-24.4002090938
 20
309.1185811821
  0
VERTEX
  8
0
 62
7
  6
CONTINUOUS
 10
-30.7596676512
 20
301.8668515255
  0
VERTEX
  8
0
 62
7
  6
CONTINUOUS
 10
-36.574107681
 20
293.9606366738
  0
VERTEX
  8
0
 62
7
  6
CONTINUOUS
 10
-41.8500929405
 20
285.381890656
  0
VERTEX
  8
0
 62
7
  6
CONTINUOUS
 10
-46.6139127844
 20
276.0702828236
  0
VERTEX
  8
0
 62
7
  6
CONTINUOUS
 10
-50.8959566867
 20
265.9503859907
  0
VERTEX
  8
0
 62
7
  6
CONTINUOUS
 10
-54.6855113561
 20
254.9720588764
  0
SEQEND
  0
POLYLINE
  8
0
 62
7
  6
CONTINUOUS
 66
1
 70
0
  0
VERTEX
  8
0
 62
7
  6
CONTINUOUS
 10
77.9835535058
 20
352.0493677281
  0
VERTEX
  8
0
 62
7
  6
CONTINUOUS
 10
87.2127451359
 20
352.4996713783
  0
VERTEX
  8
0
 62
7
  6
CONTINUOUS
 10
96.6175423639
 20
352.8864949445
  0
VERTEX
  8
0
 62
7
  6
CONTINUOUS
 10
106.1954505924
 20
353.2031076579
  0
VERTEX
  8
0
 62
7
  6
CONTINUOUS
 10
115.9539536136
 20
353.4697018254
  0
VERTEX
  8
0
 62
7
  6
CONTINUOUS
 10
125.9005352195
 20
353.7064697543
  0
VERTEX
  8
0
 62
7
  6
CONTINUOUS
 10
136.0327008128
 20
353.9066806755
  0
SEQEND
  0
POLYLINE
  8
0
 62
7
  6
CONTINUOUS
 66
1
 70
0
  0
VERTEX
  8
0
 62
7
  6
CONTINUOUS
 10
136.0170891272
 20
358.1945035215
  0
VERTEX
  8
0
 62
7
  6
CONTINUOUS
 10
101.008730509
 20
357.4083870575
  0
VERTEX
  8
0
 62
7
  6
CONTINUOUS
 10
73.599017716
 20
356.0476937814
  0
VERTEX
  8
0
 62
7
  6
CONTINUOUS
 10
56.5552493047
 20
354.4283391463
  0
VERTEX
  8
0
 62
7
  6
CONTINUOUS
 10
44.8830047639
 20
352.5900882023
  0
VERTEX
  8
0
 62
7
  6
CONTINUOUS
 10
33.9015671183
 20
350.0616497617
  0
VERTEX
  8
0
 62
7
  6
CONTINUOUS
 10
24.1648989575
 20
347.0701730484
  0
VERTEX
  8
0
 62
7
  6
CONTINUOUS
 10
14.5751025756
 20
343.3477448363
  0
VERTEX
  8
0
 62
7
  6
CONTINUOUS
 10
6.458634187
 20
339.5281812773
  0
SEQEND
  0
POLYLINE
  8
0
 62
7
  6
CONTINUOUS
 66
1
 70
0
  0
VERTEX
  8
0
 62
7
  6
CONTINUOUS
 10
136.0327044413
 20
356.1923598683
  0
VERTEX
  8
0
 62
7
  6
CONTINUOUS
 10
120.0161574179
 20
355.9438637024
  0
VERTEX
  8
0
 62
7
  6
CONTINUOUS
 10
104.6610972775
 20
355.5290483007
  0
VERTEX
  8
0
 62
7
  6
CONTINUOUS
 10
89.9738147496
 20
354.9968978618
  0
VERTEX
  8
0
 62
7
  6
CONTINUOUS
 10
75.9354376459
 20
354.2004597898
  0
VERTEX
  8
0
 62
7
  6
CONTINUOUS
 10
62.4801704543
 20
353.0757257402
  0
VERTEX
  8
0
 62
7
  6
CONTINUOUS
 10
49.7550738756
 20
351.4228471578
  0
VERTEX
  8
0
 62
7
  6
CONTINUOUS
 10
37.8951606738
 20
348.9801195711
  0
VERTEX
  8
0
 62
7
  6
CONTINUOUS
 10
26.8707791474
 20
345.8691023847
  0
VERTEX
  8
0
 62
7
  6
CONTINUOUS
 10
16.6992009186
 20
342.1284107522
  0
VERTEX
  8
0
 62
7
  6
CONTINUOUS
 10
7.37466878
 20
337.7451729557
  0
SEQEND
  0
POLYLINE
  8
0
 62
7
  6
CONTINUOUS
 66
1
 70
0
  0
VERTEX
  8
0
 62
7
  6
CONTINUOUS
 10
136.0327044411
 20
353.9066806756
  0
VERTEX
  8
0
 62
7
  6
CONTINUOUS
 10
152.6986966712
 20
354.1462418473
  0
VERTEX
  8
0
 62
7
  6
CONTINUOUS
 10
169.3652767206
 20
354.2899785516
  0
VERTEX
  8
0
 62
7
  6
CONTINUOUS
 10
186.0327044414
 20
354.3378907869
  0
VERTEX
  8
0
 62
7
  6
CONTINUOUS
 10
202.7001321621
 20
354.2899785512
  0
VERTEX
  8
0
 62
7
  6
CONTINUOUS
 10
219.3667122115
 20
354.1462418465
  0
VERTEX
  8
0
 62
7
  6
CONTINUOUS
 10
236.0327044416
 20
353.9066806744
  0
SEQEND
  0
POLYLINE
  8
0
 62
7
  6
CONTINUOUS
 66
1
 70
0
  0
VERTEX
  8
0
 62
7
  6
CONTINUOUS
 10
236.0008743264
 20
356.1928902003
  0
VERTEX
  8
0
 62
7
  6
CONTINUOUS
 10
219.3451976143
 20
356.36959469
  0
VERTEX
  8
0
 62
7
  6
CONTINUOUS
 10
202.6891855471
 20
356.4756173846
  0
VERTEX
  8
0
 62
7
  6
CONTINUOUS
 10
186.0327044412
 20
356.5109582831
  0
VERTEX
  8
0
 62
7
  6
CONTINUOUS
 10
169.3762233354
 20
356.4756173846
  0
VERTEX
  8
0
 62
7
  6
CONTINUOUS
 10
152.7202112682
 20
356.36959469
  0
VERTEX
  8
0
 62
7
  6
CONTINUOUS
 10
136.0645345563
 20
356.1928902003
  0
SEQEND
  0
POLYLINE
  8
0
 62
7
  6
CONTINUOUS
 66
1
 70
0
  0
VERTEX
  8
0
 62
7
  6
CONTINUOUS
 10
236.0483178517
 20
358.1945010311
  0
VERTEX
  8
0
 62
7
  6
CONTINUOUS
 10
220.1211401627
 20
358.3651764919
  0
VERTEX
  8
0
 62
7
  6
CONTINUOUS
 10
203.1008384384
 20
358.476243706
  0
VERTEX
  8
0
 62
7
  6
CONTINUOUS
 10
186.0781935242
 20
358.5134139584
  0
VERTEX
  8
0
 62
7
  6
CONTINUOUS
 10
169.0554878516
 20
358.4766385382
  0
VERTEX
  8
0
 62
7
  6
CONTINUOUS
 10
152.0352234797
 20
358.3659670247
  0
VERTEX
  8
0
 62
7
  6
CONTINUOUS
 10
136.0170923564
 20
358.1945010483
  0
SEQEND
  0
POLYLINE
  8
0
 62
7
  6
CONTINUOUS
 66
1
 70
0
  0
VERTEX
  8
0
 62
7
  6
CONTINUOUS
 10
236.0760236854
 20
353.9053270929
  0
VERTEX
  8
0
 62
7
  6
CONTINUOUS
 10
246.181117019
 20
353.7059621608
  0
VERTEX
  8
0
 62
7
  6
CONTINUOUS
 10
256.1114552691
 20
353.4697018254
  0
VERTEX
  8
0
 62
7
  6
CONTINUOUS
 10
265.8672508349
 20
353.2031947378
  0
VERTEX
  8
0
 62
7
  6
CONTINUOUS
 10
275.4478665187
 20
352.8864949445
  0
VERTEX
  8
0
 62
7
  6
CONTINUOUS
 10
284.8526651225
 20
352.4996564921
  0
VERTEX
  8
0
 62
7
  6
CONTINUOUS
 10
294.0818590455
 20
352.0493280317
  0
SEQEND
  0
POLYLINE
  8
0
 62
7
  6
CONTINUOUS
 66
1
 70
0
  0
VERTEX
  8
0
 62
7
  6
CONTINUOUS
 10
293.9153476916
 20
349.1096248698
  0
VERTEX
  8
0
 62
7
  6
CONTINUOUS
 10
284.7563481499
 20
349.5760816818
  0
VERTEX
  8
0
 62
7
  6
CONTINUOUS
 10
275.4011953955
 20
349.9451976167
  0
VERTEX
  8
0
 62
7
  6
CONTINUOUS
 10
265.8504038032
 20
350.2578969181
  0
VERTEX
  8
0
 62
7
  6
CONTINUOUS
 10
256.1050187019
 20
350.5308450908
  0
VERTEX
  8
0
 62
7
  6
CONTINUOUS
 10
246.1658915322
 20
350.7702827503
  0
VERTEX
  8
0
 62
7
  6
CONTINUOUS
 10
236.0326724009
 20
350.9706079037
  0
SEQEND
  0
POLYLINE
  8
0
 62
7
  6
CONTINUOUS
 66
1
 70
0
  0
VERTEX
  8
0
 62
7
  6
CONTINUOUS
 10
294.0818590455
 20
352.0493280317
  0
VERTEX
  8
0
 62
7
  6
CONTINUOUS
 10
308.4687393507
 20
350.7850710875
  0
VERTEX
  8
0
 62
7
  6
CONTINUOUS
 10
321.8421991959
 20
348.876330819
  0
VERTEX
  8
0
 62
7
  6
CONTINUOUS
 10
334.150722537
 20
346.3169637316
  0
VERTEX
  8
0
 62
7
  6
CONTINUOUS
 10
345.5488575062
 20
343.1254003096
  0
VERTEX
  8
0
 62
7
  6
CONTINUOUS
 10
356.1815684526
 20
339.3088286148
  0
VERTEX
  8
0
 62
7
  6
CONTINUOUS
 10
366.0260906811
 20
334.8948324207
  0
VERTEX
  8
0
 62
7
  6
CONTINUOUS
 10
375.0746443754
 20
329.9275493956
  0
VERTEX
  8
0
 62
7
  6
CONTINUOUS
 10
383.4272392476
 20
324.364505917
  0
VERTEX
  8
0
 62
7
  6
CONTINUOUS
 10
391.1910977384
 20
318.1711392043
  0
VERTEX
  8
0
 62
7
  6
CONTINUOUS
 10
398.3368018451
 20
311.3678543998
  0
VERTEX
  8
0
 62
7
  6
CONTINUOUS
 10
404.8467606846
 20
304.0018989698
  0
VERTEX
  8
0
 62
7
  6
CONTINUOUS
 10
410.7927153383
 20
295.9581831609
  0
VERTEX
  8
0
 62
7
  6
CONTINUOUS
 10
416.2500795644
 20
287.1425173468
  0
VERTEX
  8
0
 62
7
  6
CONTINUOUS
 10
421.1902444495
 20
277.5394486123
  0
VERTEX
  8
0
 62
7
  6
CONTINUOUS
 10
425.6093051255
 20
267.0962713177
  0
VERTEX
  8
0
 62
7
  6
CONTINUOUS
 10
429.508563215
 20
255.8305540095
  0
SEQEND
  0
POLYLINE
  8
0
 62
7
  6
CONTINUOUS
 66
1
 70
0
  0
VERTEX
  8
0
 62
7
  6
CONTINUOUS
 10
364.6907362913
 20
337.7451355663
  0
VERTEX
  8
0
 62
7
  6
CONTINUOUS
 10
355.421038798
 20
342.1099739114
  0
VERTEX
  8
0
 62
7
  6
CONTINUOUS
 10
345.2707015511
 20
345.8442451055
  0
VERTEX
  8
0
 62
7
  6
CONTINUOUS
 10
334.2240184732
 20
348.9651006214
  0
VERTEX
  8
0
 62
7
  6
CONTINUOUS
 10
322.3281077962
 20
351.4210860406
  0
VERTEX
  8
0
 62
7
  6
CONTINUOUS
 10
309.582124975
 20
353.0767099601
  0
VERTEX
  8
0
 62
7
  6
CONTINUOUS
 10
296.1142522635
 20
354.2012348058
  0
VERTEX
  8
0
 62
7
  6
CONTINUOUS
 10
282.0772697656
 20
354.9975759811
  0
VERTEX
  8
0
 62
7
  6
CONTINUOUS
 10
267.3965393873
 20
355.5292831504
  0
VERTEX
  8
0
 62
7
  6
CONTINUOUS
 10
252.0453858124
 20
355.9439429626
  0
VERTEX
  8
0
 62
7
  6
CONTINUOUS
 10
236.0327008128
 20
356.1923598683
  0
SEQEND
  0
POLYLINE
  8
0
 62
7
  6
CONTINUOUS
 66
1
 70
0
  0
VERTEX
  8
0
 62
7
  6
CONTINUOUS
 10
439.1705875853
 20
74.2248904351
  0
VERTEX
  8
0
 62
7
  6
CONTINUOUS
 10
440.2880250931
 20
85.5148556467
  0
VERTEX
  8
0
 62
7
  6
CONTINUOUS
 10
441.384989799
 20
105.6061823902
  0
VERTEX
  8
0
 62
7
  6
CONTINUOUS
 10
442.196941176
 20
136.5052751702
  0
VERTEX
  8
0
 62
7
  6
CONTINUOUS
 10
442.3636934747
 20
168.9051287292
  0
VERTEX
  8
0
 62
7
  6
CONTINUOUS
 10
442.065466341
 20
193.4142033945
  0
VERTEX
  8
0
 62
7
  6
CONTINUOUS
 10
441.6057320806
 20
213.1676828557
  0
VERTEX
  8
0
 62
7
  6
CONTINUOUS
 10
440.6436598371
 20
227.3002376247
  0
VERTEX
  8
0
 62
7
  6
CONTINUOUS
 10
439.2286381534
 20
238.1914297098
  0
VERTEX
  8
0
 62
7
  6
CONTINUOUS
 10
437.2219807776
 20
248.2299868727
  0
VERTEX
  8
0
 62
7
  6
CONTINUOUS
 10
435.230601361
 20
255.6341046706
  0
SEQEND
  0
POLYLINE
  8
0
 62
7
  6
CONTINUOUS
 66
1
 70
0
  0
VERTEX
  8
0
 62
7
  6
CONTINUOUS
 10
437.179814356
 20
74.469267615
  0
VERTEX
  8
0
 62
7
  6
CONTINUOUS
 10
437.9808758162
 20
82.3925126521
  0
VERTEX
  8
0
 62
7
  6
CONTINUOUS
 10
438.6178549788
 20
90.3198837586
  0
VERTEX
  8
0
 62
7
  6
CONTINUOUS
 10
439.0696332641
 20
98.3135886828
  0
VERTEX
  8
0
 62
7
  6
CONTINUOUS
 10
439.3995664115
 20
106.18700418
  0
VERTEX
  8
0
 62
7
  6
CONTINUOUS
 10
439.6600447327
 20
113.6921052227
  0
VERTEX
  8
0
 62
7
  6
CONTINUOUS
 10
439.8628459309
 20
121.0753049077
  0
VERTEX
  8
0
 62
7
  6
CONTINUOUS
 10
440.0411969508
 20
128.5824783928
  0
VERTEX
  8
0
 62
7
  6
CONTINUOUS
 10
440.1831403795
 20
135.9672144663
  0
VERTEX
  8
0
 62
7
  6
CONTINUOUS
 10
440.2873388499
 20
142.9828349208
  0
VERTEX
  8
0
 62
7
  6
CONTINUOUS
 10
440.3551591688
 20
149.8760159021
  0
VERTEX
  8
0
 62
7
  6
CONTINUOUS
 10
440.3869749684
 20
156.8909465585
  0
VERTEX
  8
0
 62
7
  6
CONTINUOUS
 10
440.3844284055
 20
163.7884096755
  0
VERTEX
  8
0
 62
7
  6
CONTINUOUS
 10
440.3456539582
 20
170.33178668
  0
VERTEX
  8
0
 62
7
  6
CONTINUOUS
 10
440.2815482946
 20
176.7574707966
  0
VERTEX
  8
0
 62
7
  6
CONTINUOUS
 10
440.1994421197
 20
183.3046326515
  0
VERTEX
  8
0
 62
7
  6
CONTINUOUS
 10
440.1081678011
 20
189.7283214666
  0
VERTEX
  8
0
 62
7
  6
CONTINUOUS
 10
440.0314250442
 20
195.7821046101
  0
VERTEX
  8
0
 62
7
  6
CONTINUOUS
 10
439.9319425409
 20
201.7095982698
  0
VERTEX
  8
0
 62
7
  6
CONTINUOUS
 10
439.7868997053
 20
207.7551610819
  0
VERTEX
  8
0
 62
7
  6
CONTINUOUS
 10
439.5766440766
 20
213.6701330701
  0
VERTEX
  8
0
 62
7
  6
CONTINUOUS
 10
439.2841021089
 20
219.206441621
  0
VERTEX
  8
0
 62
7
  6
CONTINUOUS
 10
438.8787164726
 20
224.6066832812
  0
VERTEX
  8
0
 62
7
  6
CONTINUOUS
 10
438.3179357446
 20
230.1117894725
  0
VERTEX
  8
0
 62
7
  6
CONTINUOUS
 10
437.6206686591
 20
235.4786829559
  0
VERTEX
  8
0
 62
7
  6
CONTINUOUS
 10
436.8047328317
 20
240.4644453458
  0
VERTEX
  8
0
 62
7
  6
CONTINUOUS
 10
435.8308501948
 20
245.3095315038
  0
VERTEX
  8
0
 62
7
  6
CONTINUOUS
 10
434.6615145282
 20
250.1933587548
  0
VERTEX
  8
0
 62
7
  6
CONTINUOUS
 10
433.3092279053
 20
255.0561213238
  0
SEQEND
  0
POLYLINE
  8
0
 62
7
  6
CONTINUOUS
 66
1
 70
0
  0
VERTEX
  8
0
 62
7
  6
CONTINUOUS
 10
425.0959657535
 20
46.9572058391
  0
VERTEX
  8
0
 62
7
  6
CONTINUOUS
 10
427.97735145
 20
58.4536981396
  0
VERTEX
  8
0
 62
7
  6
CONTINUOUS
 10
430.1607582713
 20
70.7792265328
  0
VERTEX
  8
0
 62
7
  6
CONTINUOUS
 10
431.6481363241
 20
84.0333904796
  0
VERTEX
  8
0
 62
7
  6
CONTINUOUS
 10
432.557729038
 20
97.9166592277
  0
VERTEX
  8
0
 62
7
  6
CONTINUOUS
 10
433.0891712022
 20
112.2119578646
  0
VERTEX
  8
0
 62
7
  6
CONTINUOUS
 10
433.4305950574
 20
126.7841848635
  0
VERTEX
  8
0
 62
7
  6
CONTINUOUS
 10
433.7127766005
 20
141.4661931113
  0
VERTEX
  8
0
 62
7
  6
CONTINUOUS
 10
433.9329500219
 20
156.127919983
  0
VERTEX
  8
0
 62
7
  6
CONTINUOUS
 10
434.076013665
 20
170.6252644694
  0
VERTEX
  8
0
 62
7
  6
CONTINUOUS
 10
434.0704761699
 20
184.827446498
  0
VERTEX
  8
0
 62
7
  6
CONTINUOUS
 10
433.8753839207
 20
198.6204679663
  0
VERTEX
  8
0
 62
7
  6
CONTINUOUS
 10
433.4386401227
 20
211.8113134371
  0
VERTEX
  8
0
 62
7
  6
CONTINUOUS
 10
432.6043419181
 20
224.2297823372
  0
VERTEX
  8
0
 62
7
  6
CONTINUOUS
 10
431.2068350104
 20
235.6843391724
  0
VERTEX
  8
0
 62
7
  6
CONTINUOUS
 10
429.2279719725
 20
245.9006151785
  0
VERTEX
  8
0
 62
7
  6
CONTINUOUS
 10
426.7493542264
 20
254.9716174434
  0
SEQEND
  0
POLYLINE
  8
0
 62
7
  6
CONTINUOUS
 66
1
 70
0
  0
VERTEX
  8
0
 62
7
  6
CONTINUOUS
 10
427.8745591843
 20
46.1449521387
  0
VERTEX
  8
0
 62
7
  6
CONTINUOUS
 10
424.6192837646
 20
36.3310623506
  0
VERTEX
  8
0
 62
7
  6
CONTINUOUS
 10
420.823856158
 20
27.119952327
  0
VERTEX
  8
0
 62
7
  6
CONTINUOUS
 10
416.4905132518
 20
18.5347831219
  0
VERTEX
  8
0
 62
7
  6
CONTINUOUS
 10
411.6125443845
 20
10.5060715736
  0
VERTEX
  8
0
 62
7
  6
CONTINUOUS
 10
406.17588111
 20
2.9601146257
  0
VERTEX
  8
0
 62
7
  6
CONTINUOUS
 10
400.2048336702
 20
-4.0672669832
  0
VERTEX
  8
0
 62
7
  6
CONTINUOUS
 10
393.7476233505
 20
-10.5473542217
  0
VERTEX
  8
0
 62
7
  6
CONTINUOUS
 10
386.718448574
 20
-16.5325450253
  0
VERTEX
  8
0
 62
7
  6
CONTINUOUS
 10
379.0369740593
 20
-22.0893373595
  0
VERTEX
  8
0
 62
7
  6
CONTINUOUS
 10
370.735022205
 20
-27.146712103
  0
VERTEX
  8
0
 62
7
  6
CONTINUOUS
 10
361.8418689049
 20
-31.6594613251
  0
VERTEX
  8
0
 62
7
  6
CONTINUOUS
 10
352.2848183923
 20
-35.6166494201
  0
VERTEX
  8
0
 62
7
  6
CONTINUOUS
 10
342.0093526181
 20
-39.0120265425
  0
VERTEX
  8
0
 62
7
  6
CONTINUOUS
 10
330.9902143236
 20
-41.7863274803
  0
VERTEX
  8
0
 62
7
  6
CONTINUOUS
 10
319.1785448244
 20
-43.8705351781
  0
VERTEX
  8
0
 62
7
  6
CONTINUOUS
 10
306.5906303484
 20
-45.2876553211
  0
SEQEND
  0
POLYLINE
  8
0
 62
7
  6
CONTINUOUS
 66
1
 70
0
  0
VERTEX
  8
0
 62
7
  6
CONTINUOUS
 10
361.5169235202
 20
-35.6145143482
  0
VERTEX
  8
0
 62
7
  6
CONTINUOUS
 10
371.469486528
 20
-30.3010958581
  0
VERTEX
  8
0
 62
7
  6
CONTINUOUS
 10
380.883598147
 20
-24.4604817525
  0
VERTEX
  8
0
 62
7
  6
CONTINUOUS
 10
388.614524929
 20
-18.861247198
  0
VERTEX
  8
0
 62
7
  6
CONTINUOUS
 10
395.3889421524
 20
-13.1467299032
  0
VERTEX
  8
0
 62
7
  6
CONTINUOUS
 10
401.6093628926
 20
-7.0461774532
  0
VERTEX
  8
0
 62
7
  6
CONTINUOUS
 10
407.4924306087
 20
-0.3446278721
  0
VERTEX
  8
0
 62
7
  6
CONTINUOUS
 10
413.4113570269
 20
7.5106142369
  0
VERTEX
  8
0
 62
7
  6
CONTINUOUS
 10
419.0481048605
 20
16.2313954403
  0
VERTEX
  8
0
 62
7
  6
CONTINUOUS
 10
424.3949166076
 20
25.7624218971
  0
VERTEX
  8
0
 62
7
  6
CONTINUOUS
 10
429.0293015518
 20
35.5235377025
  0
VERTEX
  8
0
 62
7
  6
CONTINUOUS
 10
432.4615313632
 20
44.4520104778
  0
VERTEX
  8
0
 62
7
  6
CONTINUOUS
 10
435.259672215
 20
53.6703863715
  0
VERTEX
  8
0
 62
7
  6
CONTINUOUS
 10
437.5932442301
 20
64.0434162662
  0
VERTEX
  8
0
 62
7
  6
CONTINUOUS
 10
439.1700550291
 20
74.2250189509
  0
SEQEND
  0
POLYLINE
  8
0
 62
7
  6
CONTINUOUS
 66
1
 70
0
  0
VERTEX
  8
0
 62
7
  6
CONTINUOUS
 10
360.6198327277
 20
-33.8261199841
  0
VERTEX
  8
0
 62
7
  6
CONTINUOUS
 10
366.017371733
 20
-31.0503567369
  0
VERTEX
  8
0
 62
7
  6
CONTINUOUS
 10
371.2969667606
 20
-28.0898910018
  0
VERTEX
  8
0
 62
7
  6
CONTINUOUS
 10
376.4759764419
 20
-24.9464482908
  0
VERTEX
  8
0
 62
7
  6
CONTINUOUS
 10
381.5023248824
 20
-21.6148520685
  0
VERTEX
  8
0
 62
7
  6
CONTINUOUS
 10
386.3268583082
 20
-18.098225747
  0
VERTEX
  8
0
 62
7
  6
CONTINUOUS
 10
390.9581689889
 20
-14.3733949958
  0
VERTEX
  8
0
 62
7
  6
CONTINUOUS
 10
395.4030994822
 20
-10.3983336753
  0
VERTEX
  8
0
 62
7
  6
CONTINUOUS
 10
399.61774515
 20
-6.2327206252
  0
VERTEX
  8
0
 62
7
  6
CONTINUOUS
 10
403.5405878702
 20
-1.9332997588
  0
VERTEX
  8
0
 62
7
  6
CONTINUOUS
 10
407.2313106528
 20
2.533150284
  0
VERTEX
  8
0
 62
7
  6
CONTINUOUS
 10
410.7383711311
 20
7.2092271429
  0
VERTEX
  8
0
 62
7
  6
CONTINUOUS
 10
414.0339273128
 20
12.0100580651
  0
VERTEX
  8
0
 62
7
  6
CONTINUOUS
 10
417.0926516912
 20
16.8534521278
  0
VERTEX
  8
0
 62
7
  6
CONTINUOUS
 10
419.9554584438
 20
21.7739614801
  0
VERTEX
  8
0
 62
7
  6
CONTINUOUS
 10
422.6729475595
 20
26.7878642688
  0
VERTEX
  8
0
 62
7
  6
CONTINUOUS
 10
425.1907340987
 20
31.8677915768
  0
VERTEX
  8
0
 62
7
  6
CONTINUOUS
 10
427.4644435482
 20
36.9763260343
  0
VERTEX
  8
0
 62
7
  6
CONTINUOUS
 10
429.5146446175
 20
42.1598911457
  0
VERTEX
  8
0
 62
7
  6
CONTINUOUS
 10
431.3519786767
 20
47.4790125746
  0
VERTEX
  8
0
 62
7
  6
CONTINUOUS
 10
432.9618532314
 20
52.853966473
  0
VERTEX
  8
0
 62
7
  6
CONTINUOUS
 10
434.3223130961
 20
58.2119419798
  0
VERTEX
  8
0
 62
7
  6
CONTINUOUS
 10
435.4660877142
 20
63.5927257977
  0
VERTEX
  8
0
 62
7
  6
CONTINUOUS
 10
436.4217645152
 20
69.0137738948
  0
VERTEX
  8
0
 62
7
  6
CONTINUOUS
 10
437.179814356
 20
74.469267615
  0
SEQEND
  0
POLYLINE
  8
0
 62
7
  6
CONTINUOUS
 66
1
 70
0
  0
VERTEX
  8
0
 62
7
  6
CONTINUOUS
 10
365.6067894079
 20
339.5281740468
  0
VERTEX
  8
0
 62
7
  6
CONTINUOUS
 10
357.5206463381
 20
343.3346530176
  0
VERTEX
  8
0
 62
7
  6
CONTINUOUS
 10
347.9072376222
 20
347.0678420743
  0
VERTEX
  8
0
 62
7
  6
CONTINUOUS
 10
338.1309512908
 20
350.070507793
  0
VERTEX
  8
0
 62
7
  6
CONTINUOUS
 10
327.0471481486
 20
352.616092508
  0
VERTEX
  8
0
 62
7
  6
CONTINUOUS
 10
315.1089361737
 20
354.4786751716
  0
VERTEX
  8
0
 62
7
  6
CONTINUOUS
 10
297.9613162632
 20
356.0829659787
  0
VERTEX
  8
0
 62
7
  6
CONTINUOUS
 10
270.7421628323
 20
357.4194819241
  0
VERTEX
  8
0
 62
7
  6
CONTINUOUS
 10
236.0483191561
 20
358.194503531
  0
SEQEND
  0
POLYLINE
  8
0
 62
7
  6
CONTINUOUS
 66
1
 70
0
  0
VERTEX
  8
0
 62
7
  6
CONTINUOUS
 10
426.7508794298
 20
254.9721947816
  0
VERTEX
  8
0
 62
7
  6
CONTINUOUS
 10
422.9009648222
 20
266.1085915077
  0
VERTEX
  8
0
 62
7
  6
CONTINUOUS
 10
418.5407180617
 20
276.3672069899
  0
VERTEX
  8
0
 62
7
  6
CONTINUOUS
 10
413.6711244669
 20
285.8160533054
  0
VERTEX
  8
0
 62
7
  6
CONTINUOUS
 10
408.2870885705
 20
294.4813896384
  0
VERTEX
  8
0
 62
7
  6
CONTINUOUS
 10
402.4211611537
 20
302.3658683086
  0
VERTEX
  8
0
 62
7
  6
CONTINUOUS
 10
396.0129449727
 20
309.5887708411
  0
VERTEX
  8
0
 62
7
  6
CONTINUOUS
 10
388.9795113103
 20
316.2378090824
  0
VERTEX
  8
0
 62
7
  6
CONTINUOUS
 10
381.341188689
 20
322.275411815
  0
VERTEX
  8
0
 62
7
  6
CONTINUOUS
 10
373.1338296008
 20
327.6779529177
  0
VERTEX
  8
0
 62
7
  6
CONTINUOUS
 10
364.2645720712
 20
332.5014453404
  0
VERTEX
  8
0
 62
7
  6
CONTINUOUS
 10
354.628598329
 20
336.7740992465
  0
VERTEX
  8
0
 62
7
  6
CONTINUOUS
 10
344.2247372809
 20
340.4639263983
  0
VERTEX
  8
0
 62
7
  6
CONTINUOUS
 10
333.0686253245
 20
343.5455168657
  0
VERTEX
  8
0
 62
7
  6
CONTINUOUS
 10
321.032928253
 20
346.0286231004
  0
VERTEX
  8
0
 62
7
  6
CONTINUOUS
 10
307.9733403114
 20
347.8930578584
  0
VERTEX
  8
0
 62
7
  6
CONTINUOUS
 10
293.9153828159
 20
349.1101040992
  0
SEQEND
  0
POLYLINE
  8
0
 62
7
  6
CONTINUOUS
 66
1
 70
0
  0
VERTEX
  8
0
 62
7
  6
CONTINUOUS
 10
429.508563215
 20
255.8305540095
  0
VERTEX
  8
0
 62
7
  6
CONTINUOUS
 10
431.9399230606
 20
247.1406181076
  0
VERTEX
  8
0
 62
7
  6
CONTINUOUS
 10
433.8654846345
 20
237.2726868834
  0
VERTEX
  8
0
 62
7
  6
CONTINUOUS
 10
435.2605594261
 20
226.1497777908
  0
VERTEX
  8
0
 62
7
  6
CONTINUOUS
 10
436.1992129667
 20
214.0028384683
  0
VERTEX
  8
0
 62
7
  6
CONTINUOUS
 10
436.7033723767
 20
200.9700137229
  0
VERTEX
  8
0
 62
7
  6
CONTINUOUS
 10
436.904764377
 20
187.2527295043
  0
VERTEX
  8
0
 62
7
  6
CONTINUOUS
 10
436.9347186822
 20
173.06305867
  0
VERTEX
  8
0
 62
7
  6
CONTINUOUS
 10
436.8163534314
 20
158.5072053039
  0
VERTEX
  8
0
 62
7
  6
CONTINUOUS
 10
436.6220572398
 20
143.7148297808
  0
VERTEX
  8
0
 62
7
  6
CONTINUOUS
 10
436.3353483932
 20
128.8276360855
  0
VERTEX
  8
0
 62
7
  6
CONTINUOUS
 10
436.0389561958
 20
113.976838119
  0
VERTEX
  8
0
 62
7
  6
CONTINUOUS
 10
435.5076362078
 20
99.3235665083
  0
VERTEX
  8
0
 62
7
  6
CONTINUOUS
 10
434.6052311181
 20
84.997336474
  0
VERTEX
  8
0
 62
7
  6
CONTINUOUS
 10
433.1472088442
 20
71.2242081369
  0
VERTEX
  8
0
 62
7
  6
CONTINUOUS
 10
430.8749118013
 20
58.3070673412
  0
VERTEX
  8
0
 62
7
  6
CONTINUOUS
 10
427.8745591843
 20
46.1449521387
  0
SEQEND
  0
POLYLINE
  8
0
 62
7
  6
CONTINUOUS
 66
1
 70
0
  0
VERTEX
  8
0
 62
7
  6
CONTINUOUS
 10
435.2304994581
 20
255.6340736334
  0
VERTEX
  8
0
 62
7
  6
CONTINUOUS
 10
432.098652985
 20
265.071718486
  0
VERTEX
  8
0
 62
7
  6
CONTINUOUS
 10
428.2445644608
 20
274.6497161424
  0
VERTEX
  8
0
 62
7
  6
CONTINUOUS
 10
424.0782899629
 20
283.2783091412
  0
VERTEX
  8
0
 62
7
  6
CONTINUOUS
 10
419.5742322478
 20
291.1792019057
  0
VERTEX
  8
0
 62
7
  6
CONTINUOUS
 10
414.717274878
 20
298.4759938655
  0
VERTEX
  8
0
 62
7
  6
CONTINUOUS
 10
409.4382197838
 20
305.317366481
  0
VERTEX
  8
0
 62
7
  6
CONTINUOUS
 10
403.7213526144
 20
311.7369673827
  0
VERTEX
  8
0
 62
7
  6
CONTINUOUS
 10
397.5064100072
 20
317.8012393163
  0
VERTEX
  8
0
 62
7
  6
CONTINUOUS
 10
390.7183912068
 20
323.5623903441
  0
VERTEX
  8
0
 62
7
  6
CONTINUOUS
 10
383.129186469
 20
329.1544145278
  0
VERTEX
  8
0
 62
7
  6
CONTINUOUS
 10
374.4132020585
 20
334.6956500261
  0
VERTEX
  8
0
 62
7
  6
CONTINUOUS
 10
365.6068059448
 20
339.5282045131
  0
SEQEND
  0
POLYLINE
  8
0
 62
7
  6
CONTINUOUS
 66
1
 70
0
  0
VERTEX
  8
0
 62
7
  6
CONTINUOUS
 10
433.3092279053
 20
255.0561213238
  0
VERTEX
  8
0
 62
7
  6
CONTINUOUS
 10
430.3834724084
 20
263.9781088895
  0
VERTEX
  8
0
 62
7
  6
CONTINUOUS
 10
426.9423940614
 20
272.6201724186
  0
VERTEX
  8
0
 62
7
  6
CONTINUOUS
 10
423.0028169133
 20
280.9939305502
  0
VERTEX
  8
0
 62
7
  6
CONTINUOUS
 10
418.5142688172
 20
289.0645273666
  0
VERTEX
  8
0
 62
7
  6
CONTINUOUS
 10
413.4059108441
 20
296.8392085729
  0
VERTEX
  8
0
 62
7
  6
CONTINUOUS
 10
407.7556673889
 20
304.2032879393
  0
VERTEX
  8
0
 62
7
  6
CONTINUOUS
 10
401.6048802806
 20
311.0340687898
  0
VERTEX
  8
0
 62
7
  6
CONTINUOUS
 10
394.9924582889
 20
317.3628281682
  0
VERTEX
  8
0
 62
7
  6
CONTINUOUS
 10
387.9595450663
 20
323.1678614185
  0
VERTEX
  8
0
 62
7
  6
CONTINUOUS
 10
380.5407777935
 20
328.4854169653
  0
VERTEX
  8
0
 62
7
  6
CONTINUOUS
 10
372.7905521682
 20
333.3481350403
  0
VERTEX
  8
0
 62
7
  6
CONTINUOUS
 10
364.6907362913
 20
337.7451355663
  0
SEQEND
  0
CIRCLE
  8
0
 62
7
  6
CONTINUOUS
 10
186.0326848159
 20
154.8829165505
 40
24.1086317261
  0
ENDSEC
  0
EOF
