999
DXF file: K:\Client\125_Heirloom\001\00\Final_Data\Drawings\BASINS\stadium-362120_3.dxf
999
Pro/ENGINEER 2017110 by Parametric Technology Corporation
  0
SECTION
  2
HEADER
  9
$EXTMAX
 10
420.0
 20
297.0
 30
0.0
  9
$EXTMIN
 10
0.0
 20
0.0
 30
0.0
  9
$LIMMIN
 10
0.0
 20
0.0
  9
$LIMMAX
 10
420.0
 20
297.0
  9
$VIEWCTR
 10
210.0
 20
148.5
  9
$VIEWSIZE
 40
297.0
  9
$CLAYER
  8
0
  9
$LTSCALE
 40
23.1
  9
$CELTYPE
  6
BYLAYER
  9
$DIMSCALE
 40
1.0
  9
$DIMASZ
 40
3.0
  9
$DIMEXO
 40
1.0
  9
$DIMDLI
 40
15.96
  9
$DIMEXE
 40
1.0
  9
$DIMCEN
 40
3.78
  9
$DIMLFAC
 40
1.0
  9
$DIMBLK
  1
_FILLED
  9
$DIMALT
 70
0
  9
$DIMALTF
 40
0.0393700787
  9
$DIMTXT
 40
3.0
  9
$AUNITS
 70
0
  9
$PDMODE
 70
3
  9
$PDSIZE
 40
5.0
  9
$TILEMODE
 70
1
  0
ENDSEC
  0
SECTION
  2
TABLES
  0
TABLE
  2
LTYPE
 70
6
  0
LTYPE
  2
BYBLOCK
 70
0
  3

 72
65
 73
0
 40
0.0
  0
LTYPE
  2
BYLAYER
 70
0
  3

 72
65
 73
0
 40
0.0
  0
LTYPE
  2
CONTINUOUS
 70
64
  3
Solid line
 72
65
 73
0
 40
0.0
  0
LTYPE
  2
CENTER
 70
64
  3
____ _ ____ _ ____ _ ____ _ ____ _ ____ _ ____
 72
65
 73
4
 40
0.6
 49
0.375
 49
-0.075
 49
0.075
 49
-0.075
  0
LTYPE
  2
HIDDEN
 70
64
  3
- - - - - - - - - - - - - - - - - - - -
 72
65
 73
2
 40
0.2
 49
0.1
 49
-0.1
  0
LTYPE
  2
PHANTOM
 70
64
  3
_____ _ _ _____ _ _ _____ _ _ _____
 72
65
 73
6
 40
0.8
 49
0.45
 49
-0.05
 49
0.1
 49
-0.05
 49
0.1
 49
-0.05
  0
LTYPE
  2
DOT
 70
64
  3
. . . . . . . . . . . . . . . . . . . .
 72
65
 73
2
 40
0.2
 49
0.1
 49
-0.1
  0
LTYPE
  2
DASHED
 70
64
  3
- - - - - - - - - - - - - - - - - - - -
 72
65
 73
2
 40
0.2
 49
0.1
 49
-0.1
  0
ENDTAB
  0
TABLE
  2
LAYER
 70
36
  0
LAYER
  2
0
 70
0
 62
7
  6
CONTINUOUS
  0
LAYER
  2
DEFAULT_1
 70
0
 62
7
  6
CENTER
  0
LAYER
  2
DEFAULT_2
 70
0
 62
8
  6
HIDDEN
  0
LAYER
  2
DEFAULT_3
 70
0
 62
7
  6
PHANTOM
  0
LAYER
  2
0000_BOM
 70
0
 62
7
  6
CONTINUOUS
  0
LAYER
  2
0000_REV_TABLE
 70
0
 62
7
  6
CONTINUOUS
  0
LAYER
  2
0000_STEVENS_NOTE
 70
0
 62
7
  6
CONTINUOUS
  0
LAYER
  2
01_DATUM_PLANES
 70
0
 62
7
  6
CONTINUOUS
  0
LAYER
  2
01_DEF_PLANES
 70
0
 62
7
  6
CONTINUOUS
  0
LAYER
  2
02_DATUM_COS
 70
0
 62
7
  6
CONTINUOUS
  0
LAYER
  2
99_SOLID
 70
0
 62
7
  6
CONTINUOUS
  0
LAYER
  2
CAD-MASTER_ZINC-PL
 70
0
 62
7
  6
CONTINUOUS
  0
LAYER
  2
CURVE
 70
0
 62
7
  6
CONTINUOUS
  0
LAYER
  2
SKEL
 70
0
 62
7
  6
CONTINUOUS
  0
LAYER
  2
SKETCH
 70
0
 62
7
  6
CONTINUOUS
  0
LAYER
  2
SURFACE
 70
0
 62
7
  6
CONTINUOUS
  0
ENDTAB
  0
TABLE
  2
STYLE
 70
1
  0
STYLE
  2
STANDARD
 70
0
 40
0.0
 41
0.75
 50
0.0
 71
0
 42
0.2
  3
txt
  4

  0
STYLE
  2
TEXTSTYLE_1
 70
0
 40
0.0
 41
0.8
 50
0.0
 71
0
 42
0.2
  3
gdt
  4

  0
ENDTAB
  0
ENDSEC
  0
SECTION
  2
BLOCKS
  0
ENDSEC
  0
SECTION
  2
ENTITIES
  0
POLYLINE
  8
0
 62
7
  6
CONTINUOUS
 66
1
 70
0
  0
VERTEX
  8
0
 62
7
  6
CONTINUOUS
 10
31.4250915382
 20
-17.8380526037
  0
VERTEX
  8
0
 62
7
  6
CONTINUOUS
 10
31.395957588
 20
-17.8088422626
  0
VERTEX
  8
0
 62
7
  6
CONTINUOUS
 10
31.3668818762
 20
-17.7677420626
  0
VERTEX
  8
0
 62
7
  6
CONTINUOUS
 10
31.3379225246
 20
-17.7148341631
  0
VERTEX
  8
0
 62
7
  6
CONTINUOUS
 10
31.3091374217
 20
-17.6502243238
  0
VERTEX
  8
0
 62
7
  6
CONTINUOUS
 10
31.2805841054
 20
-17.5740416899
  0
VERTEX
  8
0
 62
7
  6
CONTINUOUS
 10
31.252319659
 20
-17.4864385629
  0
VERTEX
  8
0
 62
7
  6
CONTINUOUS
 10
31.2244005908
 20
-17.3875900937
  0
VERTEX
  8
0
 62
7
  6
CONTINUOUS
 10
31.1968826987
 20
-17.2776938433
  0
VERTEX
  8
0
 62
7
  6
CONTINUOUS
 10
31.1698209784
 20
-17.1569694334
  0
VERTEX
  8
0
 62
7
  6
CONTINUOUS
 10
31.1432695376
 20
-17.0256582319
  0
VERTEX
  8
0
 62
7
  6
CONTINUOUS
 10
31.117281461
 20
-16.8840227752
  0
VERTEX
  8
0
 62
7
  6
CONTINUOUS
 10
31.0919086927
 20
-16.7323461661
  0
VERTEX
  8
0
 62
7
  6
CONTINUOUS
 10
31.0672019498
 20
-16.5709315879
  0
VERTEX
  8
0
 62
7
  6
CONTINUOUS
 10
31.0432106215
 20
-16.400101711
  0
VERTEX
  8
0
 62
7
  6
CONTINUOUS
 10
31.0199826664
 20
-16.2201980227
  0
VERTEX
  8
0
 62
7
  6
CONTINUOUS
 10
30.9975645164
 20
-16.0315801458
  0
VERTEX
  8
0
 62
7
  6
CONTINUOUS
 10
30.9760009849
 20
-15.8346251221
  0
VERTEX
  8
0
 62
7
  6
CONTINUOUS
 10
30.9553351772
 20
-15.6297266627
  0
VERTEX
  8
0
 62
7
  6
CONTINUOUS
 10
30.9356084039
 20
-15.4172943569
  0
VERTEX
  8
0
 62
7
  6
CONTINUOUS
 10
30.9168600985
 20
-15.1977528524
  0
VERTEX
  8
0
 62
7
  6
CONTINUOUS
 10
30.8991277382
 20
-14.9715410056
  0
VERTEX
  8
0
 62
7
  6
CONTINUOUS
 10
30.8824467703
 20
-14.7391110174
  0
VERTEX
  8
0
 62
7
  6
CONTINUOUS
 10
30.8668505406
 20
-14.5009275266
  0
VERTEX
  8
0
 62
7
  6
CONTINUOUS
 10
30.852370224
 20
-14.2574666331
  0
VERTEX
  8
0
 62
7
  6
CONTINUOUS
 10
30.8390347648
 20
-14.0092149774
  0
VERTEX
  8
0
 62
7
  6
CONTINUOUS
 10
30.8268708224
 20
-13.7566688439
  0
VERTEX
  8
0
 62
7
  6
CONTINUOUS
 10
30.8159027137
 20
-13.500333101
  0
VERTEX
  8
0
 62
7
  6
CONTINUOUS
 10
30.8061523626
 20
-13.240720136
  0
VERTEX
  8
0
 62
7
  6
CONTINUOUS
 10
30.7976392592
 20
-12.9783488948
  0
VERTEX
  8
0
 62
7
  6
CONTINUOUS
 10
30.7903804214
 20
-12.7137438605
  0
VERTEX
  8
0
 62
7
  6
CONTINUOUS
 10
30.7843903596
 20
-12.4474339767
  0
VERTEX
  8
0
 62
7
  6
CONTINUOUS
 10
30.7796810478
 20
-12.1799515911
  0
SEQEND
  0
POLYLINE
  8
0
 62
7
  6
CONTINUOUS
 66
1
 70
0
  0
VERTEX
  8
0
 62
7
  6
CONTINUOUS
 10
16.4315951218
 20
306.3706695035
  0
VERTEX
  8
0
 62
7
  6
CONTINUOUS
 10
16.4614942386
 20
306.3840118804
  0
VERTEX
  8
0
 62
7
  6
CONTINUOUS
 10
16.5036737675
 20
306.3973267069
  0
VERTEX
  8
0
 62
7
  6
CONTINUOUS
 10
16.5580466121
 20
306.4105864892
  0
VERTEX
  8
0
 62
7
  6
CONTINUOUS
 10
16.6245005007
 20
306.4237638479
  0
VERTEX
  8
0
 62
7
  6
CONTINUOUS
 10
16.7028982215
 20
306.4368315744
  0
VERTEX
  8
0
 62
7
  6
CONTINUOUS
 10
16.7930778801
 20
306.4497626831
  0
VERTEX
  8
0
 62
7
  6
CONTINUOUS
 10
16.8948532365
 20
306.4625304696
  0
VERTEX
  8
0
 62
7
  6
CONTINUOUS
 10
17.0080141681
 20
306.4751085746
  0
VERTEX
  8
0
 62
7
  6
CONTINUOUS
 10
17.1323270647
 20
306.4874710307
  0
VERTEX
  8
0
 62
7
  6
CONTINUOUS
 10
17.2675351947
 20
306.4995923059
  0
VERTEX
  8
0
 62
7
  6
CONTINUOUS
 10
17.4133593224
 20
306.5114473675
  0
VERTEX
  8
0
 62
7
  6
CONTINUOUS
 10
17.5694983634
 20
306.5230117386
  0
VERTEX
  8
0
 62
7
  6
CONTINUOUS
 10
17.735629928
 20
306.5342615416
  0
VERTEX
  8
0
 62
7
  6
CONTINUOUS
 10
17.9114109659
 20
306.5451735464
  0
VERTEX
  8
0
 62
7
  6
CONTINUOUS
 10
18.0964785064
 20
306.5557252207
  0
SEQEND
  0
POLYLINE
  8
0
 62
7
  6
CONTINUOUS
 66
1
 70
0
  0
VERTEX
  8
0
 62
7
  6
CONTINUOUS
 10
16.4315951218
 20
-2.9457080773
  0
VERTEX
  8
0
 62
7
  6
CONTINUOUS
 10
16.4413738441
 20
-3.4804580875
  0
VERTEX
  8
0
 62
7
  6
CONTINUOUS
 10
16.4702180452
 20
-4.0141352683
  0
VERTEX
  8
0
 62
7
  6
CONTINUOUS
 10
16.5180653798
 20
-4.5460676559
  0
VERTEX
  8
0
 62
7
  6
CONTINUOUS
 10
16.5848379989
 20
-5.0756009276
  0
VERTEX
  8
0
 62
7
  6
CONTINUOUS
 10
16.6704348381
 20
-5.6020817421
  0
VERTEX
  8
0
 62
7
  6
CONTINUOUS
 10
16.7747311258
 20
-6.1248572467
  0
VERTEX
  8
0
 62
7
  6
CONTINUOUS
 10
16.8975802162
 20
-6.6432782767
  0
VERTEX
  8
0
 62
7
  6
CONTINUOUS
 10
17.0388146901
 20
-7.1567113057
  0
VERTEX
  8
0
 62
7
  6
CONTINUOUS
 10
17.198245411
 20
-7.6645236949
  0
VERTEX
  8
0
 62
7
  6
CONTINUOUS
 10
17.3756651909
 20
-8.1661019137
  0
VERTEX
  8
0
 62
7
  6
CONTINUOUS
 10
17.5708468812
 20
-8.660836338
  0
VERTEX
  8
0
 62
7
  6
CONTINUOUS
 10
17.7835430935
 20
-9.1481268132
  0
VERTEX
  8
0
 62
7
  6
CONTINUOUS
 10
18.0134883426
 20
-9.6273822168
  0
VERTEX
  8
0
 62
7
  6
CONTINUOUS
 10
18.2603948744
 20
-10.0980166399
  0
VERTEX
  8
0
 62
7
  6
CONTINUOUS
 10
18.5239570718
 20
-10.5594547676
  0
VERTEX
  8
0
 62
7
  6
CONTINUOUS
 10
18.8038494687
 20
-11.0111321349
  0
VERTEX
  8
0
 62
7
  6
CONTINUOUS
 10
19.0997286044
 20
-11.4524944917
  0
VERTEX
  8
0
 62
7
  6
CONTINUOUS
 10
19.4112328958
 20
-11.8830011278
  0
VERTEX
  8
0
 62
7
  6
CONTINUOUS
 10
19.737983646
 20
-12.3021226601
  0
VERTEX
  8
0
 62
7
  6
CONTINUOUS
 10
20.0795834029
 20
-12.7093422658
  0
VERTEX
  8
0
 62
7
  6
CONTINUOUS
 10
20.4356188915
 20
-13.1041563503
  0
VERTEX
  8
0
 62
7
  6
CONTINUOUS
 10
20.8056576295
 20
-13.4860737783
  0
VERTEX
  8
0
 62
7
  6
CONTINUOUS
 10
21.1892522209
 20
-13.8546180278
  0
VERTEX
  8
0
 62
7
  6
CONTINUOUS
 10
21.5859368537
 20
-14.2093264907
  0
VERTEX
  8
0
 62
7
  6
CONTINUOUS
 10
21.9952314673
 20
-14.5497521091
  0
VERTEX
  8
0
 62
7
  6
CONTINUOUS
 10
22.4166387089
 20
-14.8754633007
  0
VERTEX
  8
0
 62
7
  6
CONTINUOUS
 10
22.8496480291
 20
-15.1860451374
  0
VERTEX
  8
0
 62
7
  6
CONTINUOUS
 10
23.2937314848
 20
-15.4810986639
  0
VERTEX
  8
0
 62
7
  6
CONTINUOUS
 10
23.7483493212
 20
-15.7602429355
  0
VERTEX
  8
0
 62
7
  6
CONTINUOUS
 10
24.2129444207
 20
-16.0231137629
  0
VERTEX
  8
0
 62
7
  6
CONTINUOUS
 10
24.686949048
 20
-16.2693661324
  0
VERTEX
  8
0
 62
7
  6
CONTINUOUS
 10
25.169779187
 20
-16.4986732404
  0
VERTEX
  8
0
 62
7
  6
CONTINUOUS
 10
25.6608408265
 20
-16.7107282236
  0
VERTEX
  8
0
 62
7
  6
CONTINUOUS
 10
26.159526735
 20
-16.9052445485
  0
VERTEX
  8
0
 62
7
  6
CONTINUOUS
 10
26.6652207668
 20
-17.0819563023
  0
VERTEX
  8
0
 62
7
  6
CONTINUOUS
 10
27.1772938159
 20
-17.2406185556
  0
VERTEX
  8
0
 62
7
  6
CONTINUOUS
 10
27.6951103928
 20
-17.3810082031
  0
VERTEX
  8
0
 62
7
  6
CONTINUOUS
 10
28.2180196824
 20
-17.5029231501
  0
VERTEX
  8
0
 62
7
  6
CONTINUOUS
 10
28.7453671105
 20
-17.6061844061
  0
VERTEX
  8
0
 62
7
  6
CONTINUOUS
 10
29.2764829211
 20
-17.6906354997
  0
VERTEX
  8
0
 62
7
  6
CONTINUOUS
 10
29.8106927904
 20
-17.7561437716
  0
VERTEX
  8
0
 62
7
  6
CONTINUOUS
 10
30.3473194938
 20
-17.8026013768
  0
VERTEX
  8
0
 62
7
  6
CONTINUOUS
 10
30.8856776028
 20
-17.8299270911
  0
VERTEX
  8
0
 62
7
  6
CONTINUOUS
 10
31.4250915382
 20
-17.8380526037
  0
SEQEND
  0
POLYLINE
  8
0
 62
7
  6
CONTINUOUS
 66
1
 70
0
  0
VERTEX
  8
0
 62
7
  6
CONTINUOUS
 10
8.7418764485
 20
-8.1449400054
  0
VERTEX
  8
0
 62
7
  6
CONTINUOUS
 10
8.752774876
 20
-8.7543600985
  0
VERTEX
  8
0
 62
7
  6
CONTINUOUS
 10
8.7837076292
 20
-9.3561705738
  0
VERTEX
  8
0
 62
7
  6
CONTINUOUS
 10
8.8346861601
 20
-9.9490832115
  0
VERTEX
  8
0
 62
7
  6
CONTINUOUS
 10
8.905676113
 20
-10.5369626708
  0
VERTEX
  8
0
 62
7
  6
CONTINUOUS
 10
8.9967294854
 20
-11.1241938269
  0
VERTEX
  8
0
 62
7
  6
CONTINUOUS
 10
9.1075986701
 20
-11.7079278124
  0
VERTEX
  8
0
 62
7
  6
CONTINUOUS
 10
9.2381260628
 20
-12.2869466695
  0
VERTEX
  8
0
 62
7
  6
CONTINUOUS
 10
9.3880936511
 20
-12.8607425444
  0
VERTEX
  8
0
 62
7
  6
CONTINUOUS
 10
9.5572978002
 20
-13.4285581611
  0
VERTEX
  8
0
 62
7
  6
CONTINUOUS
 10
9.7455377732
 20
-13.989923828
  0
VERTEX
  8
0
 62
7
  6
CONTINUOUS
 10
9.9526241404
 20
-14.5443003987
  0
VERTEX
  8
0
 62
7
  6
CONTINUOUS
 10
10.1783193454
 20
-15.0911389611
  0
VERTEX
  8
0
 62
7
  6
CONTINUOUS
 10
10.4224345275
 20
-15.6299314685
  0
VERTEX
  8
0
 62
7
  6
CONTINUOUS
 10
10.6846341698
 20
-16.1600161789
  0
VERTEX
  8
0
 62
7
  6
CONTINUOUS
 10
10.9646434933
 20
-16.6807604651
  0
VERTEX
  8
0
 62
7
  6
CONTINUOUS
 10
11.2620914236
 20
-17.1915689375
  0
VERTEX
  8
0
 62
7
  6
CONTINUOUS
 10
11.5766394762
 20
-17.6918061739
  0
VERTEX
  8
0
 62
7
  6
CONTINUOUS
 10
11.9079151024
 20
-18.1809596449
  0
VERTEX
  8
0
 62
7
  6
CONTINUOUS
 10
12.2555679393
 20
-18.6584711927
  0
VERTEX
  8
0
 62
7
  6
CONTINUOUS
 10
12.6191929455
 20
-19.1238422802
  0
VERTEX
  8
0
 62
7
  6
CONTINUOUS
 10
12.9984204666
 20
-19.5765537411
  0
VERTEX
  8
0
 62
7
  6
CONTINUOUS
 10
13.392793978
 20
-20.0161093059
  0
VERTEX
  8
0
 62
7
  6
CONTINUOUS
 10
13.8018951004
 20
-20.4419925867
  0
VERTEX
  8
0
 62
7
  6
CONTINUOUS
 10
14.2252397443
 20
-20.8537447734
  0
VERTEX
  8
0
 62
7
  6
CONTINUOUS
 10
14.6623678407
 20
-21.2508714454
  0
VERTEX
  8
0
 62
7
  6
CONTINUOUS
 10
15.1127889493
 20
-21.6329630467
  0
VERTEX
  8
0
 62
7
  6
CONTINUOUS
 10
15.5760348732
 20
-21.9995753138
  0
VERTEX
  8
0
 62
7
  6
CONTINUOUS
 10
16.0515788132
 20
-22.3503179481
  0
VERTEX
  8
0
 62
7
  6
CONTINUOUS
 10
16.5389403635
 20
-22.6847814894
  0
VERTEX
  8
0
 62
7
  6
CONTINUOUS
 10
17.0375121479
 20
-23.0025791598
  0
VERTEX
  8
0
 62
7
  6
CONTINUOUS
 10
17.5467303011
 20
-23.3032956086
  0
VERTEX
  8
0
 62
7
  6
CONTINUOUS
 10
18.0659838847
 20
-23.5866070945
  0
VERTEX
  8
0
 62
7
  6
CONTINUOUS
 10
18.5946508141
 20
-23.8521320579
  0
VERTEX
  8
0
 62
7
  6
CONTINUOUS
 10
19.1322006622
 20
-24.0996286026
  0
VERTEX
  8
0
 62
7
  6
CONTINUOUS
 10
19.6780272868
 20
-24.3287892298
  0
VERTEX
  8
0
 62
7
  6
CONTINUOUS
 10
20.2317357487
 20
-24.5394291872
  0
VERTEX
  8
0
 62
7
  6
CONTINUOUS
 10
20.7931343719
 20
-24.7313898277
  0
VERTEX
  8
0
 62
7
  6
CONTINUOUS
 10
21.361007225
 20
-24.9042853366
  0
VERTEX
  8
0
 62
7
  6
CONTINUOUS
 10
21.9327516389
 20
-25.0574828106
  0
VERTEX
  8
0
 62
7
  6
CONTINUOUS
 10
22.5123361513
 20
-25.1915648674
  0
VERTEX
  8
0
 62
7
  6
CONTINUOUS
 10
23.103564021
 20
-25.3073132393
  0
VERTEX
  8
0
 62
7
  6
CONTINUOUS
 10
23.7043284149
 20
-25.4034976787
  0
VERTEX
  8
0
 62
7
  6
CONTINUOUS
 10
24.3149301082
 20
-25.479372423
  0
VERTEX
  8
0
 62
7
  6
CONTINUOUS
 10
24.9319495349
 20
-25.5342657498
  0
VERTEX
  8
0
 62
7
  6
CONTINUOUS
 10
25.5516524737
 20
-25.5671423108
  0
VERTEX
  8
0
 62
7
  6
CONTINUOUS
 10
26.1752836651
 20
-25.578347222
  0
SEQEND
  0
POLYLINE
  8
0
 62
7
  6
CONTINUOUS
 66
1
 70
0
  0
VERTEX
  8
0
 62
7
  6
CONTINUOUS
 10
11.2323631938
 20
-8.1449400054
  0
VERTEX
  8
0
 62
7
  6
CONTINUOUS
 10
11.2407751156
 20
-8.6676609574
  0
VERTEX
  8
0
 62
7
  6
CONTINUOUS
 10
11.2669590607
 20
-9.184397054
  0
VERTEX
  8
0
 62
7
  6
CONTINUOUS
 10
11.3102050803
 20
-9.6931840077
  0
VERTEX
  8
0
 62
7
  6
CONTINUOUS
 10
11.3703631606
 20
-10.1976448979
  0
VERTEX
  8
0
 62
7
  6
CONTINUOUS
 10
11.4478513063
 20
-10.7015241226
  0
VERTEX
  8
0
 62
7
  6
CONTINUOUS
 10
11.5423959919
 20
-11.2023729443
  0
VERTEX
  8
0
 62
7
  6
CONTINUOUS
 10
11.6537851841
 20
-11.6991606663
  0
VERTEX
  8
0
 62
7
  6
CONTINUOUS
 10
11.7818807933
 20
-12.1914393278
  0
VERTEX
  8
0
 62
7
  6
CONTINUOUS
 10
11.9264809411
 20
-12.6785692217
  0
VERTEX
  8
0
 62
7
  6
CONTINUOUS
 10
12.0874303233
 20
-13.1601401448
  0
VERTEX
  8
0
 62
7
  6
CONTINUOUS
 10
12.2645555699
 20
-13.6356956276
  0
VERTEX
  8
0
 62
7
  6
CONTINUOUS
 10
12.4576660676
 20
-14.1047587196
  0
VERTEX
  8
0
 62
7
  6
CONTINUOUS
 10
12.6665830876
 20
-14.5669017198
  0
VERTEX
  8
0
 62
7
  6
CONTINUOUS
 10
12.8910443344
 20
-15.0215450603
  0
VERTEX
  8
0
 62
7
  6
CONTINUOUS
 10
13.1307859171
 20
-15.4681607535
  0
VERTEX
  8
0
 62
7
  6
CONTINUOUS
 10
13.3855186432
 20
-15.9062221906
  0
VERTEX
  8
0
 62
7
  6
CONTINUOUS
 10
13.6549259855
 20
-16.3352006048
  0
VERTEX
  8
0
 62
7
  6
CONTINUOUS
 10
13.9387117818
 20
-16.7546413831
  0
VERTEX
  8
0
 62
7
  6
CONTINUOUS
 10
14.2365552562
 20
-17.1640805712
  0
VERTEX
  8
0
 62
7
  6
CONTINUOUS
 10
14.5481290708
 20
-17.5630759328
  0
VERTEX
  8
0
 62
7
  6
CONTINUOUS
 10
14.873096881
 20
-17.9511979764
  0
VERTEX
  8
0
 62
7
  6
CONTINUOUS
 10
15.2110878693
 20
-18.3280040413
  0
VERTEX
  8
0
 62
7
  6
CONTINUOUS
 10
15.56172295
 20
-18.6930697906
  0
VERTEX
  8
0
 62
7
  6
CONTINUOUS
 10
15.9246072225
 20
-19.0459828884
  0
VERTEX
  8
0
 62
7
  6
CONTINUOUS
 10
16.2993273911
 20
-19.3863386425
  0
VERTEX
  8
0
 62
7
  6
CONTINUOUS
 10
16.6854803542
 20
-19.7137675953
  0
VERTEX
  8
0
 62
7
  6
CONTINUOUS
 10
17.0826483391
 20
-20.0279075218
  0
VERTEX
  8
0
 62
7
  6
CONTINUOUS
 10
17.4903958614
 20
-20.3284047441
  0
VERTEX
  8
0
 62
7
  6
CONTINUOUS
 10
17.9082942784
 20
-20.6149298711
  0
VERTEX
  8
0
 62
7
  6
CONTINUOUS
 10
18.3358409349
 20
-20.8871264246
  0
VERTEX
  8
0
 62
7
  6
CONTINUOUS
 10
18.7725341186
 20
-21.1446657549
  0
VERTEX
  8
0
 62
7
  6
CONTINUOUS
 10
19.2178667947
 20
-21.3872431403
  0
VERTEX
  8
0
 62
7
  6
CONTINUOUS
 10
19.6712909929
 20
-21.6145568381
  0
VERTEX
  8
0
 62
7
  6
CONTINUOUS
 10
20.1323626699
 20
-21.8263800814
  0
VERTEX
  8
0
 62
7
  6
CONTINUOUS
 10
20.6005546232
 20
-22.0224616762
  0
VERTEX
  8
0
 62
7
  6
CONTINUOUS
 10
21.0755318359
 20
-22.2026414908
  0
VERTEX
  8
0
 62
7
  6
CONTINUOUS
 10
21.557121448
 20
-22.3668019703
  0
VERTEX
  8
0
 62
7
  6
CONTINUOUS
 10
22.0443020756
 20
-22.5145520722
  0
VERTEX
  8
0
 62
7
  6
CONTINUOUS
 10
22.5348432413
 20
-22.6452919141
  0
VERTEX
  8
0
 62
7
  6
CONTINUOUS
 10
23.0320860042
 20
-22.7598611098
  0
VERTEX
  8
0
 62
7
  6
CONTINUOUS
 10
23.5393504053
 20
-22.8585667774
  0
VERTEX
  8
0
 62
7
  6
CONTINUOUS
 10
24.0548491631
 20
-22.9404622935
  0
VERTEX
  8
0
 62
7
  6
CONTINUOUS
 10
24.5787792065
 20
-23.0050084274
  0
VERTEX
  8
0
 62
7
  6
CONTINUOUS
 10
25.1082771264
 20
-23.0513679395
  0
VERTEX
  8
0
 62
7
  6
CONTINUOUS
 10
25.6404057524
 20
-23.0790387752
  0
VERTEX
  8
0
 62
7
  6
CONTINUOUS
 10
26.1752836651
 20
-23.0878604767
  0
SEQEND
  0
LINE
  8
0
 62
7
  6
CONTINUOUS
 10
16.654015685
 20
254.3135395401
 11
16.4315968179
 21
306.3706678074
  0
LINE
  8
0
 62
7
  6
CONTINUOUS
 10
16.7237733383
 20
236.4286818031
 11
16.654015685
 21
254.3135395401
  0
LINE
  8
0
 62
7
  6
CONTINUOUS
 10
16.7625940905
 20
225.4705536569
 11
16.7237733383
 21
236.4286818031
  0
LINE
  8
0
 62
7
  6
CONTINUOUS
 10
16.797409438
 20
214.5741897447
 11
16.7625940905
 21
225.4705536569
  0
LINE
  8
0
 62
7
  6
CONTINUOUS
 10
16.8271811032
 20
203.9201467206
 11
16.797409438
 21
214.5741897447
  0
LINE
  8
0
 62
7
  6
CONTINUOUS
 10
16.8514812719
 20
193.6034388707
 11
16.8271811032
 21
203.9201467206
  0
LINE
  8
0
 62
7
  6
CONTINUOUS
 10
16.8705762954
 20
183.4864030651
 11
16.8514812719
 21
193.6034388707
  0
LINE
  8
0
 62
7
  6
CONTINUOUS
 10
16.8847369189
 20
173.3003558089
 11
16.8705762954
 21
183.4864030651
  0
LINE
  8
0
 62
7
  6
CONTINUOUS
 10
16.8937475008
 20
162.861046629
 11
16.8847369189
 21
173.3003558089
  0
LINE
  8
0
 62
7
  6
CONTINUOUS
 10
16.8966046621
 20
155.5467395747
 11
16.8937475008
 21
162.861046629
  0
LINE
  8
0
 62
7
  6
CONTINUOUS
 10
6.0327043836
 20
-13.2875192869
 11
6.0327043836
 21
316.7124807131
  0
LINE
  8
0
 62
7
  6
CONTINUOUS
 10
8.5327043836
 20
-13.2875192869
 11
8.5327043836
 21
316.7124807131
  0
LINE
  8
0
 62
7
  6
CONTINUOUS
 10
8.7418764485
 20
311.5699014315
 11
8.7418764485
 21
-8.1449400054
  0
LINE
  8
0
 62
7
  6
CONTINUOUS
 10
11.2323631938
 20
311.5699014315
 11
11.2323631938
 21
-8.1449400054
  0
LINE
  8
0
 62
7
  6
CONTINUOUS
 10
16.8963471079
 20
146.9654854806
 11
16.8966046621
 21
155.5467395747
  0
LINE
  8
0
 62
7
  6
CONTINUOUS
 10
16.8921970728
 20
138.1822164304
 11
16.8963471079
 21
146.9654854806
  0
LINE
  8
0
 62
7
  6
CONTINUOUS
 10
16.8848586796
 20
130.2225036274
 11
16.8921970728
 21
138.1822164304
  0
LINE
  8
0
 62
7
  6
CONTINUOUS
 10
16.8694042436
 20
119.2342412295
 11
16.8848586796
 21
130.2225036274
  0
LINE
  8
0
 62
7
  6
CONTINUOUS
 10
16.8489875313
 20
108.6615443034
 11
16.8694042436
 21
119.2342412295
  0
LINE
  8
0
 62
7
  6
CONTINUOUS
 10
16.8239046026
 20
98.2468772509
 11
16.8489875313
 21
108.6615443034
  0
LINE
  8
0
 62
7
  6
CONTINUOUS
 10
16.8045151485
 20
91.2542910482
 11
16.8239046026
 21
98.2468772509
  0
LINE
  8
0
 62
7
  6
CONTINUOUS
 10
16.7710731229
 20
80.4948399674
 11
16.8045151485
 21
91.2542910482
  0
LINE
  8
0
 62
7
  6
CONTINUOUS
 10
16.7325602786
 20
69.3940845688
 11
16.7710731229
 21
80.4948399674
  0
LINE
  8
0
 62
7
  6
CONTINUOUS
 10
16.7045166322
 20
61.8757999187
 11
16.7325602786
 21
69.3940845688
  0
LINE
  8
0
 62
7
  6
CONTINUOUS
 10
16.6750497148
 20
54.3305725415
 11
16.7045166322
 21
61.8757999187
  0
POLYLINE
  8
0
 62
7
  6
CONTINUOUS
 66
1
 70
0
  0
VERTEX
  8
0
 62
7
  6
CONTINUOUS
 10
16.6138288194
 20
39.4184115473
  0
VERTEX
  8
0
 62
7
  6
CONTINUOUS
 10
16.6292530389
 20
43.1027324191
  0
VERTEX
  8
0
 62
7
  6
CONTINUOUS
 10
16.6446409176
 20
46.8214534848
  0
VERTEX
  8
0
 62
7
  6
CONTINUOUS
 10
16.6750497148
 20
54.3305725415
  0
SEQEND
  0
LINE
  8
0
 62
7
  6
CONTINUOUS
 10
16.4315933158
 20
-2.9457098834
 11
16.6138288194
 21
39.4184115473
  0
POLYLINE
  8
0
 62
7
  6
CONTINUOUS
 66
1
 70
0
  0
VERTEX
  8
0
 62
7
  6
CONTINUOUS
 10
345.890125102
 20
-25.578347222
  0
VERTEX
  8
0
 62
7
  6
CONTINUOUS
 10
346.4995451952
 20
-25.5674487945
  0
VERTEX
  8
0
 62
7
  6
CONTINUOUS
 10
347.1013556704
 20
-25.5365160413
  0
VERTEX
  8
0
 62
7
  6
CONTINUOUS
 10
347.6942683081
 20
-25.4855375104
  0
VERTEX
  8
0
 62
7
  6
CONTINUOUS
 10
348.2821477675
 20
-25.4145475575
  0
VERTEX
  8
0
 62
7
  6
CONTINUOUS
 10
348.8693789236
 20
-25.3234941851
  0
VERTEX
  8
0
 62
7
  6
CONTINUOUS
 10
349.453112909
 20
-25.2126250004
  0
VERTEX
  8
0
 62
7
  6
CONTINUOUS
 10
350.0321317662
 20
-25.0820976077
  0
VERTEX
  8
0
 62
7
  6
CONTINUOUS
 10
350.6059276411
 20
-24.9321300194
  0
VERTEX
  8
0
 62
7
  6
CONTINUOUS
 10
351.1737432578
 20
-24.7629258703
  0
VERTEX
  8
0
 62
7
  6
CONTINUOUS
 10
351.7351089247
 20
-24.5746858973
  0
VERTEX
  8
0
 62
7
  6
CONTINUOUS
 10
352.2894854953
 20
-24.3675995301
  0
VERTEX
  8
0
 62
7
  6
CONTINUOUS
 10
352.8363240578
 20
-24.141904325
  0
VERTEX
  8
0
 62
7
  6
CONTINUOUS
 10
353.3751165651
 20
-23.897789143
  0
VERTEX
  8
0
 62
7
  6
CONTINUOUS
 10
353.9052012756
 20
-23.6355895007
  0
VERTEX
  8
0
 62
7
  6
CONTINUOUS
 10
354.4259455618
 20
-23.3555801772
  0
VERTEX
  8
0
 62
7
  6
CONTINUOUS
 10
354.9367540342
 20
-23.0581322469
  0
VERTEX
  8
0
 62
7
  6
CONTINUOUS
 10
355.4369912705
 20
-22.7435841943
  0
VERTEX
  8
0
 62
7
  6
CONTINUOUS
 10
355.9261447415
 20
-22.4123085681
  0
VERTEX
  8
0
 62
7
  6
CONTINUOUS
 10
356.4036562893
 20
-22.0646557311
  0
VERTEX
  8
0
 62
7
  6
CONTINUOUS
 10
356.8690273769
 20
-21.701030725
  0
VERTEX
  8
0
 62
7
  6
CONTINUOUS
 10
357.3217388377
 20
-21.3218032039
  0
VERTEX
  8
0
 62
7
  6
CONTINUOUS
 10
357.7612944026
 20
-20.9274296924
  0
VERTEX
  8
0
 62
7
  6
CONTINUOUS
 10
358.1871776833
 20
-20.5183285701
  0
VERTEX
  8
0
 62
7
  6
CONTINUOUS
 10
358.59892987
 20
-20.0949839262
  0
VERTEX
  8
0
 62
7
  6
CONTINUOUS
 10
358.9960565421
 20
-19.6578558298
  0
VERTEX
  8
0
 62
7
  6
CONTINUOUS
 10
359.3781481434
 20
-19.2074347212
  0
VERTEX
  8
0
 62
7
  6
CONTINUOUS
 10
359.7447604104
 20
-18.7441887973
  0
VERTEX
  8
0
 62
7
  6
CONTINUOUS
 10
360.0955030448
 20
-18.2686448573
  0
VERTEX
  8
0
 62
7
  6
CONTINUOUS
 10
360.429966586
 20
-17.781283307
  0
VERTEX
  8
0
 62
7
  6
CONTINUOUS
 10
360.7477642565
 20
-17.2827115226
  0
VERTEX
  8
0
 62
7
  6
CONTINUOUS
 10
361.0484807053
 20
-16.7734933694
  0
VERTEX
  8
0
 62
7
  6
CONTINUOUS
 10
361.3317921911
 20
-16.2542397858
  0
VERTEX
  8
0
 62
7
  6
CONTINUOUS
 10
361.5973171546
 20
-15.7255728564
  0
VERTEX
  8
0
 62
7
  6
CONTINUOUS
 10
361.8448136993
 20
-15.1880230083
  0
VERTEX
  8
0
 62
7
  6
CONTINUOUS
 10
362.0739743265
 20
-14.6421963837
  0
VERTEX
  8
0
 62
7
  6
CONTINUOUS
 10
362.2846142838
 20
-14.0884879218
  0
VERTEX
  8
0
 62
7
  6
CONTINUOUS
 10
362.4765749244
 20
-13.5270892986
  0
VERTEX
  8
0
 62
7
  6
CONTINUOUS
 10
362.6494704332
 20
-12.9592164455
  0
VERTEX
  8
0
 62
7
  6
CONTINUOUS
 10
362.8026679073
 20
-12.3874720315
  0
VERTEX
  8
0
 62
7
  6
CONTINUOUS
 10
362.9367499641
 20
-11.8078875192
  0
VERTEX
  8
0
 62
7
  6
CONTINUOUS
 10
363.0524983359
 20
-11.2166596495
  0
VERTEX
  8
0
 62
7
  6
CONTINUOUS
 10
363.1486827754
 20
-10.6158952556
  0
VERTEX
  8
0
 62
7
  6
CONTINUOUS
 10
363.2245575196
 20
-10.0052935623
  0
VERTEX
  8
0
 62
7
  6
CONTINUOUS
 10
363.2794508465
 20
-9.3882741356
  0
VERTEX
  8
0
 62
7
  6
CONTINUOUS
 10
363.3123274074
 20
-8.7685711968
  0
VERTEX
  8
0
 62
7
  6
CONTINUOUS
 10
363.3235323186
 20
-8.1449400054
  0
SEQEND
  0
POLYLINE
  8
0
 62
7
  6
CONTINUOUS
 66
1
 70
0
  0
VERTEX
  8
0
 62
7
  6
CONTINUOUS
 10
345.890125102
 20
-23.0878604767
  0
VERTEX
  8
0
 62
7
  6
CONTINUOUS
 10
346.412846054
 20
-23.0794485549
  0
VERTEX
  8
0
 62
7
  6
CONTINUOUS
 10
346.9295821507
 20
-23.0532646098
  0
VERTEX
  8
0
 62
7
  6
CONTINUOUS
 10
347.4383691044
 20
-23.0100185902
  0
VERTEX
  8
0
 62
7
  6
CONTINUOUS
 10
347.9428299945
 20
-22.9498605098
  0
VERTEX
  8
0
 62
7
  6
CONTINUOUS
 10
348.4467092192
 20
-22.8723723641
  0
VERTEX
  8
0
 62
7
  6
CONTINUOUS
 10
348.947558041
 20
-22.7778276786
  0
VERTEX
  8
0
 62
7
  6
CONTINUOUS
 10
349.4443457629
 20
-22.6664384864
  0
VERTEX
  8
0
 62
7
  6
CONTINUOUS
 10
349.9366244244
 20
-22.5383428772
  0
VERTEX
  8
0
 62
7
  6
CONTINUOUS
 10
350.4237543183
 20
-22.3937427294
  0
VERTEX
  8
0
 62
7
  6
CONTINUOUS
 10
350.9053252415
 20
-22.2327933472
  0
VERTEX
  8
0
 62
7
  6
CONTINUOUS
 10
351.3808807242
 20
-22.0556681006
  0
VERTEX
  8
0
 62
7
  6
CONTINUOUS
 10
351.8499438163
 20
-21.8625576029
  0
VERTEX
  8
0
 62
7
  6
CONTINUOUS
 10
352.3120868164
 20
-21.6536405829
  0
VERTEX
  8
0
 62
7
  6
CONTINUOUS
 10
352.7667301569
 20
-21.4291793361
  0
VERTEX
  8
0
 62
7
  6
CONTINUOUS
 10
353.2133458502
 20
-21.1894377534
  0
VERTEX
  8
0
 62
7
  6
CONTINUOUS
 10
353.6514072873
 20
-20.9347050272
  0
VERTEX
  8
0
 62
7
  6
CONTINUOUS
 10
354.0803857015
 20
-20.665297685
  0
VERTEX
  8
0
 62
7
  6
CONTINUOUS
 10
354.4998264797
 20
-20.3815118887
  0
VERTEX
  8
0
 62
7
  6
CONTINUOUS
 10
354.9092656679
 20
-20.0836684143
  0
VERTEX
  8
0
 62
7
  6
CONTINUOUS
 10
355.3082610294
 20
-19.7720945997
  0
VERTEX
  8
0
 62
7
  6
CONTINUOUS
 10
355.6963830731
 20
-19.4471267895
  0
VERTEX
  8
0
 62
7
  6
CONTINUOUS
 10
356.073189138
 20
-19.1091358012
  0
VERTEX
  8
0
 62
7
  6
CONTINUOUS
 10
356.4382548873
 20
-18.7585007205
  0
VERTEX
  8
0
 62
7
  6
CONTINUOUS
 10
356.791167985
 20
-18.3956164479
  0
VERTEX
  8
0
 62
7
  6
CONTINUOUS
 10
357.1315237392
 20
-18.0208962794
  0
VERTEX
  8
0
 62
7
  6
CONTINUOUS
 10
357.458952692
 20
-17.6347433163
  0
VERTEX
  8
0
 62
7
  6
CONTINUOUS
 10
357.7730926184
 20
-17.2375753314
  0
VERTEX
  8
0
 62
7
  6
CONTINUOUS
 10
358.0735898408
 20
-16.8298278091
  0
VERTEX
  8
0
 62
7
  6
CONTINUOUS
 10
358.3601149678
 20
-16.4119293921
  0
VERTEX
  8
0
 62
7
  6
CONTINUOUS
 10
358.6323115213
 20
-15.9843827356
  0
VERTEX
  8
0
 62
7
  6
CONTINUOUS
 10
358.8898508516
 20
-15.5476895519
  0
VERTEX
  8
0
 62
7
  6
CONTINUOUS
 10
359.132428237
 20
-15.1023568757
  0
VERTEX
  8
0
 62
7
  6
CONTINUOUS
 10
359.3597419347
 20
-14.6489326776
  0
VERTEX
  8
0
 62
7
  6
CONTINUOUS
 10
359.571565178
 20
-14.1878610006
  0
VERTEX
  8
0
 62
7
  6
CONTINUOUS
 10
359.7676467729
 20
-13.7196690473
  0
VERTEX
  8
0
 62
7
  6
CONTINUOUS
 10
359.9478265875
 20
-13.2446918345
  0
VERTEX
  8
0
 62
7
  6
CONTINUOUS
 10
360.111987067
 20
-12.7631022225
  0
VERTEX
  8
0
 62
7
  6
CONTINUOUS
 10
360.2597371688
 20
-12.2759215949
  0
VERTEX
  8
0
 62
7
  6
CONTINUOUS
 10
360.3904770108
 20
-11.7853804292
  0
VERTEX
  8
0
 62
7
  6
CONTINUOUS
 10
360.5050462065
 20
-11.2881376663
  0
VERTEX
  8
0
 62
7
  6
CONTINUOUS
 10
360.6037518741
 20
-10.7808732652
  0
VERTEX
  8
0
 62
7
  6
CONTINUOUS
 10
360.6856473902
 20
-10.2653745074
  0
VERTEX
  8
0
 62
7
  6
CONTINUOUS
 10
360.750193524
 20
-9.741444464
  0
VERTEX
  8
0
 62
7
  6
CONTINUOUS
 10
360.7965530362
 20
-9.2119465441
  0
VERTEX
  8
0
 62
7
  6
CONTINUOUS
 10
360.8242238719
 20
-8.6798179181
  0
VERTEX
  8
0
 62
7
  6
CONTINUOUS
 10
360.8330455734
 20
-8.1449400054
  0
SEQEND
  0
POLYLINE
  8
0
 62
7
  6
CONTINUOUS
 66
1
 70
0
  0
VERTEX
  8
0
 62
7
  6
CONTINUOUS
 10
340.640317229
 20
-17.8380526037
  0
VERTEX
  8
0
 62
7
  6
CONTINUOUS
 10
341.1797304286
 20
-17.8299271152
  0
VERTEX
  8
0
 62
7
  6
CONTINUOUS
 10
341.7180873601
 20
-17.8026015082
  0
VERTEX
  8
0
 62
7
  6
CONTINUOUS
 10
342.2547123039
 20
-17.7561441558
  0
VERTEX
  8
0
 62
7
  6
CONTINUOUS
 10
342.7889202837
 20
-17.6906362826
  0
VERTEX
  8
0
 62
7
  6
CONTINUOUS
 10
343.3200344393
 20
-17.6061856862
  0
VERTEX
  8
0
 62
7
  6
CONTINUOUS
 10
343.8473805491
 20
-17.5029249803
  0
VERTEX
  8
0
 62
7
  6
CONTINUOUS
 10
344.3702891029
 20
-17.3810105399
  0
VERTEX
  8
0
 62
7
  6
CONTINUOUS
 10
344.8881054216
 20
-17.2406213229
  0
VERTEX
  8
0
 62
7
  6
CONTINUOUS
 10
345.4001787499
 20
-17.0819593505
  0
VERTEX
  8
0
 62
7
  6
CONTINUOUS
 10
345.9058733311
 20
-16.9052477645
  0
VERTEX
  8
0
 62
7
  6
CONTINUOUS
 10
346.4045598822
 20
-16.7107315338
  0
VERTEX
  8
0
 62
7
  6
CONTINUOUS
 10
346.8956220832
 20
-16.4986766381
  0
VERTEX
  8
0
 62
7
  6
CONTINUOUS
 10
347.3784524086
 20
-16.269369766
  0
VERTEX
  8
0
 62
7
  6
CONTINUOUS
 10
347.8524570915
 20
-16.0231176982
  0
VERTEX
  8
0
 62
7
  6
CONTINUOUS
 10
348.3170522426
 20
-15.7602471831
  0
VERTEX
  8
0
 62
7
  6
CONTINUOUS
 10
348.7716701496
 20
-15.4811032212
  0
VERTEX
  8
0
 62
7
  6
CONTINUOUS
 10
349.2157537603
 20
-15.1860499556
  0
VERTEX
  8
0
 62
7
  6
CONTINUOUS
 10
349.6487632969
 20
-14.875468336
  0
VERTEX
  8
0
 62
7
  6
CONTINUOUS
 10
350.0701708389
 20
-14.5497572901
  0
VERTEX
  8
0
 62
7
  6
CONTINUOUS
 10
350.479465761
 20
-14.2093317971
  0
VERTEX
  8
0
 62
7
  6
CONTINUOUS
 10
350.8761506331
 20
-13.8546235089
  0
VERTEX
  8
0
 62
7
  6
CONTINUOUS
 10
351.2597454526
 20
-13.4860794395
  0
VERTEX
  8
0
 62
7
  6
CONTINUOUS
 10
351.6297844503
 20
-13.1041621542
  0
VERTEX
  8
0
 62
7
  6
CONTINUOUS
 10
351.9858201839
 20
-12.7093482213
  0
VERTEX
  8
0
 62
7
  6
CONTINUOUS
 10
352.3274201223
 20
-12.3021288409
  0
VERTEX
  8
0
 62
7
  6
CONTINUOUS
 10
352.654171063
 20
-11.8830075286
  0
VERTEX
  8
0
 62
7
  6
CONTINUOUS
 10
352.9656756032
 20
-11.4525010368
  0
VERTEX
  8
0
 62
7
  6
CONTINUOUS
 10
353.2615550279
 20
-11.0111387587
  0
VERTEX
  8
0
 62
7
  6
CONTINUOUS
 10
353.5414477636
 20
-10.5594613736
  0
VERTEX
  8
0
 62
7
  6
CONTINUOUS
 10
353.8050103086
 20
-10.0980231842
  0
VERTEX
  8
0
 62
7
  6
CONTINUOUS
 10
354.0519171983
 20
-9.6273886432
  0
VERTEX
  8
0
 62
7
  6
CONTINUOUS
 10
354.2818627271
 20
-9.1481332473
  0
VERTEX
  8
0
 62
7
  6
CONTINUOUS
 10
354.4945590385
 20
-8.6608431938
  0
VERTEX
  8
0
 62
7
  6
CONTINUOUS
 10
354.6897408053
 20
-8.1661093229
  0
VERTEX
  8
0
 62
7
  6
CONTINUOUS
 10
354.8671606941
 20
-7.6645316724
  0
VERTEX
  8
0
 62
7
  6
CONTINUOUS
 10
355.0265916358
 20
-7.1567195975
  0
VERTEX
  8
0
 62
7
  6
CONTINUOUS
 10
355.1678265031
 20
-6.6432862781
  0
VERTEX
  8
0
 62
7
  6
CONTINUOUS
 10
355.2906760744
 20
-6.1248644289
  0
VERTEX
  8
0
 62
7
  6
CONTINUOUS
 10
355.3949729025
 20
-5.6020874133
  0
VERTEX
  8
0
 62
7
  6
CONTINUOUS
 10
355.4805702121
 20
-5.075604782
  0
VERTEX
  8
0
 62
7
  6
CONTINUOUS
 10
355.54734318
 20
-4.5460695734
  0
VERTEX
  8
0
 62
7
  6
CONTINUOUS
 10
355.5951906967
 20
-4.0141356187
  0
VERTEX
  8
0
 62
7
  6
CONTINUOUS
 10
355.6240349316
 20
-3.4804578643
  0
VERTEX
  8
0
 62
7
  6
CONTINUOUS
 10
355.6338136453
 20
-2.9457080773
  0
SEQEND
  0
LINE
  8
0
 62
7
  6
CONTINUOUS
 10
351.0327043836
 20
-28.2875192869
 11
21.0327043836
 21
-28.2875192869
  0
LINE
  8
0
 62
7
  6
CONTINUOUS
 10
351.0327043836
 20
-25.7875192869
 11
21.0327043836
 21
-25.7875192869
  0
LINE
  8
0
 62
7
  6
CONTINUOUS
 10
26.1752836651
 20
-25.578347222
 11
345.890125102
 21
-25.578347222
  0
LINE
  8
0
 62
7
  6
CONTINUOUS
 10
26.1752836651
 20
-23.0878604767
 11
345.890125102
 21
-23.0878604767
  0
POLYLINE
  8
0
 62
7
  6
CONTINUOUS
 66
1
 70
0
  0
VERTEX
  8
0
 62
7
  6
CONTINUOUS
 10
340.6403178882
 20
-17.838053263
  0
VERTEX
  8
0
 62
7
  6
CONTINUOUS
 10
331.0325247978
 20
-17.7493806713
  0
VERTEX
  8
0
 62
7
  6
CONTINUOUS
 10
321.4218409564
 20
-17.6663673486
  0
VERTEX
  8
0
 62
7
  6
CONTINUOUS
 10
311.8070992642
 20
-17.5890028658
  0
VERTEX
  8
0
 62
7
  6
CONTINUOUS
 10
302.1918010212
 20
-17.5173185106
  0
VERTEX
  8
0
 62
7
  6
CONTINUOUS
 10
292.5795175711
 20
-17.4513466743
  0
VERTEX
  8
0
 62
7
  6
CONTINUOUS
 10
282.9688716831
 20
-17.3910736177
  0
VERTEX
  8
0
 62
7
  6
CONTINUOUS
 10
273.35974855
 20
-17.3364970172
  0
VERTEX
  8
0
 62
7
  6
CONTINUOUS
 10
263.7519322451
 20
-17.2876150173
  0
VERTEX
  8
0
 62
7
  6
CONTINUOUS
 10
254.1452904894
 20
-17.2444254672
  0
VERTEX
  8
0
 62
7
  6
CONTINUOUS
 10
244.5394575332
 20
-17.2069269285
  0
VERTEX
  8
0
 62
7
  6
CONTINUOUS
 10
234.9341611991
 20
-17.1751172428
  0
VERTEX
  8
0
 62
7
  6
CONTINUOUS
 10
225.3289884915
 20
-17.1489964198
  0
VERTEX
  8
0
 62
7
  6
CONTINUOUS
 10
215.7235549628
 20
-17.1285631858
  0
VERTEX
  8
0
 62
7
  6
CONTINUOUS
 10
206.1175027914
 20
-17.1138192333
  0
VERTEX
  8
0
 62
7
  6
CONTINUOUS
 10
196.5104718762
 20
-17.1047648102
  0
VERTEX
  8
0
 62
7
  6
CONTINUOUS
 10
186.9020846088
 20
-17.1014029773
  0
VERTEX
  8
0
 62
7
  6
CONTINUOUS
 10
177.2919556685
 20
-17.1037354074
  0
VERTEX
  8
0
 62
7
  6
CONTINUOUS
 10
167.6797480917
 20
-17.1117665122
  0
VERTEX
  8
0
 62
7
  6
CONTINUOUS
 10
158.0651476867
 20
-17.1254992354
  0
VERTEX
  8
0
 62
7
  6
CONTINUOUS
 10
148.4477008177
 20
-17.1449396547
  0
VERTEX
  8
0
 62
7
  6
CONTINUOUS
 10
138.8265443226
 20
-17.1700943107
  0
VERTEX
  8
0
 62
7
  6
CONTINUOUS
 10
129.2025925882
 20
-17.2009647589
  0
VERTEX
  8
0
 62
7
  6
CONTINUOUS
 10
119.5765061992
 20
-17.2375539409
  0
VERTEX
  8
0
 62
7
  6
CONTINUOUS
 10
109.9481833996
 20
-17.2798642392
  0
VERTEX
  8
0
 62
7
  6
CONTINUOUS
 10
100.3238311945
 20
-17.3278552815
  0
VERTEX
  8
0
 62
7
  6
CONTINUOUS
 10
90.6851838857
 20
-17.3816582735
  0
VERTEX
  8
0
 62
7
  6
CONTINUOUS
 10
81.0289311325
 20
-17.4412594468
  0
VERTEX
  8
0
 62
7
  6
CONTINUOUS
 10
71.3164138682
 20
-17.5070533512
  0
VERTEX
  8
0
 62
7
  6
CONTINUOUS
 10
61.5104462244
 20
-17.5793291617
  0
VERTEX
  8
0
 62
7
  6
CONTINUOUS
 10
51.6032982656
 20
-17.658389235
  0
VERTEX
  8
0
 62
7
  6
CONTINUOUS
 10
41.5723291131
 20
-17.7446821631
  0
VERTEX
  8
0
 62
7
  6
CONTINUOUS
 10
31.4250857266
 20
-17.8380584152
  0
SEQEND
  0
POLYLINE
  8
0
 62
7
  6
CONTINUOUS
 66
1
 70
0
  0
VERTEX
  8
0
 62
7
  6
CONTINUOUS
 10
21.688826636
 20
-3.2342562791
  0
VERTEX
  8
0
 62
7
  6
CONTINUOUS
 10
21.6945913301
 20
-3.555969348
  0
VERTEX
  8
0
 62
7
  6
CONTINUOUS
 10
21.7118965114
 20
-3.8768856182
  0
VERTEX
  8
0
 62
7
  6
CONTINUOUS
 10
21.740772053
 20
-4.1972743315
  0
VERTEX
  8
0
 62
7
  6
CONTINUOUS
 10
21.7811277094
 20
-4.5163273834
  0
VERTEX
  8
0
 62
7
  6
CONTINUOUS
 10
21.8329138586
 20
-4.8334319043
  0
VERTEX
  8
0
 62
7
  6
CONTINUOUS
 10
21.8960372236
 20
-5.1482710347
  0
VERTEX
  8
0
 62
7
  6
CONTINUOUS
 10
21.9704280034
 20
-5.4604488085
  0
VERTEX
  8
0
 62
7
  6
CONTINUOUS
 10
22.0559652605
 20
-5.7695893995
  0
VERTEX
  8
0
 62
7
  6
CONTINUOUS
 10
22.1525525
 20
-6.0753058228
  0
VERTEX
  8
0
 62
7
  6
CONTINUOUS
 10
22.2600457597
 20
-6.3772353302
  0
VERTEX
  8
0
 62
7
  6
CONTINUOUS
 10
22.3783245426
 20
-6.6750039827
  0
VERTEX
  8
0
 62
7
  6
CONTINUOUS
 10
22.5072212004
 20
-6.9682581333
  0
VERTEX
  8
0
 62
7
  6
CONTINUOUS
 10
22.6465916353
 20
-7.2566340437
  0
VERTEX
  8
0
 62
7
  6
CONTINUOUS
 10
22.7962440244
 20
-7.5397878394
  0
VERTEX
  8
0
 62
7
  6
CONTINUOUS
 10
22.956009718
 20
-7.817364281
  0
VERTEX
  8
0
 62
7
  6
CONTINUOUS
 10
23.1256745207
 20
-8.0890335425
  0
VERTEX
  8
0
 62
7
  6
CONTINUOUS
 10
23.3050463312
 20
-8.3544521651
  0
VERTEX
  8
0
 62
7
  6
CONTINUOUS
 10
23.4938897497
 20
-8.6133056553
  0
VERTEX
  8
0
 62
7
  6
CONTINUOUS
 10
23.691990719
 20
-8.8652646822
  0
VERTEX
  8
0
 62
7
  6
CONTINUOUS
 10
23.8990927629
 20
-9.1100301797
  0
VERTEX
  8
0
 62
7
  6
CONTINUOUS
 10
24.1149603376
 20
-9.3472874438
  0
VERTEX
  8
0
 62
7
  6
CONTINUOUS
 10
24.3393163668
 20
-9.5767539737
  0
VERTEX
  8
0
 62
7
  6
CONTINUOUS
 10
24.571904089
 20
-9.7981304277
  0
VERTEX
  8
0
 62
7
  6
CONTINUOUS
 10
24.8124269218
 20
-10.0111525765
  0
VERTEX
  8
0
 62
7
  6
CONTINUOUS
 10
25.0606076762
 20
-10.2155379044
  0
VERTEX
  8
0
 62
7
  6
CONTINUOUS
 10
25.3161314438
 20
-10.4110419164
  0
VERTEX
  8
0
 62
7
  6
CONTINUOUS
 10
25.5787018413
 20
-10.5974005487
  0
VERTEX
  8
0
 62
7
  6
CONTINUOUS
 10
25.8479862596
 20
-10.7743900168
  0
VERTEX
  8
0
 62
7
  6
CONTINUOUS
 10
26.1236698517
 20
-10.9417657884
  0
VERTEX
  8
0
 62
7
  6
CONTINUOUS
 10
26.4054032198
 20
-11.099326105
  0
VERTEX
  8
0
 62
7
  6
CONTINUOUS
 10
26.6928537118
 20
-11.2468471242
  0
VERTEX
  8
0
 62
7
  6
CONTINUOUS
 10
26.9856566181
 20
-11.3841506617
  0
VERTEX
  8
0
 62
7
  6
CONTINUOUS
 10
27.2834623828
 20
-11.5110349674
  0
VERTEX
  8
0
 62
7
  6
CONTINUOUS
 10
27.585893356
 20
-11.6273470262
  0
VERTEX
  8
0
 62
7
  6
CONTINUOUS
 10
27.8925854485
 20
-11.7329089938
  0
VERTEX
  8
0
 62
7
  6
CONTINUOUS
 10
28.2031489587
 20
-11.8275937665
  0
VERTEX
  8
0
 62
7
  6
CONTINUOUS
 10
28.5172068899
 20
-11.9112484488
  0
VERTEX
  8
0
 62
7
  6
CONTINUOUS
 10
28.8343576294
 20
-11.9837727592
  0
VERTEX
  8
0
 62
7
  6
CONTINUOUS
 10
29.1542113574
 20
-12.0450394719
  0
VERTEX
  8
0
 62
7
  6
CONTINUOUS
 10
29.4763563218
 20
-12.0949767351
  0
VERTEX
  8
0
 62
7
  6
CONTINUOUS
 10
29.8003895341
 20
-12.1334843668
  0
VERTEX
  8
0
 62
7
  6
CONTINUOUS
 10
30.1258955168
 20
-12.1605203602
  0
VERTEX
  8
0
 62
7
  6
CONTINUOUS
 10
30.4522558275
 20
-12.1760000009
  0
VERTEX
  8
0
 62
7
  6
CONTINUOUS
 10
30.7796769964
 20
-12.1799514707
  0
SEQEND
  0
LINE
  8
0
 62
7
  6
CONTINUOUS
 10
21.670568981
 20
46.5472793207
 11
21.624701025
 21
101.5530658858
  0
LINE
  8
0
 62
7
  6
CONTINUOUS
 10
21.624701025
 20
101.5530658858
 11
21.6125067298
 21
119.1236707586
  0
POLYLINE
  8
0
 62
7
  6
CONTINUOUS
 66
1
 70
0
  0
VERTEX
  8
0
 62
7
  6
CONTINUOUS
 10
21.6798318232
 20
31.8985794562
  0
VERTEX
  8
0
 62
7
  6
CONTINUOUS
 10
21.6777969538
 20
35.4961961076
  0
VERTEX
  8
0
 62
7
  6
CONTINUOUS
 10
21.670568981
 20
46.5472793207
  0
SEQEND
  0
LINE
  8
0
 62
7
  6
CONTINUOUS
 10
21.6125067298
 20
119.1236707586
 11
21.6054272872
 21
134.0547776258
  0
POLYLINE
  8
0
 62
7
  6
CONTINUOUS
 66
1
 70
0
  0
VERTEX
  8
0
 62
7
  6
CONTINUOUS
 10
21.6847276716
 20
21.3522112198
  0
VERTEX
  8
0
 62
7
  6
CONTINUOUS
 10
21.6832849757
 20
24.8371792176
  0
VERTEX
  8
0
 62
7
  6
CONTINUOUS
 10
21.6798318232
 20
31.8985794562
  0
SEQEND
  0
POLYLINE
  8
0
 62
7
  6
CONTINUOUS
 66
1
 70
0
  0
VERTEX
  8
0
 62
7
  6
CONTINUOUS
 10
21.6877753569
 20
10.9316452466
  0
VERTEX
  8
0
 62
7
  6
CONTINUOUS
 10
21.6869744969
 20
14.4103671863
  0
VERTEX
  8
0
 62
7
  6
CONTINUOUS
 10
21.6847276716
 20
21.3522112198
  0
SEQEND
  0
LINE
  8
0
 62
7
  6
CONTINUOUS
 10
21.0327043836
 20
331.7124807131
 11
21.0327043836
 21
329.2124807131
  0
LINE
  8
0
 62
7
  6
CONTINUOUS
 10
21.0327043836
 20
-28.2875192869
 11
21.0327043836
 21
-25.7875192869
  0
LINE
  8
0
 62
7
  6
CONTINUOUS
 10
21.6054272872
 20
134.0547776258
 11
21.6026342677
 21
146.9488448131
  0
LINE
  8
0
 62
7
  6
CONTINUOUS
 10
21.6887520539
 20
3.9127514661
 11
21.6877753569
 21
10.9316452466
  0
LINE
  8
0
 62
7
  6
CONTINUOUS
 10
21.688826636
 20
-3.2342562791
 11
21.6887520539
 21
3.9127514661
  0
LINE
  8
0
 62
7
  6
CONTINUOUS
 10
26.1752836651
 20
-23.0878604767
 11
26.1752836651
 21
-25.578347222
  0
LINE
  8
0
 62
7
  6
CONTINUOUS
 10
26.1752836651
 20
326.5128219029
 11
26.1752836651
 21
329.0033086481
  0
LINE
  8
0
 62
7
  6
CONTINUOUS
 10
21.6026342677
 20
146.9488448131
 11
21.6024634399
 21
155.5601412263
  0
LINE
  8
0
 62
7
  6
CONTINUOUS
 10
21.6024634399
 20
155.5601412263
 11
21.6069704489
 21
173.3748890432
  0
LINE
  8
0
 62
7
  6
CONTINUOUS
 10
21.6868800034
 20
288.6756345653
 11
21.6887447765
 21
306.6569307241
  0
LINE
  8
0
 62
7
  6
CONTINUOUS
 10
21.6069704489
 20
173.3748890432
 11
21.6211087923
 21
197.1588632335
  0
LINE
  8
0
 62
7
  6
CONTINUOUS
 10
21.6211087923
 20
197.1588632335
 11
21.6605674252
 21
243.9324080286
  0
LINE
  8
0
 62
7
  6
CONTINUOUS
 10
21.6605674252
 20
243.9324080286
 11
21.6868800034
 21
288.6756345653
  0
POLYLINE
  8
0
 62
7
  6
CONTINUOUS
 66
1
 70
0
  0
VERTEX
  8
0
 62
7
  6
CONTINUOUS
 10
30.7796811185
 20
315.6049130748
  0
VERTEX
  8
0
 62
7
  6
CONTINUOUS
 10
30.7843904286
 20
315.8723953746
  0
VERTEX
  8
0
 62
7
  6
CONTINUOUS
 10
30.7903804884
 20
316.1387051966
  0
VERTEX
  8
0
 62
7
  6
CONTINUOUS
 10
30.7976393245
 20
316.4033101987
  0
VERTEX
  8
0
 62
7
  6
CONTINUOUS
 10
30.8061524263
 20
316.6656814201
  0
VERTEX
  8
0
 62
7
  6
CONTINUOUS
 10
30.8159027754
 20
316.9252943611
  0
VERTEX
  8
0
 62
7
  6
CONTINUOUS
 10
30.8268708819
 20
317.1816300815
  0
VERTEX
  8
0
 62
7
  6
CONTINUOUS
 10
30.8390348219
 20
317.4341761942
  0
VERTEX
  8
0
 62
7
  6
CONTINUOUS
 10
30.8523702786
 20
317.6824278311
  0
VERTEX
  8
0
 62
7
  6
CONTINUOUS
 10
30.8668505924
 20
317.9258887079
  0
VERTEX
  8
0
 62
7
  6
CONTINUOUS
 10
30.8824468192
 20
318.1640721842
  0
VERTEX
  8
0
 62
7
  6
CONTINUOUS
 10
30.8991277841
 20
318.3965021601
  0
VERTEX
  8
0
 62
7
  6
CONTINUOUS
 10
30.9168601414
 20
318.622713997
  0
VERTEX
  8
0
 62
7
  6
CONTINUOUS
 10
30.9356084437
 20
318.8422554942
  0
VERTEX
  8
0
 62
7
  6
CONTINUOUS
 10
30.9553352138
 20
319.0546877952
  0
VERTEX
  8
0
 62
7
  6
CONTINUOUS
 10
30.9760010184
 20
319.2595862525
  0
VERTEX
  8
0
 62
7
  6
CONTINUOUS
 10
30.9975645467
 20
319.4565412765
  0
VERTEX
  8
0
 62
7
  6
CONTINUOUS
 10
31.0199826936
 20
319.6451591564
  0
VERTEX
  8
0
 62
7
  6
CONTINUOUS
 10
31.0432106457
 20
319.8250628502
  0
VERTEX
  8
0
 62
7
  6
CONTINUOUS
 10
31.067201971
 20
319.9958927351
  0
VERTEX
  8
0
 62
7
  6
CONTINUOUS
 10
31.0919087111
 20
320.1573073239
  0
VERTEX
  8
0
 62
7
  6
CONTINUOUS
 10
31.1172814767
 20
320.3089839457
  0
VERTEX
  8
0
 62
7
  6
CONTINUOUS
 10
31.1432695507
 20
320.4506194175
  0
VERTEX
  8
0
 62
7
  6
CONTINUOUS
 10
31.1698209892
 20
320.5819306363
  0
VERTEX
  8
0
 62
7
  6
CONTINUOUS
 10
31.1968827073
 20
320.7026550654
  0
VERTEX
  8
0
 62
7
  6
CONTINUOUS
 10
31.2244005974
 20
320.8125513369
  0
VERTEX
  8
0
 62
7
  6
CONTINUOUS
 10
31.2523196639
 20
320.9113998288
  0
VERTEX
  8
0
 62
7
  6
CONTINUOUS
 10
31.2805841089
 20
320.99900298
  0
VERTEX
  8
0
 62
7
  6
CONTINUOUS
 10
31.3091374239
 20
321.0751856394
  0
VERTEX
  8
0
 62
7
  6
CONTINUOUS
 10
31.3379225216
 20
321.1397954965
  0
VERTEX
  8
0
 62
7
  6
CONTINUOUS
 10
31.3668818767
 20
321.1927034322
  0
VERTEX
  8
0
 62
7
  6
CONTINUOUS
 10
31.3959576143
 20
321.2338036918
  0
VERTEX
  8
0
 62
7
  6
CONTINUOUS
 10
31.4250916079
 20
321.2630140855
  0
SEQEND
  0
LINE
  8
0
 62
7
  6
CONTINUOUS
 10
353.9689302741
 20
-3.1307637938
 11
353.5724826401
 21
-3.1506997885
  0
LINE
  8
0
 62
7
  6
CONTINUOUS
 10
353.5724826401
 20
-3.1506997885
 11
353.1437087134
 21
-3.1689435225
  0
LINE
  8
0
 62
7
  6
CONTINUOUS
 10
353.1437087134
 20
-3.1689435225
 11
352.6861482069
 21
-3.1853443863
  0
LINE
  8
0
 62
7
  6
CONTINUOUS
 10
352.6861482069
 20
-3.1853443863
 11
352.2035782958
 21
-3.1997669905
  0
LINE
  8
0
 62
7
  6
CONTINUOUS
 10
352.2035782958
 20
-3.1997669905
 11
351.6999827326
 21
-3.2120922715
  0
LINE
  8
0
 62
7
  6
CONTINUOUS
 10
351.6999827326
 20
-3.2120922715
 11
351.1795189431
 21
-3.2222184784
  0
POLYLINE
  8
0
 62
7
  6
CONTINUOUS
 66
1
 70
0
  0
VERTEX
  8
0
 62
7
  6
CONTINUOUS
 10
351.1795189431
 20
-3.2222184784
  0
VERTEX
  8
0
 62
7
  6
CONTINUOUS
 10
350.6464833994
 20
-3.2300620187
  0
VERTEX
  8
0
 62
7
  6
CONTINUOUS
 10
350.3766232754
 20
-3.2331068023
  0
SEQEND
  0
POLYLINE
  8
0
 62
7
  6
CONTINUOUS
 66
1
 70
0
  0
VERTEX
  8
0
 62
7
  6
CONTINUOUS
 10
341.285722842
 20
-12.179951736
  0
VERTEX
  8
0
 62
7
  6
CONTINUOUS
 10
341.6131491428
 20
-12.1760000995
  0
VERTEX
  8
0
 62
7
  6
CONTINUOUS
 10
341.9395120897
 20
-12.1605204359
  0
VERTEX
  8
0
 62
7
  6
CONTINUOUS
 10
342.265017564
 20
-12.1334845846
  0
VERTEX
  8
0
 62
7
  6
CONTINUOUS
 10
342.5890490715
 20
-12.0949771969
  0
VERTEX
  8
0
 62
7
  6
CONTINUOUS
 10
342.9111930336
 20
-12.0450402354
  0
VERTEX
  8
0
 62
7
  6
CONTINUOUS
 10
343.2310459607
 20
-11.9837738466
  0
VERTEX
  8
0
 62
7
  6
CONTINUOUS
 10
343.5481962548
 20
-11.9112498397
  0
VERTEX
  8
0
 62
7
  6
CONTINUOUS
 10
343.8622540287
 20
-11.8275954168
  0
VERTEX
  8
0
 62
7
  6
CONTINUOUS
 10
344.1728177071
 20
-11.7329108082
  0
VERTEX
  8
0
 62
7
  6
CONTINUOUS
 10
344.4795101342
 20
-11.6273489483
  0
VERTEX
  8
0
 62
7
  6
CONTINUOUS
 10
344.7819414949
 20
-11.5110369421
  0
VERTEX
  8
0
 62
7
  6
CONTINUOUS
 10
345.0797476026
 20
-11.3841526954
  0
VERTEX
  8
0
 62
7
  6
CONTINUOUS
 10
345.3725506233
 20
-11.2468493037
  0
VERTEX
  8
0
 62
7
  6
CONTINUOUS
 10
345.6600011478
 20
-11.0993284632
  0
VERTEX
  8
0
 62
7
  6
CONTINUOUS
 10
345.9417345481
 20
-10.9417683363
  0
VERTEX
  8
0
 62
7
  6
CONTINUOUS
 10
346.2174181822
 20
-10.77439275
  0
VERTEX
  8
0
 62
7
  6
CONTINUOUS
 10
346.4867026948
 20
-10.5974034393
  0
VERTEX
  8
0
 62
7
  6
CONTINUOUS
 10
346.7492732235
 20
-10.4110449383
  0
VERTEX
  8
0
 62
7
  6
CONTINUOUS
 10
347.0047971721
 20
-10.2155410131
  0
VERTEX
  8
0
 62
7
  6
CONTINUOUS
 10
347.2529781149
 20
-10.0111557628
  0
VERTEX
  8
0
 62
7
  6
CONTINUOUS
 10
347.4935010934
 20
-9.7981337205
  0
VERTEX
  8
0
 62
7
  6
CONTINUOUS
 10
347.7260889534
 20
-9.5767573747
  0
VERTEX
  8
0
 62
7
  6
CONTINUOUS
 10
347.9504451393
 20
-9.3472909305
  0
VERTEX
  8
0
 62
7
  6
CONTINUOUS
 10
348.1663128634
 20
-9.110033759
  0
VERTEX
  8
0
 62
7
  6
CONTINUOUS
 10
348.3734150189
 20
-8.8652683987
  0
VERTEX
  8
0
 62
7
  6
CONTINUOUS
 10
348.5715161023
 20
-8.6133095036
  0
VERTEX
  8
0
 62
7
  6
CONTINUOUS
 10
348.7603596721
 20
-8.3544561008
  0
VERTEX
  8
0
 62
7
  6
CONTINUOUS
 10
348.9397316576
 20
-8.0890375261
  0
VERTEX
  8
0
 62
7
  6
CONTINUOUS
 10
349.1093966647
 20
-7.8173682539
  0
VERTEX
  8
0
 62
7
  6
CONTINUOUS
 10
349.2691625702
 20
-7.5397917764
  0
VERTEX
  8
0
 62
7
  6
CONTINUOUS
 10
349.4188151721
 20
-7.2566379084
  0
VERTEX
  8
0
 62
7
  6
CONTINUOUS
 10
349.5581857809
 20
-6.9682620051
  0
VERTEX
  8
0
 62
7
  6
CONTINUOUS
 10
349.6870825038
 20
-6.6750081111
  0
VERTEX
  8
0
 62
7
  6
CONTINUOUS
 10
349.8053613285
 20
-6.3772397899
  0
VERTEX
  8
0
 62
7
  6
CONTINUOUS
 10
349.9128546618
 20
-6.0753106272
  0
VERTEX
  8
0
 62
7
  6
CONTINUOUS
 10
350.0094420279
 20
-5.7695943918
  0
VERTEX
  8
0
 62
7
  6
CONTINUOUS
 10
350.0949795243
 20
-5.4604536258
  0
VERTEX
  8
0
 62
7
  6
CONTINUOUS
 10
350.1693705949
 20
-5.1482753599
  0
VERTEX
  8
0
 62
7
  6
CONTINUOUS
 10
350.2324942792
 20
-4.8334353179
  0
VERTEX
  8
0
 62
7
  6
CONTINUOUS
 10
350.2842807214
 20
-4.5163297051
  0
VERTEX
  8
0
 62
7
  6
CONTINUOUS
 10
350.3246336181
 20
-4.1973573931
  0
VERTEX
  8
0
 62
7
  6
CONTINUOUS
 10
350.3535122405
 20
-3.8768858293
  0
VERTEX
  8
0
 62
7
  6
CONTINUOUS
 10
350.3708351089
 20
-3.5554778035
  0
VERTEX
  8
0
 62
7
  6
CONTINUOUS
 10
350.3766290351
 20
-3.2329458868
  0
SEQEND
  0
LINE
  8
0
 62
7
  6
CONTINUOUS
 10
366.0327043836
 20
-13.2875192869
 11
363.5327043836
 21
-13.2875192869
  0
LINE
  8
0
 62
7
  6
CONTINUOUS
 10
6.0327043836
 20
-13.2875192869
 11
8.5327043836
 21
-13.2875192869
  0
LINE
  8
0
 62
7
  6
CONTINUOUS
 10
11.2323631938
 20
-8.1449400054
 11
8.7418764485
 21
-8.1449400054
  0
LINE
  8
0
 62
7
  6
CONTINUOUS
 10
360.8330455734
 20
-8.1449400054
 11
363.3235323186
 21
-8.1449400054
  0
POLYLINE
  8
0
 62
7
  6
CONTINUOUS
 66
1
 70
0
  0
VERTEX
  8
0
 62
7
  6
CONTINUOUS
 10
341.285722842
 20
-12.179951736
  0
VERTEX
  8
0
 62
7
  6
CONTINUOUS
 10
331.6380624154
 20
-12.1268611113
  0
VERTEX
  8
0
 62
7
  6
CONTINUOUS
 10
321.9870239851
 20
-12.0771343559
  0
VERTEX
  8
0
 62
7
  6
CONTINUOUS
 10
312.3321239215
 20
-12.0307601217
  0
VERTEX
  8
0
 62
7
  6
CONTINUOUS
 10
302.6766523543
 20
-11.9877658239
  0
VERTEX
  8
0
 62
7
  6
CONTINUOUS
 10
293.0242152879
 20
-11.9481755305
  0
VERTEX
  8
0
 62
7
  6
CONTINUOUS
 10
283.3734258622
 20
-11.9119861683
  0
VERTEX
  8
0
 62
7
  6
CONTINUOUS
 10
273.7241719176
 20
-11.8792013321
  0
VERTEX
  8
0
 62
7
  6
CONTINUOUS
 10
264.0762371951
 20
-11.849824128
  0
VERTEX
  8
0
 62
7
  6
CONTINUOUS
 10
254.4294911286
 20
-11.8238580988
  0
VERTEX
  8
0
 62
7
  6
CONTINUOUS
 10
244.783565645
 20
-11.8013053906
  0
VERTEX
  8
0
 62
7
  6
CONTINUOUS
 10
235.1381880533
 20
-11.7821689999
  0
VERTEX
  8
0
 62
7
  6
CONTINUOUS
 10
225.4929420379
 20
-11.7664506332
  0
VERTEX
  8
0
 62
7
  6
CONTINUOUS
 10
215.8474411507
 20
-11.7541530427
  0
VERTEX
  8
0
 62
7
  6
CONTINUOUS
 10
206.2013238279
 20
-11.7452776589
  0
VERTEX
  8
0
 62
7
  6
CONTINUOUS
 10
196.5542275387
 20
-11.7398272669
  0
VERTEX
  8
0
 62
7
  6
CONTINUOUS
 10
186.9057704927
 20
-11.7378029656
  0
VERTEX
  8
0
 62
7
  6
CONTINUOUS
 10
177.2555646299
 20
-11.7392075152
  0
VERTEX
  8
0
 62
7
  6
CONTINUOUS
 10
167.6032688808
 20
-11.7440418931
  0
VERTEX
  8
0
 62
7
  6
CONTINUOUS
 10
157.9485667153
 20
-11.7523087141
  0
VERTEX
  8
0
 62
7
  6
CONTINUOUS
 10
148.2909999706
 20
-11.764009067
  0
VERTEX
  8
0
 62
7
  6
CONTINUOUS
 10
138.6297006695
 20
-11.7791465965
  0
VERTEX
  8
0
 62
7
  6
CONTINUOUS
 10
128.9655863991
 20
-11.7977187597
  0
VERTEX
  8
0
 62
7
  6
CONTINUOUS
 10
119.2993187338
 20
-11.8197257479
  0
VERTEX
  8
0
 62
7
  6
CONTINUOUS
 10
109.6307968782
 20
-11.8451647139
  0
VERTEX
  8
0
 62
7
  6
CONTINUOUS
 10
99.96626322
 20
-11.8740085187
  0
VERTEX
  8
0
 62
7
  6
CONTINUOUS
 10
90.2873487107
 20
-11.9063310486
  0
VERTEX
  8
0
 62
7
  6
CONTINUOUS
 10
80.590787538
 20
-11.9421201153
  0
VERTEX
  8
0
 62
7
  6
CONTINUOUS
 10
70.8376606344
 20
-11.9816067354
  0
VERTEX
  8
0
 62
7
  6
CONTINUOUS
 10
60.9907432393
 20
-12.024959721
  0
VERTEX
  8
0
 62
7
  6
CONTINUOUS
 10
51.0421716645
 20
-12.0723531413
  0
VERTEX
  8
0
 62
7
  6
CONTINUOUS
 10
40.96891127
 20
-12.1240447206
  0
VERTEX
  8
0
 62
7
  6
CONTINUOUS
 10
30.7796769964
 20
-12.1799514707
  0
SEQEND
  0
LINE
  8
0
 62
7
  6
CONTINUOUS
 10
21.6887855304
 20
-3.2331068238
 11
21.1511090698
 21
-3.2264300974
  0
LINE
  8
0
 62
7
  6
CONTINUOUS
 10
21.1511090698
 20
-3.2264300974
 11
20.6238149719
 21
-3.2174359367
  0
LINE
  8
0
 62
7
  6
CONTINUOUS
 10
20.6238149719
 20
-3.2174359367
 11
20.111256133
 21
-3.2061985909
  0
LINE
  8
0
 62
7
  6
CONTINUOUS
 10
20.111256133
 20
-3.2061985909
 11
19.6176637025
 21
-3.1928108229
  0
LINE
  8
0
 62
7
  6
CONTINUOUS
 10
19.6176637025
 20
-3.1928108229
 11
19.1471127335
 21
-3.1773831614
  0
LINE
  8
0
 62
7
  6
CONTINUOUS
 10
19.1471127335
 20
-3.1773831614
 11
18.703487462
 21
-3.1600429572
  0
POLYLINE
  8
0
 62
7
  6
CONTINUOUS
 66
1
 70
0
  0
VERTEX
  8
0
 62
7
  6
CONTINUOUS
 10
18.703487462
 20
-3.1600429572
  0
VERTEX
  8
0
 62
7
  6
CONTINUOUS
 10
18.2904502481
 20
-3.140933362
  0
VERTEX
  8
0
 62
7
  6
CONTINUOUS
 10
18.0964783468
 20
-3.1307638052
  0
VERTEX
  8
0
 62
7
  6
CONTINUOUS
 10
17.9114108079
 20
-3.12021213
  0
VERTEX
  8
0
 62
7
  6
CONTINUOUS
 10
17.7356297731
 20
-3.1093001244
  0
VERTEX
  8
0
 62
7
  6
CONTINUOUS
 10
17.5694982128
 20
-3.0980503205
  0
VERTEX
  8
0
 62
7
  6
CONTINUOUS
 10
17.4133591775
 20
-3.0864859486
  0
VERTEX
  8
0
 62
7
  6
CONTINUOUS
 10
17.2675350569
 20
-3.0746308862
  0
VERTEX
  8
0
 62
7
  6
CONTINUOUS
 10
17.1323269352
 20
-3.0625096102
  0
VERTEX
  8
0
 62
7
  6
CONTINUOUS
 10
17.0080140483
 20
-3.0501471533
  0
VERTEX
  8
0
 62
7
  6
CONTINUOUS
 10
16.8948531276
 20
-3.0375690475
  0
VERTEX
  8
0
 62
7
  6
CONTINUOUS
 10
16.7930777834
 20
-3.0248012603
  0
VERTEX
  8
0
 62
7
  6
CONTINUOUS
 10
16.7028981381
 20
-3.0118701509
  0
VERTEX
  8
0
 62
7
  6
CONTINUOUS
 10
16.6245004319
 20
-2.9988024238
  0
VERTEX
  8
0
 62
7
  6
CONTINUOUS
 10
16.5580465529
 20
-2.9856250632
  0
VERTEX
  8
0
 62
7
  6
CONTINUOUS
 10
16.5036737311
 20
-2.9723652817
  0
VERTEX
  8
0
 62
7
  6
CONTINUOUS
 10
16.4614942417
 20
-2.9590504627
  0
VERTEX
  8
0
 62
7
  6
CONTINUOUS
 10
16.43159516
 20
-2.9457080988
  0
SEQEND
  0
LINE
  8
0
 62
7
  6
CONTINUOUS
 10
16.4315933158
 20
-2.9457098834
 11
11.2323631938
 21
-8.1449400054
  0
LINE
  8
0
 62
7
  6
CONTINUOUS
 10
340.6403176116
 20
321.2630144125
 11
345.890125102
 21
326.5128219029
  0
LINE
  8
0
 62
7
  6
CONTINUOUS
 10
16.8970286502
 20
151.7124807131
 11
166.0327043836
 21
151.7124807131
  0
LINE
  8
0
 62
7
  6
CONTINUOUS
 10
206.0327043836
 20
151.7124807131
 11
355.1683801169
 21
151.7124807131
  0
LINE
  8
0
 62
7
  6
CONTINUOUS
 10
16.4315968179
 20
306.3706678074
 11
11.2323631938
 21
311.5699014315
  0
LINE
  8
0
 62
7
  6
CONTINUOUS
 10
340.6403178882
 20
-17.838053263
 11
345.890125102
 21
-23.0878604767
  0
LINE
  8
0
 62
7
  6
CONTINUOUS
 10
31.4250857266
 20
-17.8380584152
 11
26.1752836651
 21
-23.0878604767
  0
LINE
  8
0
 62
7
  6
CONTINUOUS
 10
355.6338131825
 20
306.3706690407
 11
360.8330455734
 21
311.5699014315
  0
LINE
  8
0
 62
7
  6
CONTINUOUS
 10
31.4250909471
 20
321.2630146209
 11
26.1752836651
 21
326.5128219029
  0
LINE
  8
0
 62
7
  6
CONTINUOUS
 10
355.6338134206
 20
-2.9457078525
 11
360.8330455734
 21
-8.1449400054
  0
POLYLINE
  8
0
 62
7
  6
CONTINUOUS
 66
1
 70
0
  0
VERTEX
  8
0
 62
7
  6
CONTINUOUS
 10
350.3766161832
 20
306.6582663697
  0
VERTEX
  8
0
 62
7
  6
CONTINUOUS
 10
350.3708302445
 20
306.9805740121
  0
VERTEX
  8
0
 62
7
  6
CONTINUOUS
 10
350.3535122557
 20
307.3018470444
  0
VERTEX
  8
0
 62
7
  6
CONTINUOUS
 10
350.3246345669
 20
307.6222952217
  0
VERTEX
  8
0
 62
7
  6
CONTINUOUS
 10
350.2842810577
 20
307.9412888095
  0
VERTEX
  8
0
 62
7
  6
CONTINUOUS
 10
350.2324949085
 20
308.2583933304
  0
VERTEX
  8
0
 62
7
  6
CONTINUOUS
 10
350.1693715435
 20
308.5732324609
  0
VERTEX
  8
0
 62
7
  6
CONTINUOUS
 10
350.0949807637
 20
308.8854102347
  0
VERTEX
  8
0
 62
7
  6
CONTINUOUS
 10
350.0094435067
 20
309.1945508257
  0
VERTEX
  8
0
 62
7
  6
CONTINUOUS
 10
349.9128562672
 20
309.500267249
  0
VERTEX
  8
0
 62
7
  6
CONTINUOUS
 10
349.8053630075
 20
309.8021967564
  0
VERTEX
  8
0
 62
7
  6
CONTINUOUS
 10
349.6870842245
 20
310.0999654089
  0
VERTEX
  8
0
 62
7
  6
CONTINUOUS
 10
349.5581875667
 20
310.3932195595
  0
VERTEX
  8
0
 62
7
  6
CONTINUOUS
 10
349.4188171319
 20
310.6815954698
  0
VERTEX
  8
0
 62
7
  6
CONTINUOUS
 10
349.2691647427
 20
310.9647492656
  0
VERTEX
  8
0
 62
7
  6
CONTINUOUS
 10
349.1093990492
 20
311.2423257072
  0
VERTEX
  8
0
 62
7
  6
CONTINUOUS
 10
348.9397342464
 20
311.5139949687
  0
VERTEX
  8
0
 62
7
  6
CONTINUOUS
 10
348.760362436
 20
311.7794135913
  0
VERTEX
  8
0
 62
7
  6
CONTINUOUS
 10
348.5715190175
 20
312.0382670815
  0
VERTEX
  8
0
 62
7
  6
CONTINUOUS
 10
348.3734180481
 20
312.2902261083
  0
VERTEX
  8
0
 62
7
  6
CONTINUOUS
 10
348.1663160042
 20
312.5349916059
  0
VERTEX
  8
0
 62
7
  6
CONTINUOUS
 10
347.9504484295
 20
312.7722488699
  0
VERTEX
  8
0
 62
7
  6
CONTINUOUS
 10
347.7260924004
 20
313.0017153999
  0
VERTEX
  8
0
 62
7
  6
CONTINUOUS
 10
347.4935046782
 20
313.2230918539
  0
VERTEX
  8
0
 62
7
  6
CONTINUOUS
 10
347.2529818454
 20
313.4361140026
  0
VERTEX
  8
0
 62
7
  6
CONTINUOUS
 10
347.0048010909
 20
313.6404993306
  0
VERTEX
  8
0
 62
7
  6
CONTINUOUS
 10
346.7492773234
 20
313.8360033426
  0
VERTEX
  8
0
 62
7
  6
CONTINUOUS
 10
346.4867069259
 20
314.0223619748
  0
VERTEX
  8
0
 62
7
  6
CONTINUOUS
 10
346.2174225075
 20
314.199351443
  0
VERTEX
  8
0
 62
7
  6
CONTINUOUS
 10
345.9417389154
 20
314.3667272146
  0
VERTEX
  8
0
 62
7
  6
CONTINUOUS
 10
345.6600055473
 20
314.5242875312
  0
VERTEX
  8
0
 62
7
  6
CONTINUOUS
 10
345.3725550553
 20
314.6718085503
  0
VERTEX
  8
0
 62
7
  6
CONTINUOUS
 10
345.0797521491
 20
314.8091120879
  0
VERTEX
  8
0
 62
7
  6
CONTINUOUS
 10
344.7819463844
 20
314.9359963936
  0
VERTEX
  8
0
 62
7
  6
CONTINUOUS
 10
344.4795154111
 20
315.0523084523
  0
VERTEX
  8
0
 62
7
  6
CONTINUOUS
 10
344.1728233187
 20
315.1578704199
  0
VERTEX
  8
0
 62
7
  6
CONTINUOUS
 10
343.8622598084
 20
315.2525551927
  0
VERTEX
  8
0
 62
7
  6
CONTINUOUS
 10
343.5482018773
 20
315.3362098749
  0
VERTEX
  8
0
 62
7
  6
CONTINUOUS
 10
343.2310511377
 20
315.4087341854
  0
VERTEX
  8
0
 62
7
  6
CONTINUOUS
 10
342.9111974098
 20
315.470000898
  0
VERTEX
  8
0
 62
7
  6
CONTINUOUS
 10
342.5890524454
 20
315.5199381613
  0
VERTEX
  8
0
 62
7
  6
CONTINUOUS
 10
342.2650196045
 20
315.5584457819
  0
VERTEX
  8
0
 62
7
  6
CONTINUOUS
 10
341.9395132503
 20
315.5854817863
  0
VERTEX
  8
0
 62
7
  6
CONTINUOUS
 10
341.613150711
 20
315.6009614933
  0
VERTEX
  8
0
 62
7
  6
CONTINUOUS
 10
341.2857258275
 20
315.6049130735
  0
SEQEND
  0
LINE
  8
0
 62
7
  6
CONTINUOUS
 10
355.4398662628
 20
42.2125451667
 11
355.6338134206
 21
-2.9457078525
  0
POLYLINE
  8
0
 62
7
  6
CONTINUOUS
 66
1
 70
0
  0
VERTEX
  8
0
 62
7
  6
CONTINUOUS
 10
355.3972061809
 20
52.6183368099
  0
VERTEX
  8
0
 62
7
  6
CONTINUOUS
 10
355.4113941119
 20
49.1111699446
  0
VERTEX
  8
0
 62
7
  6
CONTINUOUS
 10
355.4398662628
 20
42.2125451667
  0
SEQEND
  0
LINE
  8
0
 62
7
  6
CONTINUOUS
 10
355.3690712719
 20
59.7497268053
 11
355.3972061809
 21
52.6183368099
  0
LINE
  8
0
 62
7
  6
CONTINUOUS
 10
355.3416373587
 20
66.9957573308
 11
355.3690712719
 21
59.7497268053
  0
LINE
  8
0
 62
7
  6
CONTINUOUS
 10
355.3028168411
 20
77.9537672552
 11
355.3416373587
 21
66.9957573308
  0
LINE
  8
0
 62
7
  6
CONTINUOUS
 10
355.2680008322
 20
88.8502715546
 11
355.3028168411
 21
77.9537672552
  0
LINE
  8
0
 62
7
  6
CONTINUOUS
 10
355.2382283469
 20
99.5045496995
 11
355.2680008322
 21
88.8502715546
  0
POLYLINE
  8
0
 62
7
  6
CONTINUOUS
 66
1
 70
0
  0
VERTEX
  8
0
 62
7
  6
CONTINUOUS
 10
355.2070053355
 20
113.2025208833
  0
VERTEX
  8
0
 62
7
  6
CONTINUOUS
 10
355.2139268925
 20
109.8218075454
  0
VERTEX
  8
0
 62
7
  6
CONTINUOUS
 10
355.2382283469
 20
99.5045496995
  0
SEQEND
  0
LINE
  8
0
 62
7
  6
CONTINUOUS
 10
355.1895638351
 20
123.314950293
 11
355.2070053355
 21
113.2025208833
  0
LINE
  8
0
 62
7
  6
CONTINUOUS
 10
355.1770735406
 20
133.569320226
 11
355.1895638351
 21
123.314950293
  0
LINE
  8
0
 62
7
  6
CONTINUOUS
 10
350.3876104997
 20
267.9308570489
 11
350.4379302378
 21
205.3638698818
  0
LINE
  8
0
 62
7
  6
CONTINUOUS
 10
350.4379302378
 20
205.3638698818
 11
350.4567811375
 21
177.055418235
  0
LINE
  8
0
 62
7
  6
CONTINUOUS
 10
355.1698928884
 20
144.1569279087
 11
355.1770735406
 21
133.569320226
  0
LINE
  8
0
 62
7
  6
CONTINUOUS
 10
350.3784326707
 20
289.0188381262
 11
350.3876104997
 21
267.9308570489
  0
LINE
  8
0
 62
7
  6
CONTINUOUS
 10
345.890125102
 20
-23.0878604767
 11
345.890125102
 21
-25.578347222
  0
LINE
  8
0
 62
7
  6
CONTINUOUS
 10
345.890125102
 20
326.5128219029
 11
345.890125102
 21
329.0033086481
  0
POLYLINE
  8
0
 62
7
  6
CONTINUOUS
 66
1
 70
0
  0
VERTEX
  8
0
 62
7
  6
CONTINUOUS
 10
350.3766161832
 20
306.6582663697
  0
VERTEX
  8
0
 62
7
  6
CONTINUOUS
 10
350.3766564727
 20
299.5144888875
  0
VERTEX
  8
0
 62
7
  6
CONTINUOUS
 10
350.3784326707
 20
289.0188381262
  0
SEQEND
  0
LINE
  8
0
 62
7
  6
CONTINUOUS
 10
350.4567811375
 20
177.055418235
 11
350.4627751102
 21
156.4750055845
  0
LINE
  8
0
 62
7
  6
CONTINUOUS
 10
351.0327043836
 20
331.7124807131
 11
351.0327043836
 21
329.2124807131
  0
LINE
  8
0
 62
7
  6
CONTINUOUS
 10
351.0327043836
 20
-28.2875192869
 11
351.0327043836
 21
-25.7875192869
  0
LINE
  8
0
 62
7
  6
CONTINUOUS
 10
355.1683801169
 20
151.7124807131
 11
355.1698928884
 21
144.1569279087
  0
LINE
  8
0
 62
7
  6
CONTINUOUS
 10
350.3770549516
 20
7.7192136606
 11
350.3766290351
 21
-3.2329458868
  0
LINE
  8
0
 62
7
  6
CONTINUOUS
 10
350.4627751102
 20
156.4750055845
 11
350.4625680991
 21
144.130627881
  0
POLYLINE
  8
0
 62
7
  6
CONTINUOUS
 66
1
 70
0
  0
VERTEX
  8
0
 62
7
  6
CONTINUOUS
 10
350.3795784015
 20
18.2054373227
  0
VERTEX
  8
0
 62
7
  6
CONTINUOUS
 10
350.3785288347
 20
14.7488630518
  0
VERTEX
  8
0
 62
7
  6
CONTINUOUS
 10
350.3770549516
 20
7.7192136606
  0
SEQEND
  0
LINE
  8
0
 62
7
  6
CONTINUOUS
 10
350.4625680991
 20
144.130627881
 11
350.4584385586
 21
130.0506298975
  0
LINE
  8
0
 62
7
  6
CONTINUOUS
 10
355.17065201
 20
160.9738403123
 11
355.1683801169
 21
151.7124807131
  0
POLYLINE
  8
0
 62
7
  6
CONTINUOUS
 66
1
 70
0
  0
VERTEX
  8
0
 62
7
  6
CONTINUOUS
 10
350.3855130378
 20
31.7800217211
  0
VERTEX
  8
0
 62
7
  6
CONTINUOUS
 10
350.3837671497
 20
28.408777257
  0
VERTEX
  8
0
 62
7
  6
CONTINUOUS
 10
350.3822075651
 20
25.0284853423
  0
VERTEX
  8
0
 62
7
  6
CONTINUOUS
 10
350.3795784015
 20
18.2054373227
  0
SEQEND
  0
LINE
  8
0
 62
7
  6
CONTINUOUS
 10
350.3916429648
 20
41.9338664098
 11
350.3855130378
 21
31.7800217211
  0
LINE
  8
0
 62
7
  6
CONTINUOUS
 10
350.4584385586
 20
130.0506298975
 11
350.4512824589
 21
116.4520220572
  0
LINE
  8
0
 62
7
  6
CONTINUOUS
 10
350.4512824589
 20
116.4520220572
 11
350.4389510959
 21
99.3342337644
  0
LINE
  8
0
 62
7
  6
CONTINUOUS
 10
350.4389510959
 20
99.3342337644
 11
350.3916429648
 21
41.9338664098
  0
LINE
  8
0
 62
7
  6
CONTINUOUS
 10
355.1765653375
 20
169.3135266947
 11
355.17065201
 21
160.9738403123
  0
LINE
  8
0
 62
7
  6
CONTINUOUS
 10
355.1903187961
 20
180.6227662715
 11
355.1765653375
 21
169.3135266947
  0
LINE
  8
0
 62
7
  6
CONTINUOUS
 10
355.2091186252
 20
191.281900903
 11
355.1903187961
 21
180.6227662715
  0
LINE
  8
0
 62
7
  6
CONTINUOUS
 10
355.2326531975
 20
201.7200368076
 11
355.2091186252
 21
191.281900903
  0
LINE
  8
0
 62
7
  6
CONTINUOUS
 10
355.2609276332
 20
212.1823516651
 11
355.2326531975
 21
201.7200368076
  0
LINE
  8
0
 62
7
  6
CONTINUOUS
 10
355.2943676396
 20
222.9398323846
 11
355.2609276332
 21
212.1823516651
  0
LINE
  8
0
 62
7
  6
CONTINUOUS
 10
355.332873399
 20
234.037732414
 11
355.2943676396
 21
222.9398323846
  0
LINE
  8
0
 62
7
  6
CONTINUOUS
 10
355.3903761192
 20
249.0986745012
 11
355.332873399
 21
234.037732414
  0
LINE
  8
0
 62
7
  6
CONTINUOUS
 10
355.6338131825
 20
306.3706690407
 11
355.4822898497
 21
271.2428992096
  0
LINE
  8
0
 62
7
  6
CONTINUOUS
 10
355.4822898497
 20
271.2428992096
 11
355.3903761192
 21
249.0986745012
  0
POLYLINE
  8
0
 62
7
  6
CONTINUOUS
 66
1
 70
0
  0
VERTEX
  8
0
 62
7
  6
CONTINUOUS
 10
341.2857276491
 20
-12.1799516482
  0
VERTEX
  8
0
 62
7
  6
CONTINUOUS
 10
341.281018339
 20
-12.4474339487
  0
VERTEX
  8
0
 62
7
  6
CONTINUOUS
 10
341.2750282792
 20
-12.7137437711
  0
VERTEX
  8
0
 62
7
  6
CONTINUOUS
 10
341.2677694431
 20
-12.9783487733
  0
VERTEX
  8
0
 62
7
  6
CONTINUOUS
 10
341.2592563413
 20
-13.2407199949
  0
VERTEX
  8
0
 62
7
  6
CONTINUOUS
 10
341.2495059921
 20
-13.500332936
  0
VERTEX
  8
0
 62
7
  6
CONTINUOUS
 10
341.2385378857
 20
-13.7566686567
  0
VERTEX
  8
0
 62
7
  6
CONTINUOUS
 10
341.2263739457
 20
-14.0092147695
  0
VERTEX
  8
0
 62
7
  6
CONTINUOUS
 10
341.213038489
 20
-14.2574664065
  0
VERTEX
  8
0
 62
7
  6
CONTINUOUS
 10
341.1985581751
 20
-14.5009272834
  0
VERTEX
  8
0
 62
7
  6
CONTINUOUS
 10
341.1829619483
 20
-14.7391107598
  0
VERTEX
  8
0
 62
7
  6
CONTINUOUS
 10
341.1662809833
 20
-14.9715407358
  0
VERTEX
  8
0
 62
7
  6
CONTINUOUS
 10
341.1485486261
 20
-15.1977525728
  0
VERTEX
  8
0
 62
7
  6
CONTINUOUS
 10
341.1298003238
 20
-15.41729407
  0
VERTEX
  8
0
 62
7
  6
CONTINUOUS
 10
341.1100735536
 20
-15.629726371
  0
VERTEX
  8
0
 62
7
  6
CONTINUOUS
 10
341.089407749
 20
-15.8346248283
  0
VERTEX
  8
0
 62
7
  6
CONTINUOUS
 10
341.0678442206
 20
-16.0315798523
  0
VERTEX
  8
0
 62
7
  6
CONTINUOUS
 10
341.0454260738
 20
-16.2201977322
  0
VERTEX
  8
0
 62
7
  6
CONTINUOUS
 10
341.0221981216
 20
-16.400101426
  0
VERTEX
  8
0
 62
7
  6
CONTINUOUS
 10
340.9982067963
 20
-16.5709313108
  0
VERTEX
  8
0
 62
7
  6
CONTINUOUS
 10
340.9735000562
 20
-16.7323458995
  0
VERTEX
  8
0
 62
7
  6
CONTINUOUS
 10
340.9481272906
 20
-16.8840225213
  0
VERTEX
  8
0
 62
7
  6
CONTINUOUS
 10
340.9221392165
 20
-17.025657993
  0
VERTEX
  8
0
 62
7
  6
CONTINUOUS
 10
340.8955877781
 20
-17.1569692116
  0
VERTEX
  8
0
 62
7
  6
CONTINUOUS
 10
340.8685260599
 20
-17.2776936407
  0
VERTEX
  8
0
 62
7
  6
CONTINUOUS
 10
340.8410081698
 20
-17.387589912
  0
VERTEX
  8
0
 62
7
  6
CONTINUOUS
 10
340.8130891033
 20
-17.4864384037
  0
VERTEX
  8
0
 62
7
  6
CONTINUOUS
 10
340.7848246583
 20
-17.5740415547
  0
VERTEX
  8
0
 62
7
  6
CONTINUOUS
 10
340.7562713433
 20
-17.650224214
  0
VERTEX
  8
0
 62
7
  6
CONTINUOUS
 10
340.7274862456
 20
-17.714834071
  0
VERTEX
  8
0
 62
7
  6
CONTINUOUS
 10
340.6985268905
 20
-17.7677420064
  0
VERTEX
  8
0
 62
7
  6
CONTINUOUS
 10
340.669451153
 20
-17.8088422656
  0
VERTEX
  8
0
 62
7
  6
CONTINUOUS
 10
340.6403171597
 20
-17.838052659
  0
SEQEND
  0
LINE
  8
0
 62
7
  6
CONTINUOUS
 10
18.0964785064
 20
306.5557252207
 11
18.492926141
 21
306.5756612153
  0
LINE
  8
0
 62
7
  6
CONTINUOUS
 10
18.492926141
 20
306.5756612153
 11
18.9217000675
 21
306.5939049492
  0
LINE
  8
0
 62
7
  6
CONTINUOUS
 10
18.9217000675
 20
306.5939049492
 11
19.3792605731
 21
306.6103058129
  0
LINE
  8
0
 62
7
  6
CONTINUOUS
 10
19.3792605731
 20
306.6103058129
 11
19.8618304824
 21
306.624728417
  0
LINE
  8
0
 62
7
  6
CONTINUOUS
 10
19.8618304824
 20
306.624728417
 11
20.3654260432
 21
306.6370536979
  0
LINE
  8
0
 62
7
  6
CONTINUOUS
 10
20.3654260432
 20
306.6370536979
 11
20.8858898296
 21
306.6471799046
  0
POLYLINE
  8
0
 62
7
  6
CONTINUOUS
 66
1
 70
0
  0
VERTEX
  8
0
 62
7
  6
CONTINUOUS
 10
31.4250915382
 20
321.2630140299
  0
VERTEX
  8
0
 62
7
  6
CONTINUOUS
 10
30.8856783386
 20
321.2548885413
  0
VERTEX
  8
0
 62
7
  6
CONTINUOUS
 10
30.3473214071
 20
321.2275629344
  0
VERTEX
  8
0
 62
7
  6
CONTINUOUS
 10
29.8106964632
 20
321.181105582
  0
VERTEX
  8
0
 62
7
  6
CONTINUOUS
 10
29.2764884834
 20
321.1155977088
  0
VERTEX
  8
0
 62
7
  6
CONTINUOUS
 10
28.7453743278
 20
321.0311471124
  0
VERTEX
  8
0
 62
7
  6
CONTINUOUS
 10
28.218028218
 20
320.9278864064
  0
VERTEX
  8
0
 62
7
  6
CONTINUOUS
 10
27.6951196642
 20
320.8059719661
  0
VERTEX
  8
0
 62
7
  6
CONTINUOUS
 10
27.1773033455
 20
320.665582749
  0
VERTEX
  8
0
 62
7
  6
CONTINUOUS
 10
26.6652300173
 20
320.5069207767
  0
VERTEX
  8
0
 62
7
  6
CONTINUOUS
 10
26.159535436
 20
320.3302091907
  0
VERTEX
  8
0
 62
7
  6
CONTINUOUS
 10
25.660848885
 20
320.1356929599
  0
VERTEX
  8
0
 62
7
  6
CONTINUOUS
 10
25.169786684
 20
319.9236380642
  0
VERTEX
  8
0
 62
7
  6
CONTINUOUS
 10
24.6869563586
 20
319.6943311922
  0
VERTEX
  8
0
 62
7
  6
CONTINUOUS
 10
24.2129516757
 20
319.4480791244
  0
VERTEX
  8
0
 62
7
  6
CONTINUOUS
 10
23.7483565246
 20
319.1852086093
  0
VERTEX
  8
0
 62
7
  6
CONTINUOUS
 10
23.2937386176
 20
318.9060646474
  0
VERTEX
  8
0
 62
7
  6
CONTINUOUS
 10
22.8496550068
 20
318.6110113818
  0
VERTEX
  8
0
 62
7
  6
CONTINUOUS
 10
22.4166454703
 20
318.3004297622
  0
VERTEX
  8
0
 62
7
  6
CONTINUOUS
 10
21.9952379282
 20
317.9747187162
  0
VERTEX
  8
0
 62
7
  6
CONTINUOUS
 10
21.5859430061
 20
317.6342932232
  0
VERTEX
  8
0
 62
7
  6
CONTINUOUS
 10
21.1892581341
 20
317.2795849351
  0
VERTEX
  8
0
 62
7
  6
CONTINUOUS
 10
20.8056633145
 20
316.9110408657
  0
VERTEX
  8
0
 62
7
  6
CONTINUOUS
 10
20.4356243169
 20
316.5291235804
  0
VERTEX
  8
0
 62
7
  6
CONTINUOUS
 10
20.0795885832
 20
316.1343096475
  0
VERTEX
  8
0
 62
7
  6
CONTINUOUS
 10
19.7379886449
 20
315.727090267
  0
VERTEX
  8
0
 62
7
  6
CONTINUOUS
 10
19.4112377042
 20
315.3079689548
  0
VERTEX
  8
0
 62
7
  6
CONTINUOUS
 10
19.099733164
 20
314.8774624629
  0
VERTEX
  8
0
 62
7
  6
CONTINUOUS
 10
18.8038537393
 20
314.4361001848
  0
VERTEX
  8
0
 62
7
  6
CONTINUOUS
 10
18.5239610036
 20
313.9844227998
  0
VERTEX
  8
0
 62
7
  6
CONTINUOUS
 10
18.2603984585
 20
313.5229846104
  0
VERTEX
  8
0
 62
7
  6
CONTINUOUS
 10
18.0134915689
 20
313.0523500694
  0
VERTEX
  8
0
 62
7
  6
CONTINUOUS
 10
17.78354604
 20
312.5730946735
  0
VERTEX
  8
0
 62
7
  6
CONTINUOUS
 10
17.5708497286
 20
312.08580462
  0
VERTEX
  8
0
 62
7
  6
CONTINUOUS
 10
17.3756679619
 20
311.5910707491
  0
VERTEX
  8
0
 62
7
  6
CONTINUOUS
 10
17.198248073
 20
311.0894930986
  0
VERTEX
  8
0
 62
7
  6
CONTINUOUS
 10
17.0388171313
 20
310.5816810237
  0
VERTEX
  8
0
 62
7
  6
CONTINUOUS
 10
16.8975822641
 20
310.0682477043
  0
VERTEX
  8
0
 62
7
  6
CONTINUOUS
 10
16.7747326928
 20
309.5498258551
  0
VERTEX
  8
0
 62
7
  6
CONTINUOUS
 10
16.6704358647
 20
309.0270488395
  0
VERTEX
  8
0
 62
7
  6
CONTINUOUS
 10
16.584838555
 20
308.5005662082
  0
VERTEX
  8
0
 62
7
  6
CONTINUOUS
 10
16.5180655872
 20
307.9710309996
  0
VERTEX
  8
0
 62
7
  6
CONTINUOUS
 10
16.4702180704
 20
307.4390970449
  0
VERTEX
  8
0
 62
7
  6
CONTINUOUS
 10
16.4413738356
 20
306.9054192905
  0
VERTEX
  8
0
 62
7
  6
CONTINUOUS
 10
16.4315951218
 20
306.3706695035
  0
SEQEND
  0
POLYLINE
  8
0
 62
7
  6
CONTINUOUS
 66
1
 70
0
  0
VERTEX
  8
0
 62
7
  6
CONTINUOUS
 10
20.8858898296
 20
306.6471799046
  0
VERTEX
  8
0
 62
7
  6
CONTINUOUS
 10
21.4189253697
 20
306.6550234449
  0
VERTEX
  8
0
 62
7
  6
CONTINUOUS
 10
21.6887854918
 20
306.6580682285
  0
SEQEND
  0
POLYLINE
  8
0
 62
7
  6
CONTINUOUS
 66
1
 70
0
  0
VERTEX
  8
0
 62
7
  6
CONTINUOUS
 10
30.7796859342
 20
315.6049131625
  0
VERTEX
  8
0
 62
7
  6
CONTINUOUS
 10
30.4522596278
 20
315.6009615257
  0
VERTEX
  8
0
 62
7
  6
CONTINUOUS
 10
30.1258966774
 20
315.585481862
  0
VERTEX
  8
0
 62
7
  6
CONTINUOUS
 10
29.8003912026
 20
315.5584460107
  0
VERTEX
  8
0
 62
7
  6
CONTINUOUS
 10
29.4763596956
 20
315.5199386231
  0
VERTEX
  8
0
 62
7
  6
CONTINUOUS
 10
29.1542157335
 20
315.4700016616
  0
VERTEX
  8
0
 62
7
  6
CONTINUOUS
 10
28.8343628065
 20
315.4087352728
  0
VERTEX
  8
0
 62
7
  6
CONTINUOUS
 10
28.5172125123
 20
315.3362112658
  0
VERTEX
  8
0
 62
7
  6
CONTINUOUS
 10
28.2031547384
 20
315.2525568429
  0
VERTEX
  8
0
 62
7
  6
CONTINUOUS
 10
27.8925910601
 20
315.1578722343
  0
VERTEX
  8
0
 62
7
  6
CONTINUOUS
 10
27.585898633
 20
315.0523103745
  0
VERTEX
  8
0
 62
7
  6
CONTINUOUS
 10
27.2834672723
 20
314.9359983683
  0
VERTEX
  8
0
 62
7
  6
CONTINUOUS
 10
26.9856611646
 20
314.8091141216
  0
VERTEX
  8
0
 62
7
  6
CONTINUOUS
 10
26.6928581438
 20
314.6718107298
  0
VERTEX
  8
0
 62
7
  6
CONTINUOUS
 10
26.4054076194
 20
314.5242898894
  0
VERTEX
  8
0
 62
7
  6
CONTINUOUS
 10
26.123674219
 20
314.3667297625
  0
VERTEX
  8
0
 62
7
  6
CONTINUOUS
 10
25.8479905849
 20
314.1993541761
  0
VERTEX
  8
0
 62
7
  6
CONTINUOUS
 10
25.5787060723
 20
314.0223648655
  0
VERTEX
  8
0
 62
7
  6
CONTINUOUS
 10
25.3161355437
 20
313.8360063645
  0
VERTEX
  8
0
 62
7
  6
CONTINUOUS
 10
25.0606115951
 20
313.6405024393
  0
VERTEX
  8
0
 62
7
  6
CONTINUOUS
 10
24.8124306523
 20
313.4361171889
  0
VERTEX
  8
0
 62
7
  6
CONTINUOUS
 10
24.5719076738
 20
313.2230951466
  0
VERTEX
  8
0
 62
7
  6
CONTINUOUS
 10
24.3393198138
 20
313.0017188008
  0
VERTEX
  8
0
 62
7
  6
CONTINUOUS
 10
24.1149636279
 20
312.7722523567
  0
VERTEX
  8
0
 62
7
  6
CONTINUOUS
 10
23.8990959037
 20
312.5349951852
  0
VERTEX
  8
0
 62
7
  6
CONTINUOUS
 10
23.6919937482
 20
312.2902298248
  0
VERTEX
  8
0
 62
7
  6
CONTINUOUS
 10
23.4938926648
 20
312.0382709298
  0
VERTEX
  8
0
 62
7
  6
CONTINUOUS
 10
23.3050490951
 20
311.779417527
  0
VERTEX
  8
0
 62
7
  6
CONTINUOUS
 10
23.1256771095
 20
311.5139989523
  0
VERTEX
  8
0
 62
7
  6
CONTINUOUS
 10
22.9560121024
 20
311.24232968
  0
VERTEX
  8
0
 62
7
  6
CONTINUOUS
 10
22.796246197
 20
310.9647532026
  0
VERTEX
  8
0
 62
7
  6
CONTINUOUS
 10
22.6465935951
 20
310.6815993346
  0
VERTEX
  8
0
 62
7
  6
CONTINUOUS
 10
22.5072229862
 20
310.3932234313
  0
VERTEX
  8
0
 62
7
  6
CONTINUOUS
 10
22.3783262634
 20
310.0999695372
  0
VERTEX
  8
0
 62
7
  6
CONTINUOUS
 10
22.2600474387
 20
309.8022012161
  0
VERTEX
  8
0
 62
7
  6
CONTINUOUS
 10
22.1525541053
 20
309.5002720534
  0
VERTEX
  8
0
 62
7
  6
CONTINUOUS
 10
22.0559667392
 20
309.1945558179
  0
VERTEX
  8
0
 62
7
  6
CONTINUOUS
 10
21.9704292429
 20
308.8854150519
  0
VERTEX
  8
0
 62
7
  6
CONTINUOUS
 10
21.8960381723
 20
308.5732367861
  0
VERTEX
  8
0
 62
7
  6
CONTINUOUS
 10
21.832914488
 20
308.2583967441
  0
VERTEX
  8
0
 62
7
  6
CONTINUOUS
 10
21.7811280458
 20
307.9412911313
  0
VERTEX
  8
0
 62
7
  6
CONTINUOUS
 10
21.7407773533
 20
307.6223798619
  0
VERTEX
  8
0
 62
7
  6
CONTINUOUS
 10
21.7118965266
 20
307.3018472555
  0
VERTEX
  8
0
 62
7
  6
CONTINUOUS
 10
21.6945605108
 20
306.9800729972
  0
VERTEX
  8
0
 62
7
  6
CONTINUOUS
 10
21.6887447765
 20
306.6569307241
  0
SEQEND
  0
LINE
  8
0
 62
7
  6
CONTINUOUS
 10
11.2323631938
 20
311.5699014315
 11
8.7418764485
 21
311.5699014315
  0
LINE
  8
0
 62
7
  6
CONTINUOUS
 10
360.8330455734
 20
311.5699014315
 11
363.3235323186
 21
311.5699014315
  0
LINE
  8
0
 62
7
  6
CONTINUOUS
 10
366.0327043836
 20
316.7124807131
 11
363.5327043836
 21
316.7124807131
  0
LINE
  8
0
 62
7
  6
CONTINUOUS
 10
6.0327043836
 20
316.7124807131
 11
8.5327043836
 21
316.7124807131
  0
POLYLINE
  8
0
 62
7
  6
CONTINUOUS
 66
1
 70
0
  0
VERTEX
  8
0
 62
7
  6
CONTINUOUS
 10
30.7796859342
 20
315.6049131625
  0
VERTEX
  8
0
 62
7
  6
CONTINUOUS
 10
40.4293903483
 20
315.5518116577
  0
VERTEX
  8
0
 62
7
  6
CONTINUOUS
 10
50.0824484203
 20
315.5020755538
  0
VERTEX
  8
0
 62
7
  6
CONTINUOUS
 10
59.7393275806
 20
315.4556935683
  0
VERTEX
  8
0
 62
7
  6
CONTINUOUS
 10
69.3967849269
 20
315.4126929145
  0
VERTEX
  8
0
 62
7
  6
CONTINUOUS
 10
79.0512750576
 20
315.3730973978
  0
VERTEX
  8
0
 62
7
  6
CONTINUOUS
 10
88.7041289652
 20
315.3369041931
  0
VERTEX
  8
0
 62
7
  6
CONTINUOUS
 10
98.3554135832
 20
315.3041170932
  0
VERTEX
  8
0
 62
7
  6
CONTINUOUS
 10
108.0053734784
 20
315.2747390908
  0
VERTEX
  8
0
 62
7
  6
CONTINUOUS
 10
117.6541552544
 20
315.2487736712
  0
VERTEX
  8
0
 62
7
  6
CONTINUOUS
 10
127.3021186827
 20
315.2262230121
  0
VERTEX
  8
0
 62
7
  6
CONTINUOUS
 10
136.9495329042
 20
315.2070901246
  0
VERTEX
  8
0
 62
7
  6
CONTINUOUS
 10
146.5968159939
 20
315.1913767103
  0
VERTEX
  8
0
 62
7
  6
CONTINUOUS
 10
156.2443548816
 20
315.1790855225
  0
VERTEX
  8
0
 62
7
  6
CONTINUOUS
 10
165.8925114144
 20
315.1702179921
  0
VERTEX
  8
0
 62
7
  6
CONTINUOUS
 10
175.5416483296
 20
315.1647769055
  0
VERTEX
  8
0
 62
7
  6
CONTINUOUS
 10
185.1921481284
 20
315.1627633629
  0
VERTEX
  8
0
 62
7
  6
CONTINUOUS
 10
194.8444004412
 20
315.1641801279
  0
VERTEX
  8
0
 62
7
  6
CONTINUOUS
 10
204.4987439599
 20
315.1690281758
  0
VERTEX
  8
0
 62
7
  6
CONTINUOUS
 10
214.1554892976
 20
315.1773101141
  0
VERTEX
  8
0
 62
7
  6
CONTINUOUS
 10
223.8151068051
 20
315.1890270523
  0
VERTEX
  8
0
 62
7
  6
CONTINUOUS
 10
233.4784881116
 20
315.2041826841
  0
VERTEX
  8
0
 62
7
  6
CONTINUOUS
 10
243.1446752821
 20
315.2227743744
  0
VERTEX
  8
0
 62
7
  6
CONTINUOUS
 10
252.8130054539
 20
315.2448023726
  0
VERTEX
  8
0
 62
7
  6
CONTINUOUS
 10
262.4834860593
 20
315.270263429
  0
VERTEX
  8
0
 62
7
  6
CONTINUOUS
 10
272.1494297275
 20
315.2991286216
  0
VERTEX
  8
0
 62
7
  6
CONTINUOUS
 10
281.8302598414
 20
315.3314760349
  0
VERTEX
  8
0
 62
7
  6
CONTINUOUS
 10
291.5303658957
 20
315.367297395
  0
VERTEX
  8
0
 62
7
  6
CONTINUOUS
 10
301.2880057845
 20
315.4068227837
  0
VERTEX
  8
0
 62
7
  6
CONTINUOUS
 10
311.1454323535
 20
315.450251269
  0
VERTEX
  8
0
 62
7
  6
CONTINUOUS
 10
321.0945657015
 20
315.4976672689
  0
VERTEX
  8
0
 62
7
  6
CONTINUOUS
 10
331.1424354813
 20
315.5492389432
  0
VERTEX
  8
0
 62
7
  6
CONTINUOUS
 10
341.2857258275
 20
315.6049130735
  0
SEQEND
  0
POLYLINE
  8
0
 62
7
  6
CONTINUOUS
 66
1
 70
0
  0
VERTEX
  8
0
 62
7
  6
CONTINUOUS
 10
31.4250909471
 20
321.2630146209
  0
VERTEX
  8
0
 62
7
  6
CONTINUOUS
 10
41.034919718
 20
321.1743239071
  0
VERTEX
  8
0
 62
7
  6
CONTINUOUS
 10
50.647614709
 20
321.0912950155
  0
VERTEX
  8
0
 62
7
  6
CONTINUOUS
 10
60.264327375
 20
321.0139176275
  0
VERTEX
  8
0
 62
7
  6
CONTINUOUS
 10
69.881603352
 20
320.9422226988
  0
VERTEX
  8
0
 62
7
  6
CONTINUOUS
 10
79.4959315769
 20
320.8762421901
  0
VERTEX
  8
0
 62
7
  6
CONTINUOUS
 10
89.1086336013
 20
320.8159627669
  0
VERTEX
  8
0
 62
7
  6
CONTINUOUS
 10
98.719779252
 20
320.7613824304
  0
VERTEX
  8
0
 62
7
  6
CONTINUOUS
 10
108.3296126408
 20
320.7124991334
  0
VERTEX
  8
0
 62
7
  6
CONTINUOUS
 10
117.9382819957
 20
320.6693106245
  0
VERTEX
  8
0
 62
7
  6
CONTINUOUS
 10
127.5461447949
 20
320.6318155171
  0
VERTEX
  8
0
 62
7
  6
CONTINUOUS
 10
137.153469679
 20
320.6000116733
  0
VERTEX
  8
0
 62
7
  6
CONTINUOUS
 10
146.7606713881
 20
320.5738990963
  0
VERTEX
  8
0
 62
7
  6
CONTINUOUS
 10
156.3681348431
 20
320.5534765114
  0
VERTEX
  8
0
 62
7
  6
CONTINUOUS
 10
165.9762181409
 20
320.5387456145
  0
VERTEX
  8
0
 62
7
  6
CONTINUOUS
 10
175.5852815824
 20
320.5297066548
  0
VERTEX
  8
0
 62
7
  6
CONTINUOUS
 10
185.1957034763
 20
320.5263626982
  0
VERTEX
  8
0
 62
7
  6
CONTINUOUS
 10
194.8078707013
 20
320.5287154229
  0
VERTEX
  8
0
 62
7
  6
CONTINUOUS
 10
204.422117848
 20
320.5367692421
  0
VERTEX
  8
0
 62
7
  6
CONTINUOUS
 10
214.0387532139
 20
320.5505270889
  0
VERTEX
  8
0
 62
7
  6
CONTINUOUS
 10
223.6582425567
 20
320.5699950815
  0
VERTEX
  8
0
 62
7
  6
CONTINUOUS
 10
233.2814725797
 20
320.595179846
  0
VERTEX
  8
0
 62
7
  6
CONTINUOUS
 10
242.9074887444
 20
320.6260827918
  0
VERTEX
  8
0
 62
7
  6
CONTINUOUS
 10
252.5356290819
 20
320.6627069639
  0
VERTEX
  8
0
 62
7
  6
CONTINUOUS
 10
262.1659025865
 20
320.7050540819
  0
VERTEX
  8
0
 62
7
  6
CONTINUOUS
 10
271.7916595971
 20
320.7530808115
  0
VERTEX
  8
0
 62
7
  6
CONTINUOUS
 10
281.4322141112
 20
320.8069253597
  0
VERTEX
  8
0
 62
7
  6
CONTINUOUS
 10
291.0919970232
 20
320.8665804828
  0
VERTEX
  8
0
 62
7
  6
CONTINUOUS
 10
300.8090079818
 20
320.9324391981
  0
VERTEX
  8
0
 62
7
  6
CONTINUOUS
 10
310.6254271889
 20
321.0048416204
  0
VERTEX
  8
0
 62
7
  6
CONTINUOUS
 10
320.5331438788
 20
321.0839392128
  0
VERTEX
  8
0
 62
7
  6
CONTINUOUS
 10
330.5388510157
 20
321.1700299145
  0
VERTEX
  8
0
 62
7
  6
CONTINUOUS
 10
340.6403176116
 20
321.2630144125
  0
SEQEND
  0
LINE
  8
0
 62
7
  6
CONTINUOUS
 10
350.3766231989
 20
306.6580682711
 11
350.914299769
 21
306.6513915431
  0
LINE
  8
0
 62
7
  6
CONTINUOUS
 10
350.914299769
 20
306.6513915431
 11
351.4415938863
 21
306.6423973815
  0
LINE
  8
0
 62
7
  6
CONTINUOUS
 10
351.4415938863
 20
306.6423973815
 11
351.9541527421
 21
306.6311600346
  0
LINE
  8
0
 62
7
  6
CONTINUOUS
 10
351.9541527421
 20
306.6311600346
 11
352.4477451868
 21
306.6177722654
  0
LINE
  8
0
 62
7
  6
CONTINUOUS
 10
352.4477451868
 20
306.6177722654
 11
352.9182961668
 21
306.6023446025
  0
LINE
  8
0
 62
7
  6
CONTINUOUS
 10
352.9182961668
 20
306.6023446025
 11
353.3619214455
 21
306.5850043969
  0
POLYLINE
  8
0
 62
7
  6
CONTINUOUS
 66
1
 70
0
  0
VERTEX
  8
0
 62
7
  6
CONTINUOUS
 10
353.3619214455
 20
306.5850043969
  0
VERTEX
  8
0
 62
7
  6
CONTINUOUS
 10
353.7749586626
 20
306.5658948002
  0
VERTEX
  8
0
 62
7
  6
CONTINUOUS
 10
353.968930564
 20
306.5557252426
  0
VERTEX
  8
0
 62
7
  6
CONTINUOUS
 10
354.1539981017
 20
306.5451735666
  0
VERTEX
  8
0
 62
7
  6
CONTINUOUS
 10
354.3297791342
 20
306.5342615602
  0
VERTEX
  8
0
 62
7
  6
CONTINUOUS
 10
354.4959106911
 20
306.5230117555
  0
VERTEX
  8
0
 62
7
  6
CONTINUOUS
 10
354.6520497217
 20
306.5114473827
  0
VERTEX
  8
0
 62
7
  6
CONTINUOUS
 10
354.7978738365
 20
306.4995923195
  0
VERTEX
  8
0
 62
7
  6
CONTINUOUS
 10
354.9330819511
 20
306.4874710427
  0
VERTEX
  8
0
 62
7
  6
CONTINUOUS
 10
355.0573948296
 20
306.475108585
  0
VERTEX
  8
0
 62
7
  6
CONTINUOUS
 10
355.1705557407
 20
306.4625304785
  0
VERTEX
  8
0
 62
7
  6
CONTINUOUS
 10
355.2723310741
 20
306.4497626905
  0
VERTEX
  8
0
 62
7
  6
CONTINUOUS
 10
355.3625107073
 20
306.4368315803
  0
VERTEX
  8
0
 62
7
  6
CONTINUOUS
 10
355.4409084003
 20
306.4237638525
  0
VERTEX
  8
0
 62
7
  6
CONTINUOUS
 10
355.5073622708
 20
306.4105864899
  0
VERTEX
  8
0
 62
7
  6
CONTINUOUS
 10
355.5617350709
 20
306.397326709
  0
VERTEX
  8
0
 62
7
  6
CONTINUOUS
 10
355.6039145221
 20
306.3840118974
  0
VERTEX
  8
0
 62
7
  6
CONTINUOUS
 10
355.6338135696
 20
306.3706695461
  0
SEQEND
  0
POLYLINE
  8
0
 62
7
  6
CONTINUOUS
 66
1
 70
0
  0
VERTEX
  8
0
 62
7
  6
CONTINUOUS
 10
355.6338136453
 20
306.3706695035
  0
VERTEX
  8
0
 62
7
  6
CONTINUOUS
 10
355.624034923
 20
306.9054195136
  0
VERTEX
  8
0
 62
7
  6
CONTINUOUS
 10
355.595190722
 20
307.4390966945
  0
VERTEX
  8
0
 62
7
  6
CONTINUOUS
 10
355.5473433873
 20
307.9710290821
  0
VERTEX
  8
0
 62
7
  6
CONTINUOUS
 10
355.4805707683
 20
308.5005623537
  0
VERTEX
  8
0
 62
7
  6
CONTINUOUS
 10
355.3949739291
 20
309.0270431683
  0
VERTEX
  8
0
 62
7
  6
CONTINUOUS
 10
355.2906776413
 20
309.5498186728
  0
VERTEX
  8
0
 62
7
  6
CONTINUOUS
 10
355.1678285509
 20
310.0682397028
  0
VERTEX
  8
0
 62
7
  6
CONTINUOUS
 10
355.0265940771
 20
310.5816727318
  0
VERTEX
  8
0
 62
7
  6
CONTINUOUS
 10
354.8671633562
 20
311.0894851211
  0
VERTEX
  8
0
 62
7
  6
CONTINUOUS
 10
354.6897435762
 20
311.5910633399
  0
VERTEX
  8
0
 62
7
  6
CONTINUOUS
 10
354.494561886
 20
312.0857977641
  0
VERTEX
  8
0
 62
7
  6
CONTINUOUS
 10
354.2818656737
 20
312.5730882394
  0
VERTEX
  8
0
 62
7
  6
CONTINUOUS
 10
354.0519204245
 20
313.052343643
  0
VERTEX
  8
0
 62
7
  6
CONTINUOUS
 10
353.8050138928
 20
313.5229780661
  0
VERTEX
  8
0
 62
7
  6
CONTINUOUS
 10
353.5414516953
 20
313.9844161938
  0
VERTEX
  8
0
 62
7
  6
CONTINUOUS
 10
353.2615592984
 20
314.4360935611
  0
VERTEX
  8
0
 62
7
  6
CONTINUOUS
 10
352.9656801627
 20
314.8774559179
  0
VERTEX
  8
0
 62
7
  6
CONTINUOUS
 10
352.6541758714
 20
315.3079625539
  0
VERTEX
  8
0
 62
7
  6
CONTINUOUS
 10
352.3274251212
 20
315.7270840863
  0
VERTEX
  8
0
 62
7
  6
CONTINUOUS
 10
351.9858253643
 20
316.1343036919
  0
VERTEX
  8
0
 62
7
  6
CONTINUOUS
 10
351.6297898756
 20
316.5291177765
  0
VERTEX
  8
0
 62
7
  6
CONTINUOUS
 10
351.2597511377
 20
316.9110352045
  0
VERTEX
  8
0
 62
7
  6
CONTINUOUS
 10
350.8761565463
 20
317.2795794539
  0
VERTEX
  8
0
 62
7
  6
CONTINUOUS
 10
350.4794719135
 20
317.6342879169
  0
VERTEX
  8
0
 62
7
  6
CONTINUOUS
 10
350.0701772999
 20
317.9747135352
  0
VERTEX
  8
0
 62
7
  6
CONTINUOUS
 10
349.6487700582
 20
318.3004247269
  0
VERTEX
  8
0
 62
7
  6
CONTINUOUS
 10
349.2157607381
 20
318.6110065636
  0
VERTEX
  8
0
 62
7
  6
CONTINUOUS
 10
348.7716772823
 20
318.9060600901
  0
VERTEX
  8
0
 62
7
  6
CONTINUOUS
 10
348.317059446
 20
319.1852043617
  0
VERTEX
  8
0
 62
7
  6
CONTINUOUS
 10
347.8524643464
 20
319.4480751891
  0
VERTEX
  8
0
 62
7
  6
CONTINUOUS
 10
347.3784597192
 20
319.6943275586
  0
VERTEX
  8
0
 62
7
  6
CONTINUOUS
 10
346.8956295802
 20
319.9236346666
  0
VERTEX
  8
0
 62
7
  6
CONTINUOUS
 10
346.4045679406
 20
320.1356896497
  0
VERTEX
  8
0
 62
7
  6
CONTINUOUS
 10
345.9058820322
 20
320.3302059746
  0
VERTEX
  8
0
 62
7
  6
CONTINUOUS
 10
345.4001880004
 20
320.5069177285
  0
VERTEX
  8
0
 62
7
  6
CONTINUOUS
 10
344.8881149513
 20
320.6655799818
  0
VERTEX
  8
0
 62
7
  6
CONTINUOUS
 10
344.3702983744
 20
320.8059696292
  0
VERTEX
  8
0
 62
7
  6
CONTINUOUS
 10
343.8473890847
 20
320.9278845763
  0
VERTEX
  8
0
 62
7
  6
CONTINUOUS
 10
343.3200416567
 20
321.0311458323
  0
VERTEX
  8
0
 62
7
  6
CONTINUOUS
 10
342.788925846
 20
321.1155969258
  0
VERTEX
  8
0
 62
7
  6
CONTINUOUS
 10
342.2547159767
 20
321.1811051978
  0
VERTEX
  8
0
 62
7
  6
CONTINUOUS
 10
341.7180892734
 20
321.227562803
  0
VERTEX
  8
0
 62
7
  6
CONTINUOUS
 10
341.1797311644
 20
321.2548885173
  0
VERTEX
  8
0
 62
7
  6
CONTINUOUS
 10
340.640317229
 20
321.2630140299
  0
SEQEND
  0
POLYLINE
  8
0
 62
7
  6
CONTINUOUS
 66
1
 70
0
  0
VERTEX
  8
0
 62
7
  6
CONTINUOUS
 10
363.3235323186
 20
311.5699014315
  0
VERTEX
  8
0
 62
7
  6
CONTINUOUS
 10
363.3126338912
 20
312.1793215247
  0
VERTEX
  8
0
 62
7
  6
CONTINUOUS
 10
363.2817011379
 20
312.781132
  0
VERTEX
  8
0
 62
7
  6
CONTINUOUS
 10
363.2307226071
 20
313.3740446376
  0
VERTEX
  8
0
 62
7
  6
CONTINUOUS
 10
363.1597326542
 20
313.961924097
  0
VERTEX
  8
0
 62
7
  6
CONTINUOUS
 10
363.0686792817
 20
314.5491552531
  0
VERTEX
  8
0
 62
7
  6
CONTINUOUS
 10
362.9578100971
 20
315.1328892385
  0
VERTEX
  8
0
 62
7
  6
CONTINUOUS
 10
362.8272827044
 20
315.7119080957
  0
VERTEX
  8
0
 62
7
  6
CONTINUOUS
 10
362.677315116
 20
316.2857039706
  0
VERTEX
  8
0
 62
7
  6
CONTINUOUS
 10
362.508110967
 20
316.8535195873
  0
VERTEX
  8
0
 62
7
  6
CONTINUOUS
 10
362.319870994
 20
317.4148852542
  0
VERTEX
  8
0
 62
7
  6
CONTINUOUS
 10
362.1127846267
 20
317.9692618249
  0
VERTEX
  8
0
 62
7
  6
CONTINUOUS
 10
361.8870894217
 20
318.5161003873
  0
VERTEX
  8
0
 62
7
  6
CONTINUOUS
 10
361.6429742396
 20
319.0548928946
  0
VERTEX
  8
0
 62
7
  6
CONTINUOUS
 10
361.3807745974
 20
319.5849776051
  0
VERTEX
  8
0
 62
7
  6
CONTINUOUS
 10
361.1007652739
 20
320.1057218913
  0
VERTEX
  8
0
 62
7
  6
CONTINUOUS
 10
360.8033173435
 20
320.6165303637
  0
VERTEX
  8
0
 62
7
  6
CONTINUOUS
 10
360.488769291
 20
321.1167676
  0
VERTEX
  8
0
 62
7
  6
CONTINUOUS
 10
360.1574936647
 20
321.605921071
  0
VERTEX
  8
0
 62
7
  6
CONTINUOUS
 10
359.8098408278
 20
322.0834326188
  0
VERTEX
  8
0
 62
7
  6
CONTINUOUS
 10
359.4462158217
 20
322.5488037064
  0
VERTEX
  8
0
 62
7
  6
CONTINUOUS
 10
359.0669883006
 20
323.0015151672
  0
VERTEX
  8
0
 62
7
  6
CONTINUOUS
 10
358.6726147891
 20
323.4410707321
  0
VERTEX
  8
0
 62
7
  6
CONTINUOUS
 10
358.2635136668
 20
323.8669540128
  0
VERTEX
  8
0
 62
7
  6
CONTINUOUS
 10
357.8401690229
 20
324.2787061995
  0
VERTEX
  8
0
 62
7
  6
CONTINUOUS
 10
357.4030409265
 20
324.6758328716
  0
VERTEX
  8
0
 62
7
  6
CONTINUOUS
 10
356.9526198178
 20
325.0579244729
  0
VERTEX
  8
0
 62
7
  6
CONTINUOUS
 10
356.489373894
 20
325.4245367399
  0
VERTEX
  8
0
 62
7
  6
CONTINUOUS
 10
356.0138299539
 20
325.7752793743
  0
VERTEX
  8
0
 62
7
  6
CONTINUOUS
 10
355.5264684036
 20
326.1097429156
  0
VERTEX
  8
0
 62
7
  6
CONTINUOUS
 10
355.0278966192
 20
326.427540586
  0
VERTEX
  8
0
 62
7
  6
CONTINUOUS
 10
354.518678466
 20
326.7282570348
  0
VERTEX
  8
0
 62
7
  6
CONTINUOUS
 10
353.9994248825
 20
327.0115685207
  0
VERTEX
  8
0
 62
7
  6
CONTINUOUS
 10
353.4707579531
 20
327.2770934841
  0
VERTEX
  8
0
 62
7
  6
CONTINUOUS
 10
352.9332081049
 20
327.5245900288
  0
VERTEX
  8
0
 62
7
  6
CONTINUOUS
 10
352.3873814804
 20
327.753750656
  0
VERTEX
  8
0
 62
7
  6
CONTINUOUS
 10
351.8336730184
 20
327.9643906133
  0
VERTEX
  8
0
 62
7
  6
CONTINUOUS
 10
351.2722743953
 20
328.1563512539
  0
VERTEX
  8
0
 62
7
  6
CONTINUOUS
 10
350.7044015421
 20
328.3292467628
  0
VERTEX
  8
0
 62
7
  6
CONTINUOUS
 10
350.1326571282
 20
328.4824442368
  0
VERTEX
  8
0
 62
7
  6
CONTINUOUS
 10
349.5530726159
 20
328.6165262936
  0
VERTEX
  8
0
 62
7
  6
CONTINUOUS
 10
348.9618447462
 20
328.7322746655
  0
VERTEX
  8
0
 62
7
  6
CONTINUOUS
 10
348.3610803523
 20
328.8284591049
  0
VERTEX
  8
0
 62
7
  6
CONTINUOUS
 10
347.7504786589
 20
328.9043338491
  0
VERTEX
  8
0
 62
7
  6
CONTINUOUS
 10
347.1334592323
 20
328.959227176
  0
VERTEX
  8
0
 62
7
  6
CONTINUOUS
 10
346.5137562934
 20
328.9921037369
  0
VERTEX
  8
0
 62
7
  6
CONTINUOUS
 10
345.890125102
 20
329.0033086481
  0
SEQEND
  0
POLYLINE
  8
0
 62
7
  6
CONTINUOUS
 66
1
 70
0
  0
VERTEX
  8
0
 62
7
  6
CONTINUOUS
 10
360.8330455734
 20
311.5699014315
  0
VERTEX
  8
0
 62
7
  6
CONTINUOUS
 10
360.8246336515
 20
312.0926223835
  0
VERTEX
  8
0
 62
7
  6
CONTINUOUS
 10
360.7984497065
 20
312.6093584802
  0
VERTEX
  8
0
 62
7
  6
CONTINUOUS
 10
360.7552036869
 20
313.1181454339
  0
VERTEX
  8
0
 62
7
  6
CONTINUOUS
 10
360.6950456065
 20
313.6226063241
  0
VERTEX
  8
0
 62
7
  6
CONTINUOUS
 10
360.6175574608
 20
314.1264855487
  0
VERTEX
  8
0
 62
7
  6
CONTINUOUS
 10
360.5230127753
 20
314.6273343705
  0
VERTEX
  8
0
 62
7
  6
CONTINUOUS
 10
360.411623583
 20
315.1241220924
  0
VERTEX
  8
0
 62
7
  6
CONTINUOUS
 10
360.2835279739
 20
315.616400754
  0
VERTEX
  8
0
 62
7
  6
CONTINUOUS
 10
360.138927826
 20
316.1035306478
  0
VERTEX
  8
0
 62
7
  6
CONTINUOUS
 10
359.9779784438
 20
316.585101571
  0
VERTEX
  8
0
 62
7
  6
CONTINUOUS
 10
359.8008531973
 20
317.0606570537
  0
VERTEX
  8
0
 62
7
  6
CONTINUOUS
 10
359.6077426996
 20
317.5297201458
  0
VERTEX
  8
0
 62
7
  6
CONTINUOUS
 10
359.3988256796
 20
317.9918631459
  0
VERTEX
  8
0
 62
7
  6
CONTINUOUS
 10
359.1743644327
 20
318.4465064864
  0
VERTEX
  8
0
 62
7
  6
CONTINUOUS
 10
358.9346228501
 20
318.8931221797
  0
VERTEX
  8
0
 62
7
  6
CONTINUOUS
 10
358.6798901239
 20
319.3311836168
  0
VERTEX
  8
0
 62
7
  6
CONTINUOUS
 10
358.4104827817
 20
319.760162031
  0
VERTEX
  8
0
 62
7
  6
CONTINUOUS
 10
358.1266969853
 20
320.1796028092
  0
VERTEX
  8
0
 62
7
  6
CONTINUOUS
 10
357.8288535109
 20
320.5890419974
  0
VERTEX
  8
0
 62
7
  6
CONTINUOUS
 10
357.5172796963
 20
320.9880373589
  0
VERTEX
  8
0
 62
7
  6
CONTINUOUS
 10
357.1923118861
 20
321.3761594026
  0
VERTEX
  8
0
 62
7
  6
CONTINUOUS
 10
356.8543208979
 20
321.7529654675
  0
VERTEX
  8
0
 62
7
  6
CONTINUOUS
 10
356.5036858172
 20
322.1180312168
  0
VERTEX
  8
0
 62
7
  6
CONTINUOUS
 10
356.1408015446
 20
322.4709443145
  0
VERTEX
  8
0
 62
7
  6
CONTINUOUS
 10
355.7660813761
 20
322.8113000687
  0
VERTEX
  8
0
 62
7
  6
CONTINUOUS
 10
355.3799284129
 20
323.1387290215
  0
VERTEX
  8
0
 62
7
  6
CONTINUOUS
 10
354.982760428
 20
323.4528689479
  0
VERTEX
  8
0
 62
7
  6
CONTINUOUS
 10
354.5750129058
 20
323.7533661703
  0
VERTEX
  8
0
 62
7
  6
CONTINUOUS
 10
354.1571144888
 20
324.0398912973
  0
VERTEX
  8
0
 62
7
  6
CONTINUOUS
 10
353.7295678322
 20
324.3120878508
  0
VERTEX
  8
0
 62
7
  6
CONTINUOUS
 10
353.2928746486
 20
324.5696271811
  0
VERTEX
  8
0
 62
7
  6
CONTINUOUS
 10
352.8475419724
 20
324.8122045665
  0
VERTEX
  8
0
 62
7
  6
CONTINUOUS
 10
352.3941177743
 20
325.0395182642
  0
VERTEX
  8
0
 62
7
  6
CONTINUOUS
 10
351.9330460973
 20
325.2513415075
  0
VERTEX
  8
0
 62
7
  6
CONTINUOUS
 10
351.464854144
 20
325.4474231024
  0
VERTEX
  8
0
 62
7
  6
CONTINUOUS
 10
350.9898769312
 20
325.627602917
  0
VERTEX
  8
0
 62
7
  6
CONTINUOUS
 10
350.5082873192
 20
325.7917633965
  0
VERTEX
  8
0
 62
7
  6
CONTINUOUS
 10
350.0211066915
 20
325.9395134984
  0
VERTEX
  8
0
 62
7
  6
CONTINUOUS
 10
349.5305655259
 20
326.0702533403
  0
VERTEX
  8
0
 62
7
  6
CONTINUOUS
 10
349.033322763
 20
326.184822536
  0
VERTEX
  8
0
 62
7
  6
CONTINUOUS
 10
348.5260583618
 20
326.2835282036
  0
VERTEX
  8
0
 62
7
  6
CONTINUOUS
 10
348.010559604
 20
326.3654237197
  0
VERTEX
  8
0
 62
7
  6
CONTINUOUS
 10
347.4866295607
 20
326.4299698535
  0
VERTEX
  8
0
 62
7
  6
CONTINUOUS
 10
346.9571316407
 20
326.4763293657
  0
VERTEX
  8
0
 62
7
  6
CONTINUOUS
 10
346.4250030147
 20
326.5040002014
  0
VERTEX
  8
0
 62
7
  6
CONTINUOUS
 10
345.890125102
 20
326.5128219029
  0
SEQEND
  0
LINE
  8
0
 62
7
  6
CONTINUOUS
 10
360.8330455734
 20
-8.1449400054
 11
360.8330455734
 21
311.5699014315
  0
LINE
  8
0
 62
7
  6
CONTINUOUS
 10
363.3235323186
 20
-8.1449400054
 11
363.3235323186
 21
311.5699014315
  0
LINE
  8
0
 62
7
  6
CONTINUOUS
 10
363.5327043836
 20
316.7124807131
 11
363.5327043836
 21
-13.2875192869
  0
LINE
  8
0
 62
7
  6
CONTINUOUS
 10
366.0327043836
 20
316.7124807131
 11
366.0327043836
 21
-13.2875192869
  0
POLYLINE
  8
0
 62
7
  6
CONTINUOUS
 66
1
 70
0
  0
VERTEX
  8
0
 62
7
  6
CONTINUOUS
 10
26.1752836651
 20
329.0033086481
  0
VERTEX
  8
0
 62
7
  6
CONTINUOUS
 10
25.565863572
 20
328.9924102207
  0
VERTEX
  8
0
 62
7
  6
CONTINUOUS
 10
24.9640530967
 20
328.9614774674
  0
VERTEX
  8
0
 62
7
  6
CONTINUOUS
 10
24.371140459
 20
328.9104989366
  0
VERTEX
  8
0
 62
7
  6
CONTINUOUS
 10
23.7832609997
 20
328.8395089837
  0
VERTEX
  8
0
 62
7
  6
CONTINUOUS
 10
23.1960298436
 20
328.7484556112
  0
VERTEX
  8
0
 62
7
  6
CONTINUOUS
 10
22.6122958581
 20
328.6375864266
  0
VERTEX
  8
0
 62
7
  6
CONTINUOUS
 10
22.033277001
 20
328.5070590339
  0
VERTEX
  8
0
 62
7
  6
CONTINUOUS
 10
21.4594811261
 20
328.3570914455
  0
VERTEX
  8
0
 62
7
  6
CONTINUOUS
 10
20.8916655093
 20
328.1878872965
  0
VERTEX
  8
0
 62
7
  6
CONTINUOUS
 10
20.3302998425
 20
327.9996473235
  0
VERTEX
  8
0
 62
7
  6
CONTINUOUS
 10
19.7759232718
 20
327.7925609562
  0
VERTEX
  8
0
 62
7
  6
CONTINUOUS
 10
19.2290847094
 20
327.5668657512
  0
VERTEX
  8
0
 62
7
  6
CONTINUOUS
 10
18.690292202
 20
327.3227505691
  0
VERTEX
  8
0
 62
7
  6
CONTINUOUS
 10
18.1602074915
 20
327.0605509269
  0
VERTEX
  8
0
 62
7
  6
CONTINUOUS
 10
17.6394632054
 20
326.7805416034
  0
VERTEX
  8
0
 62
7
  6
CONTINUOUS
 10
17.128654733
 20
326.4830936731
  0
VERTEX
  8
0
 62
7
  6
CONTINUOUS
 10
16.6284174966
 20
326.1685456205
  0
VERTEX
  8
0
 62
7
  6
CONTINUOUS
 10
16.1392640256
 20
325.8372699942
  0
VERTEX
  8
0
 62
7
  6
CONTINUOUS
 10
15.6617524778
 20
325.4896171573
  0
VERTEX
  8
0
 62
7
  6
CONTINUOUS
 10
15.1963813902
 20
325.1259921512
  0
VERTEX
  8
0
 62
7
  6
CONTINUOUS
 10
14.7436699294
 20
324.7467646301
  0
VERTEX
  8
0
 62
7
  6
CONTINUOUS
 10
14.3041143646
 20
324.3523911186
  0
VERTEX
  8
0
 62
7
  6
CONTINUOUS
 10
13.8782310838
 20
323.9432899963
  0
VERTEX
  8
0
 62
7
  6
CONTINUOUS
 10
13.4664788971
 20
323.5199453524
  0
VERTEX
  8
0
 62
7
  6
CONTINUOUS
 10
13.0693522251
 20
323.082817256
  0
VERTEX
  8
0
 62
7
  6
CONTINUOUS
 10
12.6872606238
 20
322.6323961473
  0
VERTEX
  8
0
 62
7
  6
CONTINUOUS
 10
12.3206483567
 20
322.1691502235
  0
VERTEX
  8
0
 62
7
  6
CONTINUOUS
 10
11.9699057224
 20
321.6936062834
  0
VERTEX
  8
0
 62
7
  6
CONTINUOUS
 10
11.6354421811
 20
321.2062447332
  0
VERTEX
  8
0
 62
7
  6
CONTINUOUS
 10
11.3176445107
 20
320.7076729488
  0
VERTEX
  8
0
 62
7
  6
CONTINUOUS
 10
11.0169280619
 20
320.1984547956
  0
VERTEX
  8
0
 62
7
  6
CONTINUOUS
 10
10.733616576
 20
319.679201212
  0
VERTEX
  8
0
 62
7
  6
CONTINUOUS
 10
10.4680916126
 20
319.1505342826
  0
VERTEX
  8
0
 62
7
  6
CONTINUOUS
 10
10.2205950679
 20
318.6129844345
  0
VERTEX
  8
0
 62
7
  6
CONTINUOUS
 10
9.9914344407
 20
318.0671578099
  0
VERTEX
  8
0
 62
7
  6
CONTINUOUS
 10
9.7807944833
 20
317.5134493479
  0
VERTEX
  8
0
 62
7
  6
CONTINUOUS
 10
9.5888338428
 20
316.9520507248
  0
VERTEX
  8
0
 62
7
  6
CONTINUOUS
 10
9.4159383339
 20
316.3841778717
  0
VERTEX
  8
0
 62
7
  6
CONTINUOUS
 10
9.2627408599
 20
315.8124334577
  0
VERTEX
  8
0
 62
7
  6
CONTINUOUS
 10
9.1286588031
 20
315.2328489454
  0
VERTEX
  8
0
 62
7
  6
CONTINUOUS
 10
9.0129104312
 20
314.6416210757
  0
VERTEX
  8
0
 62
7
  6
CONTINUOUS
 10
8.9167259918
 20
314.0408566818
  0
VERTEX
  8
0
 62
7
  6
CONTINUOUS
 10
8.8408512475
 20
313.4302549885
  0
VERTEX
  8
0
 62
7
  6
CONTINUOUS
 10
8.7859579207
 20
312.8132355618
  0
VERTEX
  8
0
 62
7
  6
CONTINUOUS
 10
8.7530813597
 20
312.1935326229
  0
VERTEX
  8
0
 62
7
  6
CONTINUOUS
 10
8.7418764485
 20
311.5699014315
  0
SEQEND
  0
POLYLINE
  8
0
 62
7
  6
CONTINUOUS
 66
1
 70
0
  0
VERTEX
  8
0
 62
7
  6
CONTINUOUS
 10
26.1752836651
 20
326.5128219029
  0
VERTEX
  8
0
 62
7
  6
CONTINUOUS
 10
25.6525627131
 20
326.504409981
  0
VERTEX
  8
0
 62
7
  6
CONTINUOUS
 10
25.1358266165
 20
326.478226036
  0
VERTEX
  8
0
 62
7
  6
CONTINUOUS
 10
24.6270396628
 20
326.4349800164
  0
VERTEX
  8
0
 62
7
  6
CONTINUOUS
 10
24.1225787726
 20
326.374821936
  0
VERTEX
  8
0
 62
7
  6
CONTINUOUS
 10
23.6186995479
 20
326.2973337903
  0
VERTEX
  8
0
 62
7
  6
CONTINUOUS
 10
23.1178507262
 20
326.2027891048
  0
VERTEX
  8
0
 62
7
  6
CONTINUOUS
 10
22.6210630042
 20
326.0913999125
  0
VERTEX
  8
0
 62
7
  6
CONTINUOUS
 10
22.1287843427
 20
325.9633043034
  0
VERTEX
  8
0
 62
7
  6
CONTINUOUS
 10
21.6416544488
 20
325.8187041555
  0
VERTEX
  8
0
 62
7
  6
CONTINUOUS
 10
21.1600835257
 20
325.6577547733
  0
VERTEX
  8
0
 62
7
  6
CONTINUOUS
 10
20.6845280429
 20
325.4806295268
  0
VERTEX
  8
0
 62
7
  6
CONTINUOUS
 10
20.2154649509
 20
325.2875190291
  0
VERTEX
  8
0
 62
7
  6
CONTINUOUS
 10
19.7533219507
 20
325.0786020091
  0
VERTEX
  8
0
 62
7
  6
CONTINUOUS
 10
19.2986786102
 20
324.8541407622
  0
VERTEX
  8
0
 62
7
  6
CONTINUOUS
 10
18.852062917
 20
324.6143991796
  0
VERTEX
  8
0
 62
7
  6
CONTINUOUS
 10
18.4140014799
 20
324.3596664534
  0
VERTEX
  8
0
 62
7
  6
CONTINUOUS
 10
17.9850230656
 20
324.0902591112
  0
VERTEX
  8
0
 62
7
  6
CONTINUOUS
 10
17.5655822874
 20
323.8064733149
  0
VERTEX
  8
0
 62
7
  6
CONTINUOUS
 10
17.1561430993
 20
323.5086298404
  0
VERTEX
  8
0
 62
7
  6
CONTINUOUS
 10
16.7571477377
 20
323.1970560259
  0
VERTEX
  8
0
 62
7
  6
CONTINUOUS
 10
16.3690256941
 20
322.8720882156
  0
VERTEX
  8
0
 62
7
  6
CONTINUOUS
 10
15.9922196292
 20
322.5340972274
  0
VERTEX
  8
0
 62
7
  6
CONTINUOUS
 10
15.6271538798
 20
322.1834621467
  0
VERTEX
  8
0
 62
7
  6
CONTINUOUS
 10
15.2742407821
 20
321.8205778741
  0
VERTEX
  8
0
 62
7
  6
CONTINUOUS
 10
14.933885028
 20
321.4458577056
  0
VERTEX
  8
0
 62
7
  6
CONTINUOUS
 10
14.6064560752
 20
321.0597047424
  0
VERTEX
  8
0
 62
7
  6
CONTINUOUS
 10
14.2923161487
 20
320.6625367576
  0
VERTEX
  8
0
 62
7
  6
CONTINUOUS
 10
13.9918189264
 20
320.2547892353
  0
VERTEX
  8
0
 62
7
  6
CONTINUOUS
 10
13.7052937994
 20
319.8368908183
  0
VERTEX
  8
0
 62
7
  6
CONTINUOUS
 10
13.4330972459
 20
319.4093441618
  0
VERTEX
  8
0
 62
7
  6
CONTINUOUS
 10
13.1755579155
 20
318.9726509781
  0
VERTEX
  8
0
 62
7
  6
CONTINUOUS
 10
12.9329805302
 20
318.5273183019
  0
VERTEX
  8
0
 62
7
  6
CONTINUOUS
 10
12.7056668324
 20
318.0738941038
  0
VERTEX
  8
0
 62
7
  6
CONTINUOUS
 10
12.4938435891
 20
317.6128224268
  0
VERTEX
  8
0
 62
7
  6
CONTINUOUS
 10
12.2977619943
 20
317.1446304735
  0
VERTEX
  8
0
 62
7
  6
CONTINUOUS
 10
12.1175821797
 20
316.6696532607
  0
VERTEX
  8
0
 62
7
  6
CONTINUOUS
 10
11.9534217002
 20
316.1880636487
  0
VERTEX
  8
0
 62
7
  6
CONTINUOUS
 10
11.8056715983
 20
315.700883021
  0
VERTEX
  8
0
 62
7
  6
CONTINUOUS
 10
11.6749317564
 20
315.2103418554
  0
VERTEX
  8
0
 62
7
  6
CONTINUOUS
 10
11.5603625607
 20
314.7130990925
  0
VERTEX
  8
0
 62
7
  6
CONTINUOUS
 10
11.4616568931
 20
314.2058346914
  0
VERTEX
  8
0
 62
7
  6
CONTINUOUS
 10
11.379761377
 20
313.6903359335
  0
VERTEX
  8
0
 62
7
  6
CONTINUOUS
 10
11.3152152431
 20
313.1664058902
  0
VERTEX
  8
0
 62
7
  6
CONTINUOUS
 10
11.2688557309
 20
312.6369079702
  0
VERTEX
  8
0
 62
7
  6
CONTINUOUS
 10
11.2411848952
 20
312.1047793443
  0
VERTEX
  8
0
 62
7
  6
CONTINUOUS
 10
11.2323631938
 20
311.5699014315
  0
SEQEND
  0
LINE
  8
0
 62
7
  6
CONTINUOUS
 10
345.890125102
 20
326.5128219029
 11
26.1752836651
 21
326.5128219029
  0
LINE
  8
0
 62
7
  6
CONTINUOUS
 10
345.890125102
 20
329.0033086481
 11
26.1752836651
 21
329.0033086481
  0
LINE
  8
0
 62
7
  6
CONTINUOUS
 10
21.0327043836
 20
329.2124807131
 11
351.0327043836
 21
329.2124807131
  0
LINE
  8
0
 62
7
  6
CONTINUOUS
 10
21.0327043836
 20
331.7124807131
 11
351.0327043836
 21
331.7124807131
  0
POLYLINE
  8
0
 62
7
  6
CONTINUOUS
 66
1
 70
0
  0
VERTEX
  8
0
 62
7
  6
CONTINUOUS
 10
355.6338136453
 20
-2.9457080773
  0
VERTEX
  8
0
 62
7
  6
CONTINUOUS
 10
355.6039145289
 20
-2.9590504541
  0
VERTEX
  8
0
 62
7
  6
CONTINUOUS
 10
355.5617350006
 20
-2.9723652804
  0
VERTEX
  8
0
 62
7
  6
CONTINUOUS
 10
355.5073621568
 20
-2.9856250627
  0
VERTEX
  8
0
 62
7
  6
CONTINUOUS
 10
355.4409082691
 20
-2.9988024213
  0
VERTEX
  8
0
 62
7
  6
CONTINUOUS
 10
355.3625105494
 20
-3.0118701476
  0
VERTEX
  8
0
 62
7
  6
CONTINUOUS
 10
355.2723308918
 20
-3.0248012562
  0
VERTEX
  8
0
 62
7
  6
CONTINUOUS
 10
355.1705555366
 20
-3.0375690427
  0
VERTEX
  8
0
 62
7
  6
CONTINUOUS
 10
355.0573946061
 20
-3.0501471477
  0
VERTEX
  8
0
 62
7
  6
CONTINUOUS
 10
354.9330817107
 20
-3.0625096038
  0
VERTEX
  8
0
 62
7
  6
CONTINUOUS
 10
354.7978735818
 20
-3.074630879
  0
VERTEX
  8
0
 62
7
  6
CONTINUOUS
 10
354.6520494552
 20
-3.0864859405
  0
VERTEX
  8
0
 62
7
  6
CONTINUOUS
 10
354.4959104151
 20
-3.0980503116
  0
VERTEX
  8
0
 62
7
  6
CONTINUOUS
 10
354.3297788513
 20
-3.1093001147
  0
VERTEX
  8
0
 62
7
  6
CONTINUOUS
 10
354.1539978141
 20
-3.1202121195
  0
VERTEX
  8
0
 62
7
  6
CONTINUOUS
 10
353.9689302741
 20
-3.1307637938
  0
SEQEND
  0
POLYLINE
  8
0
 62
7
  6
CONTINUOUS
 66
1
 70
0
  0
VERTEX
  8
0
 62
7
  6
CONTINUOUS
 10
340.640317229
 20
321.2630140299
  0
VERTEX
  8
0
 62
7
  6
CONTINUOUS
 10
340.6694511791
 20
321.2338036887
  0
VERTEX
  8
0
 62
7
  6
CONTINUOUS
 10
340.698526891
 20
321.1927034888
  0
VERTEX
  8
0
 62
7
  6
CONTINUOUS
 10
340.7274862425
 20
321.1397955893
  0
VERTEX
  8
0
 62
7
  6
CONTINUOUS
 10
340.7562713455
 20
321.07518575
  0
VERTEX
  8
0
 62
7
  6
CONTINUOUS
 10
340.7848246617
 20
320.999003116
  0
VERTEX
  8
0
 62
7
  6
CONTINUOUS
 10
340.8130891081
 20
320.911399989
  0
VERTEX
  8
0
 62
7
  6
CONTINUOUS
 10
340.8410081764
 20
320.8125515199
  0
VERTEX
  8
0
 62
7
  6
CONTINUOUS
 10
340.8685260684
 20
320.7026552695
  0
VERTEX
  8
0
 62
7
  6
CONTINUOUS
 10
340.8955877887
 20
320.5819308596
  0
VERTEX
  8
0
 62
7
  6
CONTINUOUS
 10
340.9221392296
 20
320.450619658
  0
VERTEX
  8
0
 62
7
  6
CONTINUOUS
 10
340.9481273061
 20
320.3089842014
  0
VERTEX
  8
0
 62
7
  6
CONTINUOUS
 10
340.9735000744
 20
320.1573075923
  0
VERTEX
  8
0
 62
7
  6
CONTINUOUS
 10
340.9982068174
 20
319.995893014
  0
VERTEX
  8
0
 62
7
  6
CONTINUOUS
 10
341.0221981456
 20
319.8250631372
  0
VERTEX
  8
0
 62
7
  6
CONTINUOUS
 10
341.0454261008
 20
319.6451594489
  0
VERTEX
  8
0
 62
7
  6
CONTINUOUS
 10
341.0678442507
 20
319.4565415719
  0
VERTEX
  8
0
 62
7
  6
CONTINUOUS
 10
341.0894077822
 20
319.2595865483
  0
VERTEX
  8
0
 62
7
  6
CONTINUOUS
 10
341.11007359
 20
319.0546880888
  0
VERTEX
  8
0
 62
7
  6
CONTINUOUS
 10
341.1298003632
 20
318.8422557831
  0
VERTEX
  8
0
 62
7
  6
CONTINUOUS
 10
341.1485486687
 20
318.6227142785
  0
VERTEX
  8
0
 62
7
  6
CONTINUOUS
 10
341.1662810289
 20
318.3965024318
  0
VERTEX
  8
0
 62
7
  6
CONTINUOUS
 10
341.1829619968
 20
318.1640724436
  0
VERTEX
  8
0
 62
7
  6
CONTINUOUS
 10
341.1985582265
 20
317.9258889528
  0
VERTEX
  8
0
 62
7
  6
CONTINUOUS
 10
341.2130385431
 20
317.6824280592
  0
VERTEX
  8
0
 62
7
  6
CONTINUOUS
 10
341.2263740024
 20
317.4341764035
  0
VERTEX
  8
0
 62
7
  6
CONTINUOUS
 10
341.2385379448
 20
317.1816302701
  0
VERTEX
  8
0
 62
7
  6
CONTINUOUS
 10
341.2495060534
 20
316.9252945272
  0
VERTEX
  8
0
 62
7
  6
CONTINUOUS
 10
341.2592564046
 20
316.6656815621
  0
VERTEX
  8
0
 62
7
  6
CONTINUOUS
 10
341.267769508
 20
316.403310321
  0
VERTEX
  8
0
 62
7
  6
CONTINUOUS
 10
341.2750283457
 20
316.1387052867
  0
VERTEX
  8
0
 62
7
  6
CONTINUOUS
 10
341.2810184075
 20
315.8723954029
  0
VERTEX
  8
0
 62
7
  6
CONTINUOUS
 10
341.2857277193
 20
315.6049130172
  0
SEQEND
  0
CIRCLE
  8
0
 62
7
  6
CONTINUOUS
 10
186.0327043836
 20
151.7124807131
 40
20.0
  0
ARC
  8
0
 62
7
  6
CONTINUOUS
 10
21.0327043836
 20
316.7124807131
 40
15.0
 50
90.0
 51
180.0
  0
ARC
  8
0
 62
7
  6
CONTINUOUS
 10
351.0327043836
 20
316.7124807131
 40
15.0
 50
0.0
 51
90.0
  0
ARC
  8
0
 62
7
  6
CONTINUOUS
 10
351.0327043836
 20
-13.2875192869
 40
15.0
 50
270.0
 51
360.0
  0
ARC
  8
0
 62
7
  6
CONTINUOUS
 10
21.0327043836
 20
-13.2875192869
 40
15.0
 50
180.0
 51
270.0
  0
ARC
  8
0
 62
7
  6
CONTINUOUS
 10
351.0327043836
 20
316.7124807131
 40
12.5
 50
0.0
 51
90.0
  0
ARC
  8
0
 62
7
  6
CONTINUOUS
 10
351.0327043836
 20
-13.2875192869
 40
12.5
 50
270.0
 51
360.0
  0
ARC
  8
0
 62
7
  6
CONTINUOUS
 10
21.0327043836
 20
-13.2875192869
 40
12.5
 50
180.0
 51
270.0
  0
ARC
  8
0
 62
7
  6
CONTINUOUS
 10
21.0327043836
 20
316.7124807131
 40
12.5
 50
90.0
 51
180.0
  0
ENDSEC
  0
EOF
