999
DXF file: K:\Client\125_Heirloom\001\00\Final_Data\Drawings\BASINS\stwbcs_2.dxf
999
Pro/ENGINEER 2017110 by Parametric Technology Corporation
  0
SECTION
  2
HEADER
  9
$EXTMAX
 10
420.0
 20
297.0
 30
0.0
  9
$EXTMIN
 10
0.0
 20
0.0
 30
0.0
  9
$LIMMIN
 10
0.0
 20
0.0
  9
$LIMMAX
 10
420.0
 20
297.0
  9
$VIEWCTR
 10
210.0
 20
148.5
  9
$VIEWSIZE
 40
297.0
  9
$CLAYER
  8
0
  9
$LTSCALE
 40
23.1
  9
$CELTYPE
  6
BYLAYER
  9
$DIMSCALE
 40
1.0
  9
$DIMASZ
 40
3.0
  9
$DIMEXO
 40
1.0
  9
$DIMDLI
 40
15.96
  9
$DIMEXE
 40
1.0
  9
$DIMCEN
 40
3.78
  9
$DIMLFAC
 40
1.0
  9
$DIMBLK
  1
_FILLED
  9
$DIMALT
 70
0
  9
$DIMALTF
 40
0.0393700787
  9
$DIMTXT
 40
3.0
  9
$AUNITS
 70
0
  9
$PDMODE
 70
3
  9
$PDSIZE
 40
5.0
  9
$TILEMODE
 70
1
  0
ENDSEC
  0
SECTION
  2
TABLES
  0
TABLE
  2
LTYPE
 70
6
  0
LTYPE
  2
BYBLOCK
 70
0
  3

 72
65
 73
0
 40
0.0
  0
LTYPE
  2
BYLAYER
 70
0
  3

 72
65
 73
0
 40
0.0
  0
LTYPE
  2
CONTINUOUS
 70
64
  3
Solid line
 72
65
 73
0
 40
0.0
  0
LTYPE
  2
CENTER
 70
64
  3
____ _ ____ _ ____ _ ____ _ ____ _ ____ _ ____
 72
65
 73
4
 40
0.6
 49
0.375
 49
-0.075
 49
0.075
 49
-0.075
  0
LTYPE
  2
HIDDEN
 70
64
  3
- - - - - - - - - - - - - - - - - - - -
 72
65
 73
2
 40
0.2
 49
0.1
 49
-0.1
  0
LTYPE
  2
PHANTOM
 70
64
  3
_____ _ _ _____ _ _ _____ _ _ _____
 72
65
 73
6
 40
0.8
 49
0.45
 49
-0.05
 49
0.1
 49
-0.05
 49
0.1
 49
-0.05
  0
LTYPE
  2
DOT
 70
64
  3
. . . . . . . . . . . . . . . . . . . .
 72
65
 73
2
 40
0.2
 49
0.1
 49
-0.1
  0
LTYPE
  2
DASHED
 70
64
  3
- - - - - - - - - - - - - - - - - - - -
 72
65
 73
2
 40
0.2
 49
0.1
 49
-0.1
  0
ENDTAB
  0
TABLE
  2
LAYER
 70
36
  0
LAYER
  2
0
 70
0
 62
7
  6
CONTINUOUS
  0
LAYER
  2
DEFAULT_1
 70
0
 62
7
  6
CENTER
  0
LAYER
  2
DEFAULT_2
 70
0
 62
8
  6
HIDDEN
  0
LAYER
  2
DEFAULT_3
 70
0
 62
7
  6
PHANTOM
  0
LAYER
  2
0000_BOM
 70
0
 62
7
  6
CONTINUOUS
  0
LAYER
  2
0000_REV_TABLE
 70
0
 62
7
  6
CONTINUOUS
  0
LAYER
  2
0000_STEVENS_NOTE
 70
0
 62
7
  6
CONTINUOUS
  0
LAYER
  2
01_DATUM_PLANES
 70
0
 62
7
  6
CONTINUOUS
  0
LAYER
  2
01_DEF_PLANES
 70
0
 62
7
  6
CONTINUOUS
  0
LAYER
  2
02_DATUM_COS
 70
0
 62
7
  6
CONTINUOUS
  0
LAYER
  2
99_SOLID
 70
0
 62
7
  6
CONTINUOUS
  0
LAYER
  2
CAD-MASTER_ZINC-PL
 70
0
 62
7
  6
CONTINUOUS
  0
LAYER
  2
CURVE
 70
0
 62
7
  6
CONTINUOUS
  0
LAYER
  2
SKEL
 70
0
 62
7
  6
CONTINUOUS
  0
LAYER
  2
SKETCH
 70
0
 62
7
  6
CONTINUOUS
  0
LAYER
  2
SURFACE
 70
0
 62
7
  6
CONTINUOUS
  0
ENDTAB
  0
TABLE
  2
STYLE
 70
1
  0
STYLE
  2
STANDARD
 70
0
 40
0.0
 41
0.75
 50
0.0
 71
0
 42
0.2
  3
txt
  4

  0
STYLE
  2
TEXTSTYLE_1
 70
0
 40
0.0
 41
0.8
 50
0.0
 71
0
 42
0.2
  3
gdt
  4

  0
ENDTAB
  0
ENDSEC
  0
SECTION
  2
BLOCKS
  0
ENDSEC
  0
SECTION
  2
ENTITIES
  0
LINE
  8
0
 62
7
  6
CONTINUOUS
 10
33.2073269735
 20
272.5808259439
 11
33.2073269735
 21
167.5808259439
  0
LINE
  8
0
 62
7
  6
CONTINUOUS
 10
38.2073269735
 20
117.5808259439
 11
38.2073269735
 21
277.5808259439
  0
LINE
  8
0
 62
7
  6
CONTINUOUS
 10
44.2073269735
 20
167.5808259439
 11
44.2073269735
 21
117.5808259439
  0
LINE
  8
SURFACE
 62
7
  6
CONTINUOUS
 10
58.2073269735
 20
117.5808259439
 11
58.2073269735
 21
27.5808259439
  0
LINE
  8
SURFACE
 62
7
  6
CONTINUOUS
 10
73.2073269735
 20
27.5808259439
 11
58.2073269735
 21
27.5808259439
  0
LINE
  8
SURFACE
 62
7
  6
CONTINUOUS
 10
73.2073269735
 20
117.5808259439
 11
73.2073269735
 21
27.5808259439
  0
LINE
  8
SURFACE
 62
7
  6
CONTINUOUS
 10
73.2073269735
 20
43.5808259439
 11
58.2073269735
 21
43.5808259439
  0
LINE
  8
SURFACE
 62
7
  6
CONTINUOUS
 10
73.2073269735
 20
111.5808259439
 11
58.2073269735
 21
111.5808259439
  0
LINE
  8
SURFACE
 62
7
  6
CONTINUOUS
 10
318.2073269735
 20
117.5808259439
 11
38.2073269735
 21
117.5808259439
  0
LINE
  8
0
 62
7
  6
CONTINUOUS
 10
33.2073269735
 20
167.5808259439
 11
323.2073269735
 21
167.5808259439
  0
LINE
  8
0
 62
7
  6
CONTINUOUS
 10
33.2073269735
 20
272.5808259439
 11
323.2073269735
 21
272.5808259439
  0
LINE
  8
0
 62
7
  6
CONTINUOUS
 10
38.2073269735
 20
277.5808259439
 11
318.2073269735
 21
277.5808259439
  0
LINE
  8
0
 62
7
  6
CONTINUOUS
 10
312.2073269735
 20
167.5808259439
 11
312.2073269735
 21
117.5808259439
  0
LINE
  8
0
 62
7
  6
CONTINUOUS
 10
318.2073269735
 20
277.5808259439
 11
318.2073269735
 21
117.5808259439
  0
LINE
  8
0
 62
7
  6
CONTINUOUS
 10
323.2073269735
 20
272.5808259439
 11
323.2073269735
 21
167.5808259439
  0
ARC
  8
0
 62
7
  6
CONTINUOUS
 10
38.2073269735
 20
272.5808259439
 40
5.0
 50
90.0
 51
180.0
  0
ARC
  8
0
 62
7
  6
CONTINUOUS
 10
318.2073269735
 20
272.5808259439
 40
5.0
 50
0.0
 51
90.0
  0
ENDSEC
  0
EOF
