999
DXF file: K:\Client\125_Heirloom\001\00\Final_Data\Drawings\BASINS\annex-361200_1.dxf
999
Pro/ENGINEER 2017110 by Parametric Technology Corporation
  0
SECTION
  2
HEADER
  9
$EXTMAX
 10
420.0
 20
297.0
 30
0.0
  9
$EXTMIN
 10
0.0
 20
0.0
 30
0.0
  9
$LIMMIN
 10
0.0
 20
0.0
  9
$LIMMAX
 10
420.0
 20
297.0
  9
$VIEWCTR
 10
210.0
 20
148.5
  9
$VIEWSIZE
 40
297.0
  9
$CLAYER
  8
0
  9
$LTSCALE
 40
23.1
  9
$CELTYPE
  6
BYLAYER
  9
$DIMSCALE
 40
1.0
  9
$DIMASZ
 40
3.0
  9
$DIMEXO
 40
1.0
  9
$DIMDLI
 40
15.96
  9
$DIMEXE
 40
1.0
  9
$DIMCEN
 40
3.78
  9
$DIMLFAC
 40
1.0
  9
$DIMBLK
  1
_FILLED
  9
$DIMALT
 70
0
  9
$DIMALTF
 40
0.0393700787
  9
$DIMTXT
 40
3.0
  9
$AUNITS
 70
0
  9
$PDMODE
 70
3
  9
$PDSIZE
 40
5.0
  9
$TILEMODE
 70
1
  0
ENDSEC
  0
SECTION
  2
TABLES
  0
TABLE
  2
LTYPE
 70
6
  0
LTYPE
  2
BYBLOCK
 70
0
  3

 72
65
 73
0
 40
0.0
  0
LTYPE
  2
BYLAYER
 70
0
  3

 72
65
 73
0
 40
0.0
  0
LTYPE
  2
CONTINUOUS
 70
64
  3
Solid line
 72
65
 73
0
 40
0.0
  0
LTYPE
  2
CENTER
 70
64
  3
____ _ ____ _ ____ _ ____ _ ____ _ ____ _ ____
 72
65
 73
4
 40
0.6
 49
0.375
 49
-0.075
 49
0.075
 49
-0.075
  0
LTYPE
  2
HIDDEN
 70
64
  3
- - - - - - - - - - - - - - - - - - - -
 72
65
 73
2
 40
0.2
 49
0.1
 49
-0.1
  0
LTYPE
  2
PHANTOM
 70
64
  3
_____ _ _ _____ _ _ _____ _ _ _____
 72
65
 73
6
 40
0.8
 49
0.45
 49
-0.05
 49
0.1
 49
-0.05
 49
0.1
 49
-0.05
  0
LTYPE
  2
DOT
 70
64
  3
. . . . . . . . . . . . . . . . . . . .
 72
65
 73
2
 40
0.2
 49
0.1
 49
-0.1
  0
LTYPE
  2
DASHED
 70
64
  3
- - - - - - - - - - - - - - - - - - - -
 72
65
 73
2
 40
0.2
 49
0.1
 49
-0.1
  0
ENDTAB
  0
TABLE
  2
LAYER
 70
36
  0
LAYER
  2
0
 70
0
 62
7
  6
CONTINUOUS
  0
LAYER
  2
DEFAULT_1
 70
0
 62
7
  6
CENTER
  0
LAYER
  2
DEFAULT_2
 70
0
 62
8
  6
HIDDEN
  0
LAYER
  2
DEFAULT_3
 70
0
 62
7
  6
PHANTOM
  0
LAYER
  2
0000_BOM
 70
0
 62
7
  6
CONTINUOUS
  0
LAYER
  2
0000_REV_TABLE
 70
0
 62
7
  6
CONTINUOUS
  0
LAYER
  2
0000_STEVENS_NOTE
 70
0
 62
7
  6
CONTINUOUS
  0
LAYER
  2
01_DATUM_PLANES
 70
0
 62
7
  6
CONTINUOUS
  0
LAYER
  2
01_DEF_PLANES
 70
0
 62
7
  6
CONTINUOUS
  0
LAYER
  2
02_DATUM_COS
 70
0
 62
7
  6
CONTINUOUS
  0
LAYER
  2
90_IMP_FEAT
 70
0
 62
7
  6
CONTINUOUS
  0
LAYER
  2
95_STL
 70
0
 62
7
  6
CONTINUOUS
  0
LAYER
  2
99_SOLID
 70
0
 62
7
  6
CONTINUOUS
  0
LAYER
  2
CAD-MASTER_ZINC-PL
 70
0
 62
7
  6
CONTINUOUS
  0
LAYER
  2
CURVE
 70
0
 62
7
  6
CONTINUOUS
  0
LAYER
  2
SKEL
 70
0
 62
7
  6
CONTINUOUS
  0
LAYER
  2
SKETCH
 70
0
 62
7
  6
CONTINUOUS
  0
LAYER
  2
SURFACE
 70
0
 62
7
  6
CONTINUOUS
  0
ENDTAB
  0
TABLE
  2
STYLE
 70
1
  0
STYLE
  2
STANDARD
 70
0
 40
0.0
 41
0.75
 50
0.0
 71
0
 42
0.2
  3
txt
  4

  0
STYLE
  2
TEXTSTYLE_1
 70
0
 40
0.0
 41
0.8
 50
0.0
 71
0
 42
0.2
  3
gdt
  4

  0
ENDTAB
  0
ENDSEC
  0
SECTION
  2
BLOCKS
  0
ENDSEC
  0
SECTION
  2
ENTITIES
  0
POLYLINE
  8
0
 62
9
  6
CONTINUOUS
 66
1
 70
0
  0
VERTEX
  8
0
 62
9
  6
CONTINUOUS
 10
10.7943039826
 20
293.1196268507
  0
VERTEX
  8
0
 62
9
  6
CONTINUOUS
 10
10.6672176776
 20
292.8496520802
  0
VERTEX
  8
0
 62
9
  6
CONTINUOUS
 10
10.6229029276
 20
292.4344956975
  0
VERTEX
  8
0
 62
9
  6
CONTINUOUS
 10
10.658730388
 20
291.9413600713
  0
VERTEX
  8
0
 62
9
  6
CONTINUOUS
 10
10.7634183645
 20
291.4443833548
  0
VERTEX
  8
0
 62
9
  6
CONTINUOUS
 10
10.9252098542
 20
291.0221529302
  0
VERTEX
  8
0
 62
9
  6
CONTINUOUS
 10
11.1400766823
 20
290.7559270938
  0
SEQEND
  0
POLYLINE
  8
0
 62
9
  6
CONTINUOUS
 66
1
 70
0
  0
VERTEX
  8
0
 62
9
  6
CONTINUOUS
 10
12.3366202725
 20
294.6938591122
  0
VERTEX
  8
0
 62
9
  6
CONTINUOUS
 10
12.2162221686
 20
294.4684292566
  0
VERTEX
  8
0
 62
9
  6
CONTINUOUS
 10
12.0335001754
 20
294.2485509534
  0
VERTEX
  8
0
 62
9
  6
CONTINUOUS
 10
11.7805731357
 20
294.0022171481
  0
SEQEND
  0
POLYLINE
  8
0
 62
7
  6
CONTINUOUS
 66
1
 70
0
  0
VERTEX
  8
0
 62
7
  6
CONTINUOUS
 10
9.3928757692
 20
287.9397588249
  0
VERTEX
  8
0
 62
7
  6
CONTINUOUS
 10
9.3672091096
 20
287.8988546136
  0
VERTEX
  8
0
 62
7
  6
CONTINUOUS
 10
9.2311602582
 20
287.6673302562
  0
VERTEX
  8
0
 62
7
  6
CONTINUOUS
 10
9.006158766
 20
287.1837213352
  0
VERTEX
  8
0
 62
7
  6
CONTINUOUS
 10
8.7952040104
 20
286.3878646002
  0
VERTEX
  8
0
 62
7
  6
CONTINUOUS
 10
8.7812687826
 20
285.390089531
  0
VERTEX
  8
0
 62
7
  6
CONTINUOUS
 10
9.0548411632
 20
284.3803519843
  0
VERTEX
  8
0
 62
7
  6
CONTINUOUS
 10
9.4015525019
 20
283.7518155095
  0
SEQEND
  0
LINE
  8
0
 62
7
  6
CONTINUOUS
 10
9.5041241693
 20
293.5498165824
 11
9.2873237385
 21
293.2048030911
  0
POLYLINE
  8
0
 62
7
  6
CONTINUOUS
 66
1
 70
0
  0
VERTEX
  8
0
 62
7
  6
CONTINUOUS
 10
9.3663240398
 20
293.2347629772
  0
VERTEX
  8
0
 62
7
  6
CONTINUOUS
 10
9.4948532241
 20
293.3852938684
  0
VERTEX
  8
0
 62
7
  6
CONTINUOUS
 10
9.4363800865
 20
293.3322629549
  0
VERTEX
  8
0
 62
7
  6
CONTINUOUS
 10
9.0974259594
 20
293.0424192317
  0
VERTEX
  8
0
 62
7
  6
CONTINUOUS
 10
8.2527208624
 20
292.3091109192
  0
SEQEND
  0
POLYLINE
  8
0
 62
7
  6
CONTINUOUS
 66
1
 70
0
  0
VERTEX
  8
0
 62
7
  6
CONTINUOUS
 10
8.2246428018
 20
292.2847235045
  0
VERTEX
  8
0
 62
7
  6
CONTINUOUS
 10
7.7249808158
 20
291.7632521862
  0
VERTEX
  8
0
 62
7
  6
CONTINUOUS
 10
7.2133477048
 20
290.9009483856
  0
VERTEX
  8
0
 62
7
  6
CONTINUOUS
 10
6.9763946471
 20
290.1466367046
  0
VERTEX
  8
0
 62
7
  6
CONTINUOUS
 10
6.8940594003
 20
289.5400157875
  0
VERTEX
  8
0
 62
7
  6
CONTINUOUS
 10
6.8847069806
 20
289.0936632113
  0
VERTEX
  8
0
 62
7
  6
CONTINUOUS
 10
6.903746824
 20
288.7270071978
  0
VERTEX
  8
0
 62
7
  6
CONTINUOUS
 10
6.9435462177
 20
288.3621651595
  0
VERTEX
  8
0
 62
7
  6
CONTINUOUS
 10
7.0019100104
 20
288.0026932598
  0
VERTEX
  8
0
 62
7
  6
CONTINUOUS
 10
7.0824676882
 20
287.6287814777
  0
VERTEX
  8
0
 62
7
  6
CONTINUOUS
 10
7.1865219158
 20
287.245866668
  0
VERTEX
  8
0
 62
7
  6
CONTINUOUS
 10
7.3145717687
 20
286.859843051
  0
VERTEX
  8
0
 62
7
  6
CONTINUOUS
 10
7.4741224136
 20
286.4599778507
  0
VERTEX
  8
0
 62
7
  6
CONTINUOUS
 10
7.6694029558
 20
286.0530818464
  0
VERTEX
  8
0
 62
7
  6
CONTINUOUS
 10
7.9225230815
 20
285.6191555598
  0
VERTEX
  8
0
 62
7
  6
CONTINUOUS
 10
8.1402374265
 20
285.306735036
  0
SEQEND
  0
POLYLINE
  8
0
 62
9
  6
CONTINUOUS
 66
1
 70
0
  0
VERTEX
  8
0
 62
9
  6
CONTINUOUS
 10
11.7805731357
 20
294.0022171481
  0
VERTEX
  8
0
 62
9
  6
CONTINUOUS
 10
11.1534126257
 20
293.415134975
  0
VERTEX
  8
0
 62
9
  6
CONTINUOUS
 10
10.7940666051
 20
293.1198863583
  0
SEQEND
  0
LINE
  8
0
 62
7
  6
CONTINUOUS
 10
8.2244063332
 20
292.2849971712
 11
8.2527208624
 21
292.3091109192
  0
POLYLINE
  8
0
 62
9
  6
CONTINUOUS
 66
1
 70
0
  0
VERTEX
  8
0
 62
9
  6
CONTINUOUS
 10
13.9524964328
 20
290.8202885942
  0
VERTEX
  8
0
 62
9
  6
CONTINUOUS
 10
14.0273055531
 20
290.8819330197
  0
VERTEX
  8
0
 62
9
  6
CONTINUOUS
 10
14.3500596118
 20
290.9458702063
  0
VERTEX
  8
0
 62
9
  6
CONTINUOUS
 10
14.9199701338
 20
291.0100677932
  0
VERTEX
  8
0
 62
9
  6
CONTINUOUS
 10
15.7394113777
 20
291.0707422321
  0
VERTEX
  8
0
 62
9
  6
CONTINUOUS
 10
16.8093885787
 20
291.1240692747
  0
VERTEX
  8
0
 62
9
  6
CONTINUOUS
 10
18.1332518363
 20
291.1664677336
  0
VERTEX
  8
0
 62
9
  6
CONTINUOUS
 10
19.711710511
 20
291.1947906104
  0
VERTEX
  8
0
 62
9
  6
CONTINUOUS
 10
21.5537620369
 20
291.2058826634
  0
VERTEX
  8
0
 62
9
  6
CONTINUOUS
 10
23.6682102432
 20
291.1976756515
  0
VERTEX
  8
0
 62
9
  6
CONTINUOUS
 10
26.0564863273
 20
291.1685832409
  0
VERTEX
  8
0
 62
9
  6
CONTINUOUS
 10
28.7235174281
 20
291.1179049476
  0
VERTEX
  8
0
 62
9
  6
CONTINUOUS
 10
31.667824603
 20
291.0481860841
  0
SEQEND
  0
POLYLINE
  8
0
 62
9
  6
CONTINUOUS
 66
1
 70
0
  0
VERTEX
  8
0
 62
9
  6
CONTINUOUS
 10
8.2527208624
 20
292.3091109192
  0
VERTEX
  8
0
 62
9
  6
CONTINUOUS
 10
8.4508229907
 20
292.4641792959
  0
VERTEX
  8
0
 62
9
  6
CONTINUOUS
 10
8.9680425979
 20
292.7754433326
  0
VERTEX
  8
0
 62
9
  6
CONTINUOUS
 10
9.5416964698
 20
292.9961837523
  0
VERTEX
  8
0
 62
9
  6
CONTINUOUS
 10
10.1656103439
 20
293.1151570878
  0
VERTEX
  8
0
 62
9
  6
CONTINUOUS
 10
10.7941722888
 20
293.1199098443
  0
SEQEND
  0
POLYLINE
  8
0
 62
9
  6
CONTINUOUS
 66
1
 70
0
  0
VERTEX
  8
0
 62
9
  6
CONTINUOUS
 10
7.5787354821
 20
287.2569512729
  0
VERTEX
  8
0
 62
9
  6
CONTINUOUS
 10
7.6208627499
 20
287.7971462362
  0
VERTEX
  8
0
 62
9
  6
CONTINUOUS
 10
7.7471843524
 20
288.328502952
  0
VERTEX
  8
0
 62
9
  6
CONTINUOUS
 10
7.9508659263
 20
288.8262975566
  0
VERTEX
  8
0
 62
9
  6
CONTINUOUS
 10
8.2298234531
 20
289.2890260932
  0
VERTEX
  8
0
 62
9
  6
CONTINUOUS
 10
8.5830390474
 20
289.7098346901
  0
VERTEX
  8
0
 62
9
  6
CONTINUOUS
 10
9.0040917429
 20
290.0748981404
  0
VERTEX
  8
0
 62
9
  6
CONTINUOUS
 10
9.4832426643
 20
290.3713554852
  0
VERTEX
  8
0
 62
9
  6
CONTINUOUS
 10
10.009940395
 20
290.5890939505
  0
VERTEX
  8
0
 62
9
  6
CONTINUOUS
 10
10.5726479849
 20
290.7195967185
  0
VERTEX
  8
0
 62
9
  6
CONTINUOUS
 10
11.1400772028
 20
290.7559270847
  0
SEQEND
  0
POLYLINE
  8
0
 62
9
  6
CONTINUOUS
 66
1
 70
0
  0
VERTEX
  8
0
 62
9
  6
CONTINUOUS
 10
12.379977518
 20
294.9230893322
  0
VERTEX
  8
0
 62
9
  6
CONTINUOUS
 10
12.3767026746
 20
294.8829791453
  0
VERTEX
  8
0
 62
9
  6
CONTINUOUS
 10
12.3722640855
 20
294.8435759026
  0
VERTEX
  8
0
 62
9
  6
CONTINUOUS
 10
12.3669507709
 20
294.8049544724
  0
VERTEX
  8
0
 62
9
  6
CONTINUOUS
 10
12.3597140619
 20
294.7671101017
  0
VERTEX
  8
0
 62
9
  6
CONTINUOUS
 10
12.3495064667
 20
294.7300499761
  0
VERTEX
  8
0
 62
9
  6
CONTINUOUS
 10
12.3366203617
 20
294.6938588919
  0
SEQEND
  0
POLYLINE
  8
0
 62
7
  6
CONTINUOUS
 66
1
 70
0
  0
VERTEX
  8
0
 62
7
  6
CONTINUOUS
 10
86.9198286917
 20
13.9743141922
  0
VERTEX
  8
0
 62
7
  6
CONTINUOUS
 10
87.3982429745
 20
13.4896343989
  0
VERTEX
  8
0
 62
7
  6
CONTINUOUS
 10
88.1328748213
 20
13.0215101868
  0
VERTEX
  8
0
 62
7
  6
CONTINUOUS
 10
89.1296490193
 20
12.5676794933
  0
VERTEX
  8
0
 62
7
  6
CONTINUOUS
 10
90.3707912071
 20
12.1349285063
  0
VERTEX
  8
0
 62
7
  6
CONTINUOUS
 10
91.8467163966
 20
11.728035753
  0
VERTEX
  8
0
 62
7
  6
CONTINUOUS
 10
93.5387812551
 20
11.350762153
  0
VERTEX
  8
0
 62
7
  6
CONTINUOUS
 10
95.4326023853
 20
11.0074578663
  0
VERTEX
  8
0
 62
7
  6
CONTINUOUS
 10
97.5058149935
 20
10.7011336981
  0
VERTEX
  8
0
 62
7
  6
CONTINUOUS
 10
99.7398744161
 20
10.4355265685
  0
VERTEX
  8
0
 62
7
  6
CONTINUOUS
 10
102.1089368654
 20
10.2128082913
  0
VERTEX
  8
0
 62
7
  6
CONTINUOUS
 10
104.5769738318
 20
10.0368235016
  0
VERTEX
  8
0
 62
7
  6
CONTINUOUS
 10
107.1559948185
 20
9.9062906545
  0
SEQEND
  0
POLYLINE
  8
0
 62
7
  6
CONTINUOUS
 66
1
 70
0
  0
VERTEX
  8
0
 62
7
  6
CONTINUOUS
 10
209.2753909927
 20
8.9455041587
  0
VERTEX
  8
0
 62
7
  6
CONTINUOUS
 10
218.854906466
 20
9.0356803758
  0
VERTEX
  8
0
 62
7
  6
CONTINUOUS
 10
228.0878701251
 20
9.1447131359
  0
VERTEX
  8
0
 62
7
  6
CONTINUOUS
 10
236.9842450766
 20
9.2640473322
  0
VERTEX
  8
0
 62
7
  6
CONTINUOUS
 10
245.5141420008
 20
9.4193482851
  0
VERTEX
  8
0
 62
7
  6
CONTINUOUS
 10
253.6476715783
 20
9.6362813149
  0
VERTEX
  8
0
 62
7
  6
CONTINUOUS
 10
261.3947969156
 20
9.9062913148
  0
SEQEND
  0
POLYLINE
  8
0
 62
7
  6
CONTINUOUS
 66
1
 70
0
  0
VERTEX
  8
0
 62
7
  6
CONTINUOUS
 10
209.2753909927
 20
8.9455041587
  0
VERTEX
  8
0
 62
7
  6
CONTINUOUS
 10
200.9446833032
 20
8.8827792741
  0
VERTEX
  8
0
 62
7
  6
CONTINUOUS
 10
192.6117250619
 20
8.8451443434
  0
VERTEX
  8
0
 62
7
  6
CONTINUOUS
 10
184.2753909927
 20
8.8325993665
  0
VERTEX
  8
0
 62
7
  6
CONTINUOUS
 10
175.9390569235
 20
8.8451443434
  0
VERTEX
  8
0
 62
7
  6
CONTINUOUS
 10
167.6060986822
 20
8.8827792741
  0
VERTEX
  8
0
 62
7
  6
CONTINUOUS
 10
159.2753909927
 20
8.9455041587
  0
SEQEND
  0
POLYLINE
  8
0
 62
7
  6
CONTINUOUS
 66
1
 70
0
  0
VERTEX
  8
0
 62
7
  6
CONTINUOUS
 10
159.2753909927
 20
8.9455041587
  0
VERTEX
  8
0
 62
7
  6
CONTINUOUS
 10
149.7314118327
 20
9.0345340227
  0
VERTEX
  8
0
 62
7
  6
CONTINUOUS
 10
140.5288374794
 20
9.142858918
  0
VERTEX
  8
0
 62
7
  6
CONTINUOUS
 10
131.6662050149
 20
9.2619049794
  0
VERTEX
  8
0
 62
7
  6
CONTINUOUS
 10
123.1479031928
 20
9.4173938024
  0
VERTEX
  8
0
 62
7
  6
CONTINUOUS
 10
114.9783207666
 20
9.6350469825
  0
VERTEX
  8
0
 62
7
  6
CONTINUOUS
 10
107.1559948185
 20
9.9062906545
  0
SEQEND
  0
POLYLINE
  8
0
 62
7
  6
CONTINUOUS
 66
1
 70
0
  0
VERTEX
  8
0
 62
7
  6
CONTINUOUS
 10
81.0958809123
 20
89.2866830435
  0
VERTEX
  8
0
 62
7
  6
CONTINUOUS
 10
82.4232348083
 20
76.6551628458
  0
VERTEX
  8
0
 62
7
  6
CONTINUOUS
 10
82.9096808011
 20
71.4365211406
  0
SEQEND
  0
LINE
  8
0
 62
7
  6
CONTINUOUS
 10
82.3564568612
 20
92.9195360339
 11
82.5040987483
 21
91.2869546437
  0
LINE
  8
0
 62
7
  6
CONTINUOUS
 10
80.4663510623
 20
110.0864013271
 11
80.5842248822
 21
108.7565114931
  0
LINE
  8
0
 62
7
  6
CONTINUOUS
 10
80.4663510623
 20
110.0864013271
 11
80.4665764076
 21
110.0837982742
  0
LINE
  8
0
 62
7
  6
CONTINUOUS
 10
82.5040987483
 20
91.2869546437
 11
82.6230287369
 21
89.9128054136
  0
POLYLINE
  8
0
 62
7
  6
CONTINUOUS
 66
1
 70
0
  0
VERTEX
  8
0
 62
7
  6
CONTINUOUS
 10
80.5842248822
 20
108.7565114931
  0
VERTEX
  8
0
 62
7
  6
CONTINUOUS
 10
80.7509493719
 20
106.8059376159
  0
VERTEX
  8
0
 62
7
  6
CONTINUOUS
 10
80.8495222434
 20
105.6207208271
  0
VERTEX
  8
0
 62
7
  6
CONTINUOUS
 10
80.9554092312
 20
104.3221407851
  0
VERTEX
  8
0
 62
7
  6
CONTINUOUS
 10
81.0660521766
 20
102.9368883481
  0
VERTEX
  8
0
 62
7
  6
CONTINUOUS
 10
81.1810983771
 20
101.4647879371
  0
VERTEX
  8
0
 62
7
  6
CONTINUOUS
 10
81.2996272153
 20
99.9124910554
  0
VERTEX
  8
0
 62
7
  6
CONTINUOUS
 10
81.4207479068
 20
98.2861989391
  0
VERTEX
  8
0
 62
7
  6
CONTINUOUS
 10
81.5437493899
 20
96.5895537709
  0
VERTEX
  8
0
 62
7
  6
CONTINUOUS
 10
81.6671536173
 20
94.836881108
  0
VERTEX
  8
0
 62
7
  6
CONTINUOUS
 10
81.789473024
 20
93.0435389548
  0
VERTEX
  8
0
 62
7
  6
CONTINUOUS
 10
81.9102804163
 20
91.2101445103
  0
VERTEX
  8
0
 62
7
  6
CONTINUOUS
 10
82.0284772203
 20
89.3478507498
  0
SEQEND
  0
POLYLINE
  8
0
 62
7
  6
CONTINUOUS
 66
1
 70
0
  0
VERTEX
  8
0
 62
7
  6
CONTINUOUS
 10
82.6230287369
 20
89.9128054136
  0
VERTEX
  8
0
 62
7
  6
CONTINUOUS
 10
82.7092768102
 20
88.8735097703
  0
VERTEX
  8
0
 62
7
  6
CONTINUOUS
 10
82.7367498348
 20
88.5322987653
  0
SEQEND
  0
POLYLINE
  8
0
 62
7
  6
CONTINUOUS
 66
1
 70
0
  0
VERTEX
  8
0
 62
7
  6
CONTINUOUS
 10
82.0284772203
 20
89.3478507498
  0
VERTEX
  8
0
 62
7
  6
CONTINUOUS
 10
82.144692376
 20
87.4404385849
  0
VERTEX
  8
0
 62
7
  6
CONTINUOUS
 10
82.2591739
 20
85.4750778711
  0
VERTEX
  8
0
 62
7
  6
CONTINUOUS
 10
82.3712641565
 20
83.4525641359
  0
VERTEX
  8
0
 62
7
  6
CONTINUOUS
 10
82.4805828846
 20
81.3678060008
  0
VERTEX
  8
0
 62
7
  6
CONTINUOUS
 10
82.5861922272
 20
79.2255376681
  0
VERTEX
  8
0
 62
7
  6
CONTINUOUS
 10
82.6873261632
 20
77.027743687
  0
VERTEX
  8
0
 62
7
  6
CONTINUOUS
 10
82.7831656544
 20
74.7775618875
  0
VERTEX
  8
0
 62
7
  6
CONTINUOUS
 10
82.8729103927
 20
72.4778293806
  0
VERTEX
  8
0
 62
7
  6
CONTINUOUS
 10
82.9557660474
 20
70.1314242211
  0
VERTEX
  8
0
 62
7
  6
CONTINUOUS
 10
83.0309510597
 20
67.7412005167
  0
VERTEX
  8
0
 62
7
  6
CONTINUOUS
 10
83.0976981624
 20
65.310073413
  0
VERTEX
  8
0
 62
7
  6
CONTINUOUS
 10
83.1552316664
 20
62.8423416229
  0
VERTEX
  8
0
 62
7
  6
CONTINUOUS
 10
83.2029186731
 20
60.3367319375
  0
VERTEX
  8
0
 62
7
  6
CONTINUOUS
 10
83.2400486285
 20
57.7945180582
  0
VERTEX
  8
0
 62
7
  6
CONTINUOUS
 10
83.2659442021
 20
55.2123100281
  0
VERTEX
  8
0
 62
7
  6
CONTINUOUS
 10
83.2799716409
 20
52.5878628752
  0
VERTEX
  8
0
 62
7
  6
CONTINUOUS
 10
83.2821051075
 20
49.9193501815
  0
VERTEX
  8
0
 62
7
  6
CONTINUOUS
 10
83.2725220405
 20
47.2051202007
  0
VERTEX
  8
0
 62
7
  6
CONTINUOUS
 10
83.2514148529
 20
44.4429873748
  0
VERTEX
  8
0
 62
7
  6
CONTINUOUS
 10
83.2190013517
 20
41.6313019391
  0
VERTEX
  8
0
 62
7
  6
CONTINUOUS
 10
83.1755072679
 20
38.7669010588
  0
VERTEX
  8
0
 62
7
  6
CONTINUOUS
 10
83.1211884355
 20
35.8470935121
  0
VERTEX
  8
0
 62
7
  6
CONTINUOUS
 10
83.0563325236
 20
32.868936458
  0
VERTEX
  8
0
 62
7
  6
CONTINUOUS
 10
82.9738073221
 20
29.5443454483
  0
SEQEND
  0
POLYLINE
  8
0
 62
9
  6
CONTINUOUS
 66
1
 70
0
  0
VERTEX
  8
0
 62
9
  6
CONTINUOUS
 10
7.9014370147
 20
285.7880059999
  0
VERTEX
  8
0
 62
9
  6
CONTINUOUS
 10
7.7620691303
 20
286.1379450252
  0
VERTEX
  8
0
 62
9
  6
CONTINUOUS
 10
7.6611604459
 20
286.5007018634
  0
VERTEX
  8
0
 62
9
  6
CONTINUOUS
 10
7.5992986422
 20
286.8769287249
  0
VERTEX
  8
0
 62
9
  6
CONTINUOUS
 10
7.5787354821
 20
287.2569512729
  0
SEQEND
  0
POLYLINE
  8
0
 62
9
  6
CONTINUOUS
 66
1
 70
0
  0
VERTEX
  8
0
 62
9
  6
CONTINUOUS
 10
33.9145324344
 20
287.7764912804
  0
VERTEX
  8
0
 62
9
  6
CONTINUOUS
 10
33.6911460018
 20
288.5457134136
  0
VERTEX
  8
0
 62
9
  6
CONTINUOUS
 10
33.3664345638
 20
289.3635640205
  0
VERTEX
  8
0
 62
9
  6
CONTINUOUS
 10
32.9937670124
 20
290.0419802754
  0
VERTEX
  8
0
 62
9
  6
CONTINUOUS
 10
32.5799767957
 20
290.5602908915
  0
VERTEX
  8
0
 62
9
  6
CONTINUOUS
 10
32.1317381365
 20
290.9014751826
  0
VERTEX
  8
0
 62
9
  6
CONTINUOUS
 10
31.6678223653
 20
291.0481645106
  0
SEQEND
  0
POLYLINE
  8
0
 62
7
  6
CONTINUOUS
 66
1
 70
0
  0
VERTEX
  8
0
 62
7
  6
CONTINUOUS
 10
71.1189419233
 20
166.3322227373
  0
VERTEX
  8
0
 62
7
  6
CONTINUOUS
 10
71.9214621924
 20
161.1522013598
  0
VERTEX
  8
0
 62
7
  6
CONTINUOUS
 10
73.1737696387
 20
152.3203733789
  0
VERTEX
  8
0
 62
7
  6
CONTINUOUS
 10
74.4232824609
 20
143.0180044096
  0
VERTEX
  8
0
 62
7
  6
CONTINUOUS
 10
75.721651684
 20
133.3019998782
  0
VERTEX
  8
0
 62
7
  6
CONTINUOUS
 10
77.0441026625
 20
123.1123297848
  0
VERTEX
  8
0
 62
7
  6
CONTINUOUS
 10
78.3873499663
 20
112.4398172409
  0
VERTEX
  8
0
 62
7
  6
CONTINUOUS
 10
79.7385769742
 20
101.1888083386
  0
VERTEX
  8
0
 62
7
  6
CONTINUOUS
 10
81.0958809123
 20
89.2866830435
  0
SEQEND
  0
POLYLINE
  8
0
 62
9
  6
CONTINUOUS
 66
1
 70
0
  0
VERTEX
  8
0
 62
9
  6
CONTINUOUS
 10
85.4745091863
 20
81.5298834521
  0
VERTEX
  8
0
 62
9
  6
CONTINUOUS
 10
85.1745676994
 20
85.4582522364
  0
VERTEX
  8
0
 62
9
  6
CONTINUOUS
 10
84.8575997877
 20
89.397911133
  0
VERTEX
  8
0
 62
9
  6
CONTINUOUS
 10
84.5259088341
 20
93.3523324161
  0
VERTEX
  8
0
 62
9
  6
CONTINUOUS
 10
84.1819168682
 20
97.3136213805
  0
VERTEX
  8
0
 62
9
  6
CONTINUOUS
 10
83.8271491369
 20
101.2787064713
  0
VERTEX
  8
0
 62
9
  6
CONTINUOUS
 10
83.4620100663
 20
105.2353394236
  0
VERTEX
  8
0
 62
9
  6
CONTINUOUS
 10
83.0866938672
 20
109.1603027559
  0
VERTEX
  8
0
 62
9
  6
CONTINUOUS
 10
82.6961765184
 20
113.0814749751
  0
VERTEX
  8
0
 62
9
  6
CONTINUOUS
 10
82.282753987
 20
117.0391210953
  0
VERTEX
  8
0
 62
9
  6
CONTINUOUS
 10
81.8485105353
 20
120.9711586809
  0
VERTEX
  8
0
 62
9
  6
CONTINUOUS
 10
81.3954594488
 20
124.8228487969
  0
VERTEX
  8
0
 62
9
  6
CONTINUOUS
 10
80.9182514276
 20
128.6130171847
  0
VERTEX
  8
0
 62
9
  6
CONTINUOUS
 10
80.4133740312
 20
132.3426445958
  0
VERTEX
  8
0
 62
9
  6
CONTINUOUS
 10
79.8785994136
 20
136.0108643522
  0
VERTEX
  8
0
 62
9
  6
CONTINUOUS
 10
79.3136574204
 20
139.6054618897
  0
VERTEX
  8
0
 62
9
  6
CONTINUOUS
 10
78.710849624
 20
143.1619296845
  0
VERTEX
  8
0
 62
9
  6
CONTINUOUS
 10
78.0589521557
 20
146.7245482823
  0
VERTEX
  8
0
 62
9
  6
CONTINUOUS
 10
77.3609091931
 20
150.2526954093
  0
VERTEX
  8
0
 62
9
  6
CONTINUOUS
 10
76.6211120366
 20
153.7150663072
  0
VERTEX
  8
0
 62
9
  6
CONTINUOUS
 10
75.833988548
 20
157.1307682991
  0
VERTEX
  8
0
 62
9
  6
CONTINUOUS
 10
74.9969309774
 20
160.5052770249
  0
VERTEX
  8
0
 62
9
  6
CONTINUOUS
 10
74.1058677925
 20
163.8483025417
  0
VERTEX
  8
0
 62
9
  6
CONTINUOUS
 10
73.1557682983
 20
167.1733854108
  0
VERTEX
  8
0
 62
9
  6
CONTINUOUS
 10
72.146484762
 20
170.4743941278
  0
VERTEX
  8
0
 62
9
  6
CONTINUOUS
 10
71.0809528394
 20
173.7416224978
  0
VERTEX
  8
0
 62
9
  6
CONTINUOUS
 10
69.9508270885
 20
177.0009824414
  0
VERTEX
  8
0
 62
9
  6
CONTINUOUS
 10
68.7473953579
 20
180.27573077
  0
VERTEX
  8
0
 62
9
  6
CONTINUOUS
 10
67.4715331051
 20
183.5632490933
  0
VERTEX
  8
0
 62
9
  6
CONTINUOUS
 10
66.1215943796
 20
186.8692125725
  0
VERTEX
  8
0
 62
9
  6
CONTINUOUS
 10
64.6993553757
 20
190.1928088758
  0
VERTEX
  8
0
 62
9
  6
CONTINUOUS
 10
63.2029077233
 20
193.543391411
  0
VERTEX
  8
0
 62
9
  6
CONTINUOUS
 10
61.6456774696
 20
196.8972526329
  0
VERTEX
  8
0
 62
9
  6
CONTINUOUS
 10
60.0447467215
 20
200.225937717
  0
VERTEX
  8
0
 62
9
  6
CONTINUOUS
 10
58.3915588018
 20
203.5542385808
  0
VERTEX
  8
0
 62
9
  6
CONTINUOUS
 10
56.6804484073
 20
206.8984423537
  0
VERTEX
  8
0
 62
9
  6
CONTINUOUS
 10
54.9155049299
 20
210.2544100438
  0
VERTEX
  8
0
 62
9
  6
CONTINUOUS
 10
53.1008486965
 20
213.6188484392
  0
VERTEX
  8
0
 62
9
  6
CONTINUOUS
 10
51.2312718895
 20
217.0056615715
  0
VERTEX
  8
0
 62
9
  6
CONTINUOUS
 10
49.3083882237
 20
220.4174567256
  0
VERTEX
  8
0
 62
9
  6
CONTINUOUS
 10
47.3181407275
 20
223.8854846436
  0
VERTEX
  8
0
 62
9
  6
CONTINUOUS
 10
45.2347127764
 20
227.4592696348
  0
VERTEX
  8
0
 62
9
  6
CONTINUOUS
 10
43.0933414133
 20
231.0861421055
  0
VERTEX
  8
0
 62
9
  6
CONTINUOUS
 10
40.9212617043
 20
234.7281742465
  0
VERTEX
  8
0
 62
9
  6
CONTINUOUS
 10
38.719342267
 20
238.3913517425
  0
VERTEX
  8
0
 62
9
  6
CONTINUOUS
 10
36.4967246376
 20
242.0679680791
  0
VERTEX
  8
0
 62
9
  6
CONTINUOUS
 10
34.2541534314
 20
245.760681128
  0
VERTEX
  8
0
 62
9
  6
CONTINUOUS
 10
32.0021019212
 20
249.4570517425
  0
VERTEX
  8
0
 62
9
  6
CONTINUOUS
 10
29.7175904139
 20
253.1939353279
  0
VERTEX
  8
0
 62
9
  6
CONTINUOUS
 10
27.3655155783
 20
257.024218534
  0
VERTEX
  8
0
 62
9
  6
CONTINUOUS
 10
24.9844154638
 20
260.8853235551
  0
VERTEX
  8
0
 62
9
  6
CONTINUOUS
 10
22.5942773405
 20
264.7415490344
  0
VERTEX
  8
0
 62
9
  6
CONTINUOUS
 10
20.2144411479
 20
268.5646713167
  0
VERTEX
  8
0
 62
9
  6
CONTINUOUS
 10
17.8798325192
 20
272.301519372
  0
VERTEX
  8
0
 62
9
  6
CONTINUOUS
 10
15.5672399459
 20
275.9909589294
  0
VERTEX
  8
0
 62
9
  6
CONTINUOUS
 10
13.2641417756
 20
279.6570874969
  0
VERTEX
  8
0
 62
9
  6
CONTINUOUS
 10
10.974879078
 20
283.2912277861
  0
SEQEND
  0
POLYLINE
  8
0
 62
7
  6
CONTINUOUS
 66
1
 70
0
  0
VERTEX
  8
0
 62
7
  6
CONTINUOUS
 10
82.9874329498
 20
29.5443333185
  0
VERTEX
  8
0
 62
7
  6
CONTINUOUS
 10
83.0002195867
 20
27.5081740583
  0
VERTEX
  8
0
 62
7
  6
CONTINUOUS
 10
83.172255799
 20
25.4752859697
  0
VERTEX
  8
0
 62
7
  6
CONTINUOUS
 10
83.4629923031
 20
23.5543723099
  0
VERTEX
  8
0
 62
7
  6
CONTINUOUS
 10
83.8246849865
 20
21.7360896649
  0
VERTEX
  8
0
 62
7
  6
CONTINUOUS
 10
84.2639580191
 20
20.0147892386
  0
VERTEX
  8
0
 62
7
  6
CONTINUOUS
 10
84.7574476839
 20
18.3835014875
  0
VERTEX
  8
0
 62
7
  6
CONTINUOUS
 10
85.3473735294
 20
16.8368452395
  0
VERTEX
  8
0
 62
7
  6
CONTINUOUS
 10
86.0724711541
 20
15.3661530969
  0
VERTEX
  8
0
 62
7
  6
CONTINUOUS
 10
86.9198286917
 20
13.9743141922
  0
SEQEND
  0
POLYLINE
  8
0
 62
9
  6
CONTINUOUS
 66
1
 70
0
  0
VERTEX
  8
0
 62
9
  6
CONTINUOUS
 10
86.9246204053
 20
13.9744042783
  0
VERTEX
  8
0
 62
9
  6
CONTINUOUS
 10
87.0204096886
 20
20.2309134297
  0
VERTEX
  8
0
 62
9
  6
CONTINUOUS
 10
87.0968547225
 20
26.4152566458
  0
VERTEX
  8
0
 62
9
  6
CONTINUOUS
 10
87.1498147571
 20
32.5601593761
  0
VERTEX
  8
0
 62
9
  6
CONTINUOUS
 10
87.1647234316
 20
38.5434599255
  0
VERTEX
  8
0
 62
9
  6
CONTINUOUS
 10
87.1327767304
 20
44.1871432245
  0
VERTEX
  8
0
 62
9
  6
CONTINUOUS
 10
87.0483078471
 20
49.7005097403
  0
VERTEX
  8
0
 62
9
  6
CONTINUOUS
 10
86.9025791744
 20
55.2969641867
  0
VERTEX
  8
0
 62
9
  6
CONTINUOUS
 10
86.7018011328
 20
60.7897610698
  0
VERTEX
  8
0
 62
9
  6
CONTINUOUS
 10
86.4596034593
 20
66.000657707
  0
VERTEX
  8
0
 62
9
  6
CONTINUOUS
 10
86.1755644073
 20
71.1265301976
  0
VERTEX
  8
0
 62
9
  6
CONTINUOUS
 10
85.8451864125
 20
76.3193865671
  0
VERTEX
  8
0
 62
9
  6
CONTINUOUS
 10
85.4745091863
 20
81.5298834521
  0
SEQEND
  0
POLYLINE
  8
0
 62
9
  6
CONTINUOUS
 66
1
 70
0
  0
VERTEX
  8
0
 62
9
  6
CONTINUOUS
 10
159.6548593699
 20
284.90233172
  0
VERTEX
  8
0
 62
9
  6
CONTINUOUS
 10
159.6153630178
 20
284.8369352596
  0
VERTEX
  8
0
 62
9
  6
CONTINUOUS
 10
159.5739223872
 20
284.6663940099
  0
VERTEX
  8
0
 62
9
  6
CONTINUOUS
 10
159.532482031
 20
284.4072368154
  0
VERTEX
  8
0
 62
9
  6
CONTINUOUS
 10
159.4908628222
 20
284.0634690618
  0
VERTEX
  8
0
 62
9
  6
CONTINUOUS
 10
159.4488513161
 20
283.6295774544
  0
VERTEX
  8
0
 62
9
  6
CONTINUOUS
 10
159.408266052
 20
283.1173471717
  0
VERTEX
  8
0
 62
9
  6
CONTINUOUS
 10
159.3704590245
 20
282.5372870665
  0
VERTEX
  8
0
 62
9
  6
CONTINUOUS
 10
159.3371851863
 20
281.9096195603
  0
VERTEX
  8
0
 62
9
  6
CONTINUOUS
 10
159.3100828062
 20
281.2607612442
  0
VERTEX
  8
0
 62
9
  6
CONTINUOUS
 10
159.2900197463
 20
280.6052109645
  0
VERTEX
  8
0
 62
9
  6
CONTINUOUS
 10
159.2780682878
 20
279.961333431
  0
VERTEX
  8
0
 62
9
  6
CONTINUOUS
 10
159.2754213326
 20
279.3587508966
  0
SEQEND
  0
POLYLINE
  8
0
 62
9
  6
CONTINUOUS
 66
1
 70
0
  0
VERTEX
  8
0
 62
9
  6
CONTINUOUS
 10
159.2753889515
 20
284.9171182961
  0
VERTEX
  8
0
 62
9
  6
CONTINUOUS
 10
159.2269618744
 20
284.849575586
  0
VERTEX
  8
0
 62
9
  6
CONTINUOUS
 10
159.1783105985
 20
284.6686048164
  0
VERTEX
  8
0
 62
9
  6
CONTINUOUS
 10
159.1308805861
 20
284.3809055382
  0
VERTEX
  8
0
 62
9
  6
CONTINUOUS
 10
159.086159502
 20
283.9962684189
  0
VERTEX
  8
0
 62
9
  6
CONTINUOUS
 10
159.0457104481
 20
283.5273948471
  0
VERTEX
  8
0
 62
9
  6
CONTINUOUS
 10
159.0107085149
 20
282.9896279653
  0
VERTEX
  8
0
 62
9
  6
CONTINUOUS
 10
158.9824031636
 20
282.4003965155
  0
VERTEX
  8
0
 62
9
  6
CONTINUOUS
 10
158.9616017472
 20
281.7787146587
  0
VERTEX
  8
0
 62
9
  6
CONTINUOUS
 10
158.9491118038
 20
281.1447424362
  0
VERTEX
  8
0
 62
9
  6
CONTINUOUS
 10
158.9452175709
 20
280.5187233413
  0
VERTEX
  8
0
 62
9
  6
CONTINUOUS
 10
158.9498462311
 20
279.9207175602
  0
VERTEX
  8
0
 62
9
  6
CONTINUOUS
 10
158.9636344493
 20
279.3710115798
  0
SEQEND
  0
POLYLINE
  8
0
 62
9
  6
CONTINUOUS
 66
1
 70
0
  0
VERTEX
  8
0
 62
9
  6
CONTINUOUS
 10
10.9748640322
 20
283.2912034138
  0
VERTEX
  8
0
 62
9
  6
CONTINUOUS
 10
10.6875425048
 20
283.8349809212
  0
VERTEX
  8
0
 62
9
  6
CONTINUOUS
 10
10.4994172106
 20
284.4222171201
  0
VERTEX
  8
0
 62
9
  6
CONTINUOUS
 10
10.4183450359
 20
285.0054367254
  0
VERTEX
  8
0
 62
9
  6
CONTINUOUS
 10
10.4351487181
 20
285.5888796727
  0
VERTEX
  8
0
 62
9
  6
CONTINUOUS
 10
10.5538119388
 20
286.1811284951
  0
VERTEX
  8
0
 62
9
  6
CONTINUOUS
 10
10.77759611
 20
286.7556882221
  0
VERTEX
  8
0
 62
9
  6
CONTINUOUS
 10
11.106345467
 20
287.2931100432
  0
VERTEX
  8
0
 62
9
  6
CONTINUOUS
 10
11.5337129124
 20
287.7703090167
  0
VERTEX
  8
0
 62
9
  6
CONTINUOUS
 10
12.0413713535
 20
288.1618446678
  0
VERTEX
  8
0
 62
9
  6
CONTINUOUS
 10
12.6259372545
 20
288.4593272371
  0
VERTEX
  8
0
 62
9
  6
CONTINUOUS
 10
13.2817446323
 20
288.6465167781
  0
VERTEX
  8
0
 62
9
  6
CONTINUOUS
 10
13.9563257989
 20
288.7018394665
  0
SEQEND
  0
POLYLINE
  8
0
 62
9
  6
CONTINUOUS
 66
1
 70
0
  0
VERTEX
  8
0
 62
9
  6
CONTINUOUS
 10
22.7196919915
 20
282.6687006125
  0
VERTEX
  8
0
 62
9
  6
CONTINUOUS
 10
22.493421737
 20
283.2497585572
  0
VERTEX
  8
0
 62
9
  6
CONTINUOUS
 10
22.3600773096
 20
283.8644732322
  0
VERTEX
  8
0
 62
9
  6
CONTINUOUS
 10
22.3139087084
 20
284.4831484786
  0
VERTEX
  8
0
 62
9
  6
CONTINUOUS
 10
22.3519339104
 20
285.095850337
  0
VERTEX
  8
0
 62
9
  6
CONTINUOUS
 10
22.4710197125
 20
285.6917891218
  0
VERTEX
  8
0
 62
9
  6
CONTINUOUS
 10
22.6667170207
 20
286.2521804978
  0
VERTEX
  8
0
 62
9
  6
CONTINUOUS
 10
22.9337090793
 20
286.7617715712
  0
VERTEX
  8
0
 62
9
  6
CONTINUOUS
 10
23.2645842911
 20
287.2058760885
  0
VERTEX
  8
0
 62
9
  6
CONTINUOUS
 10
23.6491925907
 20
287.5694730481
  0
VERTEX
  8
0
 62
9
  6
CONTINUOUS
 10
24.0813441387
 20
287.8431943166
  0
VERTEX
  8
0
 62
9
  6
CONTINUOUS
 10
24.5549618164
 20
288.018688162
  0
VERTEX
  8
0
 62
9
  6
CONTINUOUS
 10
25.0538234327
 20
288.0767361418
  0
SEQEND
  0
LINE
  8
0
 62
9
  6
CONTINUOUS
 10
104.6606917148
 20
99.6444370646
 11
104.9251084066
 21
95.944590947
  0
LINE
  8
0
 62
9
  6
CONTINUOUS
 10
104.9251084066
 20
95.944590947
 11
105.1547669851
 21
92.6394030658
  0
LINE
  8
0
 62
9
  6
CONTINUOUS
 10
105.1547669851
 20
92.6394030658
 11
105.3802891856
 21
89.3144454502
  0
LINE
  8
0
 62
9
  6
CONTINUOUS
 10
105.3802891856
 20
89.3144454502
 11
105.59876859
 21
86.0165408543
  0
LINE
  8
0
 62
9
  6
CONTINUOUS
 10
105.59876859
 20
86.0165408543
 11
105.8092339387
 21
82.7695758765
  0
POLYLINE
  8
0
 62
9
  6
CONTINUOUS
 66
1
 70
0
  0
VERTEX
  8
0
 62
9
  6
CONTINUOUS
 10
105.8092339387
 20
82.7695758765
  0
VERTEX
  8
0
 62
9
  6
CONTINUOUS
 10
106.0116640216
 20
79.5830096727
  0
VERTEX
  8
0
 62
9
  6
CONTINUOUS
 10
106.1111487618
 20
77.9941212373
  0
SEQEND
  0
POLYLINE
  8
0
 62
9
  6
CONTINUOUS
 66
1
 70
0
  0
VERTEX
  8
0
 62
9
  6
CONTINUOUS
 10
106.1111487618
 20
77.9941212373
  0
VERTEX
  8
0
 62
9
  6
CONTINUOUS
 10
106.4892426093
 20
71.7442747071
  0
VERTEX
  8
0
 62
9
  6
CONTINUOUS
 10
106.8035604742
 20
66.0324285003
  0
VERTEX
  8
0
 62
9
  6
CONTINUOUS
 10
107.0485906479
 20
61.0949004752
  0
VERTEX
  8
0
 62
9
  6
CONTINUOUS
 10
107.2453493942
 20
56.2478975264
  0
VERTEX
  8
0
 62
9
  6
CONTINUOUS
 10
107.4191317701
 20
50.6558056578
  0
VERTEX
  8
0
 62
9
  6
CONTINUOUS
 10
107.5446868659
 20
44.9721293473
  0
VERTEX
  8
0
 62
9
  6
CONTINUOUS
 10
107.6011345832
 20
39.6715204661
  0
VERTEX
  8
0
 62
9
  6
CONTINUOUS
 10
107.6043566059
 20
34.4742561603
  0
VERTEX
  8
0
 62
9
  6
CONTINUOUS
 10
107.5633331224
 20
29.4688723746
  0
VERTEX
  8
0
 62
9
  6
CONTINUOUS
 10
107.4764463754
 20
24.0166435421
  0
VERTEX
  8
0
 62
9
  6
CONTINUOUS
 10
107.3431300469
 20
17.423249185
  0
VERTEX
  8
0
 62
9
  6
CONTINUOUS
 10
107.1597762441
 20
9.9073012676
  0
SEQEND
  0
POLYLINE
  8
0
 62
9
  6
CONTINUOUS
 66
1
 70
0
  0
VERTEX
  8
0
 62
9
  6
CONTINUOUS
 10
106.1060128139
 20
77.9906193839
  0
VERTEX
  8
0
 62
9
  6
CONTINUOUS
 10
103.5622137428
 20
77.9727723588
  0
VERTEX
  8
0
 62
9
  6
CONTINUOUS
 10
101.1093458219
 20
78.017001493
  0
VERTEX
  8
0
 62
9
  6
CONTINUOUS
 10
98.7972789034
 20
78.1207293089
  0
VERTEX
  8
0
 62
9
  6
CONTINUOUS
 10
96.6136787289
 20
78.2833254757
  0
VERTEX
  8
0
 62
9
  6
CONTINUOUS
 10
94.5544355225
 20
78.5045367436
  0
VERTEX
  8
0
 62
9
  6
CONTINUOUS
 10
92.6467534584
 20
78.7830506938
  0
VERTEX
  8
0
 62
9
  6
CONTINUOUS
 10
90.9099178244
 20
79.1191064196
  0
VERTEX
  8
0
 62
9
  6
CONTINUOUS
 10
89.365704918
 20
79.5090451014
  0
VERTEX
  8
0
 62
9
  6
CONTINUOUS
 10
88.0355645584
 20
79.948214081
  0
VERTEX
  8
0
 62
9
  6
CONTINUOUS
 10
86.936269784
 20
80.4342537491
  0
VERTEX
  8
0
 62
9
  6
CONTINUOUS
 10
86.0765195205
 20
80.9647336641
  0
VERTEX
  8
0
 62
9
  6
CONTINUOUS
 10
85.4737916568
 20
81.5300695299
  0
SEQEND
  0
POLYLINE
  8
0
 62
9
  6
CONTINUOUS
 66
1
 70
0
  0
VERTEX
  8
0
 62
9
  6
CONTINUOUS
 10
262.4428440371
 20
77.9906562896
  0
VERTEX
  8
0
 62
9
  6
CONTINUOUS
 10
264.987846503
 20
77.972768477
  0
VERTEX
  8
0
 62
9
  6
CONTINUOUS
 10
267.4414361015
 20
78.0170014747
  0
VERTEX
  8
0
 62
9
  6
CONTINUOUS
 10
269.7536176132
 20
78.1207361141
  0
VERTEX
  8
0
 62
9
  6
CONTINUOUS
 10
271.9371033175
 20
78.2833254705
  0
VERTEX
  8
0
 62
9
  6
CONTINUOUS
 10
273.996346586
 20
78.5045366899
  0
VERTEX
  8
0
 62
9
  6
CONTINUOUS
 10
275.9040284855
 20
78.7830506747
  0
VERTEX
  8
0
 62
9
  6
CONTINUOUS
 10
277.6408641082
 20
79.1191064496
  0
VERTEX
  8
0
 62
9
  6
CONTINUOUS
 10
279.1850773373
 20
79.5090450793
  0
VERTEX
  8
0
 62
9
  6
CONTINUOUS
 10
280.5152321366
 20
79.9482195852
  0
VERTEX
  8
0
 62
9
  6
CONTINUOUS
 10
281.6145120303
 20
80.4342537612
  0
VERTEX
  8
0
 62
9
  6
CONTINUOUS
 10
282.4742124562
 20
80.9646961107
  0
VERTEX
  8
0
 62
9
  6
CONTINUOUS
 10
283.0769066079
 20
81.5299662055
  0
SEQEND
  0
LINE
  8
0
 62
7
  6
CONTINUOUS
 10
8.2790000148
 20
285.1297369009
 11
10.1307246816
 21
282.6833401985
  0
LINE
  8
0
 62
7
  6
CONTINUOUS
 10
8.1214124237
 20
285.3377569526
 11
8.1129303443
 21
285.3490304762
  0
LINE
  8
0
 62
7
  6
CONTINUOUS
 10
9.3998194925
 20
283.7547302531
 11
10.0745739998
 21
282.7663700963
  0
POLYLINE
  8
0
 62
9
  6
CONTINUOUS
 66
1
 70
0
  0
VERTEX
  8
0
 62
9
  6
CONTINUOUS
 10
8.2914894149
 20
285.1391983661
  0
VERTEX
  8
0
 62
9
  6
CONTINUOUS
 10
8.0795584259
 20
285.4518574798
  0
VERTEX
  8
0
 62
9
  6
CONTINUOUS
 10
7.9014370147
 20
285.7880059999
  0
SEQEND
  0
POLYLINE
  8
0
 62
9
  6
CONTINUOUS
 66
1
 70
0
  0
VERTEX
  8
0
 62
9
  6
CONTINUOUS
 10
48.8960607916
 20
243.4096338091
  0
VERTEX
  8
0
 62
9
  6
CONTINUOUS
 10
52.0839466374
 20
238.698913403
  0
VERTEX
  8
0
 62
9
  6
CONTINUOUS
 10
55.2639366083
 20
234.0111088363
  0
VERTEX
  8
0
 62
9
  6
CONTINUOUS
 10
58.5161065352
 20
229.2477922582
  0
VERTEX
  8
0
 62
9
  6
CONTINUOUS
 10
61.6736106438
 20
224.6125012714
  0
VERTEX
  8
0
 62
9
  6
CONTINUOUS
 10
64.554531056
 20
220.3271518056
  0
VERTEX
  8
0
 62
9
  6
CONTINUOUS
 10
67.2766684068
 20
216.2002462879
  0
VERTEX
  8
0
 62
9
  6
CONTINUOUS
 10
69.9164521576
 20
212.0820708689
  0
VERTEX
  8
0
 62
9
  6
CONTINUOUS
 10
72.4159454786
 20
208.0689987879
  0
VERTEX
  8
0
 62
9
  6
CONTINUOUS
 10
74.7196375507
 20
204.2472698154
  0
VERTEX
  8
0
 62
9
  6
CONTINUOUS
 10
76.8978324165
 20
200.503940737
  0
VERTEX
  8
0
 62
9
  6
CONTINUOUS
 10
79.0308657397
 20
196.7055700843
  0
VERTEX
  8
0
 62
9
  6
CONTINUOUS
 10
81.0346560935
 20
193.0083081619
  0
VERTEX
  8
0
 62
9
  6
CONTINUOUS
 10
82.8217356852
 20
189.5839791217
  0
VERTEX
  8
0
 62
9
  6
CONTINUOUS
 10
84.4841810964
 20
186.2609660556
  0
VERTEX
  8
0
 62
9
  6
CONTINUOUS
 10
86.0909194523
 20
182.9146080021
  0
VERTEX
  8
0
 62
9
  6
CONTINUOUS
 10
87.6230970698
 20
179.571117921
  0
VERTEX
  8
0
 62
9
  6
CONTINUOUS
 10
89.0894445622
 20
176.2043975115
  0
VERTEX
  8
0
 62
9
  6
CONTINUOUS
 10
90.475808699
 20
172.8448537911
  0
VERTEX
  8
0
 62
9
  6
CONTINUOUS
 10
91.7793686945
 20
169.4831456232
  0
VERTEX
  8
0
 62
9
  6
CONTINUOUS
 10
92.9748487386
 20
166.212341087
  0
VERTEX
  8
0
 62
9
  6
CONTINUOUS
 10
94.0168762463
 20
163.1801922561
  0
VERTEX
  8
0
 62
9
  6
CONTINUOUS
 10
94.9656838437
 20
160.2289013798
  0
VERTEX
  8
0
 62
9
  6
CONTINUOUS
 10
95.8788923326
 20
157.1998729316
  0
VERTEX
  8
0
 62
9
  6
CONTINUOUS
 10
96.7174500905
 20
154.2347205455
  0
VERTEX
  8
0
 62
9
  6
CONTINUOUS
 10
97.4471396497
 20
151.4782218321
  0
VERTEX
  8
0
 62
9
  6
CONTINUOUS
 10
98.1135477313
 20
148.7762188927
  0
VERTEX
  8
0
 62
9
  6
CONTINUOUS
 10
98.760126074
 20
145.9705986201
  0
VERTEX
  8
0
 62
9
  6
CONTINUOUS
 10
99.3564978487
 20
143.2035385515
  0
VERTEX
  8
0
 62
9
  6
CONTINUOUS
 10
99.8767138215
 20
140.6158463246
  0
VERTEX
  8
0
 62
9
  6
CONTINUOUS
 10
100.3530646743
 20
138.0654915985
  0
VERTEX
  8
0
 62
9
  6
CONTINUOUS
 10
100.8148498152
 20
135.416310973
  0
VERTEX
  8
0
 62
9
  6
CONTINUOUS
 10
101.2433615037
 20
132.7817373211
  0
VERTEX
  8
0
 62
9
  6
CONTINUOUS
 10
101.6241809845
 20
130.2657605921
  0
VERTEX
  8
0
 62
9
  6
CONTINUOUS
 10
101.97492395
 20
127.7672232974
  0
VERTEX
  8
0
 62
9
  6
CONTINUOUS
 10
102.3180112236
 20
125.1258700551
  0
VERTEX
  8
0
 62
9
  6
CONTINUOUS
 10
102.6235094485
 20
122.6167820872
  0
VERTEX
  8
0
 62
9
  6
CONTINUOUS
 10
102.8559131602
 20
120.5737956479
  0
VERTEX
  8
0
 62
9
  6
CONTINUOUS
 10
103.0568244443
 20
118.6742996229
  0
VERTEX
  8
0
 62
9
  6
CONTINUOUS
 10
103.2565605233
 20
116.6968920792
  0
VERTEX
  8
0
 62
9
  6
CONTINUOUS
 10
103.4511591351
 20
114.6587384666
  0
VERTEX
  8
0
 62
9
  6
CONTINUOUS
 10
103.6490739863
 20
112.4735428003
  0
VERTEX
  8
0
 62
9
  6
CONTINUOUS
 10
103.8429797032
 20
110.22805996
  0
VERTEX
  8
0
 62
9
  6
CONTINUOUS
 10
104.0298827826
 20
107.9549518835
  0
VERTEX
  8
0
 62
9
  6
CONTINUOUS
 10
104.2057166046
 20
105.7328835735
  0
VERTEX
  8
0
 62
9
  6
CONTINUOUS
 10
104.3618460476
 20
103.6951721226
  0
VERTEX
  8
0
 62
9
  6
CONTINUOUS
 10
104.5094346371
 20
101.7130720573
  0
VERTEX
  8
0
 62
9
  6
CONTINUOUS
 10
104.6606917148
 20
99.6444370646
  0
SEQEND
  0
POLYLINE
  8
0
 62
7
  6
CONTINUOUS
 66
1
 70
0
  0
VERTEX
  8
0
 62
7
  6
CONTINUOUS
 10
10.0745739998
 20
282.7663700963
  0
VERTEX
  8
0
 62
7
  6
CONTINUOUS
 10
12.8212946865
 20
278.7047998568
  0
VERTEX
  8
0
 62
7
  6
CONTINUOUS
 10
15.6524556335
 20
274.4580913851
  0
VERTEX
  8
0
 62
7
  6
CONTINUOUS
 10
18.6162079193
 20
269.9522562742
  0
VERTEX
  8
0
 62
7
  6
CONTINUOUS
 10
21.7466785513
 20
265.1315573306
  0
VERTEX
  8
0
 62
7
  6
CONTINUOUS
 10
25.060927476
 20
259.9645359616
  0
VERTEX
  8
0
 62
7
  6
CONTINUOUS
 10
28.7224160794
 20
254.1848595878
  0
VERTEX
  8
0
 62
7
  6
CONTINUOUS
 10
32.3191054701
 20
248.4366454096
  0
VERTEX
  8
0
 62
7
  6
CONTINUOUS
 10
35.448122125
 20
243.376867472
  0
VERTEX
  8
0
 62
7
  6
CONTINUOUS
 10
38.2969851434
 20
238.7149888937
  0
VERTEX
  8
0
 62
7
  6
CONTINUOUS
 10
40.9050030211
 20
234.3911535483
  0
VERTEX
  8
0
 62
7
  6
CONTINUOUS
 10
43.2974218835
 20
230.3661706935
  0
VERTEX
  8
0
 62
7
  6
CONTINUOUS
 10
45.5054453284
 20
226.588692963
  0
VERTEX
  8
0
 62
7
  6
CONTINUOUS
 10
47.5441618396
 20
223.0334121078
  0
VERTEX
  8
0
 62
7
  6
CONTINUOUS
 10
49.431695219
 20
219.67094366
  0
VERTEX
  8
0
 62
7
  6
CONTINUOUS
 10
51.1917943954
 20
216.4625929221
  0
VERTEX
  8
0
 62
7
  6
CONTINUOUS
 10
52.8552468916
 20
213.355954224
  0
VERTEX
  8
0
 62
7
  6
CONTINUOUS
 10
54.4181044284
 20
210.3625204342
  0
VERTEX
  8
0
 62
7
  6
CONTINUOUS
 10
55.8909446639
 20
207.4659591879
  0
VERTEX
  8
0
 62
7
  6
CONTINUOUS
 10
57.2602126091
 20
204.6971458758
  0
VERTEX
  8
0
 62
7
  6
CONTINUOUS
 10
58.5118306047
 20
202.0914874446
  0
VERTEX
  8
0
 62
7
  6
CONTINUOUS
 10
59.6631133463
 20
199.6204916568
  0
VERTEX
  8
0
 62
7
  6
CONTINUOUS
 10
60.7207486211
 20
197.2762650592
  0
VERTEX
  8
0
 62
7
  6
CONTINUOUS
 10
61.6995002236
 20
195.0315737399
  0
VERTEX
  8
0
 62
7
  6
CONTINUOUS
 10
62.6114149793
 20
192.8625457419
  0
VERTEX
  8
0
 62
7
  6
CONTINUOUS
 10
63.4662180379
 20
190.7497816967
  0
VERTEX
  8
0
 62
7
  6
CONTINUOUS
 10
64.2787243258
 20
188.6608929339
  0
VERTEX
  8
0
 62
7
  6
CONTINUOUS
 10
65.0449442736
 20
186.610761023
  0
VERTEX
  8
0
 62
7
  6
CONTINUOUS
 10
65.7651130128
 20
184.6048762114
  0
VERTEX
  8
0
 62
7
  6
CONTINUOUS
 10
66.4429723097
 20
182.6394680854
  0
VERTEX
  8
0
 62
7
  6
CONTINUOUS
 10
67.0798317035
 20
180.7177739829
  0
VERTEX
  8
0
 62
7
  6
CONTINUOUS
 10
67.6830429427
 20
178.8242108985
  0
VERTEX
  8
0
 62
7
  6
CONTINUOUS
 10
68.2580253513
 20
176.9469727628
  0
VERTEX
  8
0
 62
7
  6
CONTINUOUS
 10
68.8088012687
 20
175.0771099518
  0
VERTEX
  8
0
 62
7
  6
CONTINUOUS
 10
69.3398702296
 20
173.2024586322
  0
VERTEX
  8
0
 62
7
  6
CONTINUOUS
 10
69.8527109697
 20
171.3201589288
  0
VERTEX
  8
0
 62
7
  6
CONTINUOUS
 10
70.35014423
 20
169.4222568825
  0
VERTEX
  8
0
 62
7
  6
CONTINUOUS
 10
70.8321976096
 20
167.511747271
  0
VERTEX
  8
0
 62
7
  6
CONTINUOUS
 10
71.2999151605
 20
165.5877881904
  0
VERTEX
  8
0
 62
7
  6
CONTINUOUS
 10
71.7532379683
 20
163.6539829272
  0
VERTEX
  8
0
 62
7
  6
CONTINUOUS
 10
72.1923569006
 20
161.7130976413
  0
VERTEX
  8
0
 62
7
  6
CONTINUOUS
 10
72.617716256
 20
159.766843365
  0
VERTEX
  8
0
 62
7
  6
CONTINUOUS
 10
73.0299625718
 20
157.8159255707
  0
VERTEX
  8
0
 62
7
  6
CONTINUOUS
 10
73.4286876763
 20
155.8661292403
  0
VERTEX
  8
0
 62
7
  6
CONTINUOUS
 10
73.8136707621
 20
153.9228057104
  0
VERTEX
  8
0
 62
7
  6
CONTINUOUS
 10
74.1853840262
 20
151.9880690296
  0
VERTEX
  8
0
 62
7
  6
CONTINUOUS
 10
74.5440813471
 20
150.0652106069
  0
VERTEX
  8
0
 62
7
  6
CONTINUOUS
 10
74.8902955827
 20
148.1560771021
  0
VERTEX
  8
0
 62
7
  6
CONTINUOUS
 10
75.2244153556
 20
146.2631393293
  0
VERTEX
  8
0
 62
7
  6
CONTINUOUS
 10
75.5469681924
 20
144.3877722169
  0
VERTEX
  8
0
 62
7
  6
CONTINUOUS
 10
75.8583848282
 20
142.5318036777
  0
VERTEX
  8
0
 62
7
  6
CONTINUOUS
 10
76.1592080114
 20
140.6963077698
  0
VERTEX
  8
0
 62
7
  6
CONTINUOUS
 10
76.4498404177
 20
138.8830915559
  0
VERTEX
  8
0
 62
7
  6
CONTINUOUS
 10
76.7310128512
 20
137.0917505314
  0
VERTEX
  8
0
 62
7
  6
CONTINUOUS
 10
77.0033127283
 20
135.3225300447
  0
VERTEX
  8
0
 62
7
  6
CONTINUOUS
 10
77.2673599561
 20
133.5752284516
  0
VERTEX
  8
0
 62
7
  6
CONTINUOUS
 10
77.5237222604
 20
131.8497422303
  0
VERTEX
  8
0
 62
7
  6
CONTINUOUS
 10
77.7729331221
 20
130.1459639005
  0
VERTEX
  8
0
 62
7
  6
CONTINUOUS
 10
78.015494372
 20
128.4637752393
  0
VERTEX
  8
0
 62
7
  6
CONTINUOUS
 10
78.2518770104
 20
126.8030517153
  0
VERTEX
  8
0
 62
7
  6
CONTINUOUS
 10
78.4825498778
 20
125.1634675643
  0
VERTEX
  8
0
 62
7
  6
CONTINUOUS
 10
78.7078364896
 20
123.5454569307
  0
VERTEX
  8
0
 62
7
  6
CONTINUOUS
 10
78.9278570114
 20
121.9492829611
  0
VERTEX
  8
0
 62
7
  6
CONTINUOUS
 10
79.1425879464
 20
120.3748264735
  0
VERTEX
  8
0
 62
7
  6
CONTINUOUS
 10
79.352055822
 20
118.8215837929
  0
VERTEX
  8
0
 62
7
  6
CONTINUOUS
 10
79.5560431489
 20
117.2909194919
  0
VERTEX
  8
0
 62
7
  6
CONTINUOUS
 10
79.7544659561
 20
115.7832951897
  0
VERTEX
  8
0
 62
7
  6
CONTINUOUS
 10
79.9470224484
 20
114.3009362409
  0
VERTEX
  8
0
 62
7
  6
CONTINUOUS
 10
80.1334825644
 20
112.8456807593
  0
VERTEX
  8
0
 62
7
  6
CONTINUOUS
 10
80.3136598103
 20
111.419183498
  0
VERTEX
  8
0
 62
7
  6
CONTINUOUS
 10
80.4873730611
 20
110.0232166294
  0
VERTEX
  8
0
 62
7
  6
CONTINUOUS
 10
80.6544933045
 20
108.6592986693
  0
VERTEX
  8
0
 62
7
  6
CONTINUOUS
 10
80.8148404065
 20
107.3295405622
  0
VERTEX
  8
0
 62
7
  6
CONTINUOUS
 10
80.9685039313
 20
106.033969892
  0
VERTEX
  8
0
 62
7
  6
CONTINUOUS
 10
81.115406814
 20
104.7741262733
  0
VERTEX
  8
0
 62
7
  6
CONTINUOUS
 10
81.2559400603
 20
103.5476044405
  0
VERTEX
  8
0
 62
7
  6
CONTINUOUS
 10
81.3903592809
 20
102.3531022885
  0
VERTEX
  8
0
 62
7
  6
CONTINUOUS
 10
81.5189679654
 20
101.188842907
  0
VERTEX
  8
0
 62
7
  6
CONTINUOUS
 10
81.6420064486
 20
100.0535574369
  0
VERTEX
  8
0
 62
7
  6
CONTINUOUS
 10
81.7598758308
 20
98.9444074759
  0
VERTEX
  8
0
 62
7
  6
CONTINUOUS
 10
81.8732377342
 20
97.8558858757
  0
VERTEX
  8
0
 62
7
  6
CONTINUOUS
 10
81.9814770623
 20
96.7947097185
  0
VERTEX
  8
0
 62
7
  6
CONTINUOUS
 10
82.0844763416
 20
95.7631464427
  0
VERTEX
  8
0
 62
7
  6
CONTINUOUS
 10
82.1815937832
 20
94.7690901759
  0
VERTEX
  8
0
 62
7
  6
CONTINUOUS
 10
82.2723184943
 20
93.819751951
  0
VERTEX
  8
0
 62
7
  6
CONTINUOUS
 10
82.3564568612
 20
92.9195360339
  0
SEQEND
  0
POLYLINE
  8
0
 62
9
  6
CONTINUOUS
 66
1
 70
0
  0
VERTEX
  8
0
 62
9
  6
CONTINUOUS
 10
22.7244050453
 20
282.6725621172
  0
VERTEX
  8
0
 62
9
  6
CONTINUOUS
 10
25.8536744201
 20
277.7654888993
  0
VERTEX
  8
0
 62
9
  6
CONTINUOUS
 10
29.0435127373
 20
272.85257949
  0
VERTEX
  8
0
 62
9
  6
CONTINUOUS
 10
32.3182948276
 20
267.9318079858
  0
VERTEX
  8
0
 62
9
  6
CONTINUOUS
 10
35.686816444
 20
262.9788572994
  0
VERTEX
  8
0
 62
9
  6
CONTINUOUS
 10
39.0846825798
 20
257.9789190091
  0
VERTEX
  8
0
 62
9
  6
CONTINUOUS
 10
42.4307634874
 20
253.026732593
  0
VERTEX
  8
0
 62
9
  6
CONTINUOUS
 10
48.8960607916
 20
243.4096338091
  0
SEQEND
  0
LINE
  8
0
 62
9
  6
CONTINUOUS
 10
8.2942745639
 20
285.1413177534
 11
8.1214124237
 21
285.3377569526
  0
POLYLINE
  8
0
 62
9
  6
CONTINUOUS
 66
1
 70
0
  0
VERTEX
  8
0
 62
9
  6
CONTINUOUS
 10
13.9524964203
 20
290.8202885621
  0
VERTEX
  8
0
 62
9
  6
CONTINUOUS
 10
13.9708776439
 20
290.7968945409
  0
VERTEX
  8
0
 62
9
  6
CONTINUOUS
 10
13.9884978031
 20
290.7750778988
  0
VERTEX
  8
0
 62
9
  6
CONTINUOUS
 10
14.0053613794
 20
290.7548735745
  0
VERTEX
  8
0
 62
9
  6
CONTINUOUS
 10
14.0214723423
 20
290.7363164706
  0
VERTEX
  8
0
 62
9
  6
CONTINUOUS
 10
14.0368347269
 20
290.7194407052
  0
VERTEX
  8
0
 62
9
  6
CONTINUOUS
 10
14.0514530775
 20
290.7042791595
  0
SEQEND
  0
POLYLINE
  8
0
 62
9
  6
CONTINUOUS
 66
1
 70
0
  0
VERTEX
  8
0
 62
9
  6
CONTINUOUS
 10
159.2528707375
 20
285.7968493637
  0
VERTEX
  8
0
 62
9
  6
CONTINUOUS
 10
159.2367054113
 20
286.8595756427
  0
VERTEX
  8
0
 62
9
  6
CONTINUOUS
 10
159.2163247925
 20
287.8384499263
  0
VERTEX
  8
0
 62
9
  6
CONTINUOUS
 10
159.1921092206
 20
288.7030083456
  0
VERTEX
  8
0
 62
9
  6
CONTINUOUS
 10
159.1644184286
 20
289.4309371742
  0
VERTEX
  8
0
 62
9
  6
CONTINUOUS
 10
159.13384041
 20
289.9984526204
  0
VERTEX
  8
0
 62
9
  6
CONTINUOUS
 10
159.1010733146
 20
290.3862841853
  0
VERTEX
  8
0
 62
9
  6
CONTINUOUS
 10
159.0668203995
 20
290.5804301069
  0
SEQEND
  0
POLYLINE
  8
0
 62
9
  6
CONTINUOUS
 66
1
 70
0
  0
VERTEX
  8
0
 62
9
  6
CONTINUOUS
 10
159.4597428443
 20
285.795931886
  0
VERTEX
  8
0
 62
9
  6
CONTINUOUS
 10
159.443739593
 20
286.8587415567
  0
VERTEX
  8
0
 62
9
  6
CONTINUOUS
 10
159.4235536629
 20
287.8377126393
  0
VERTEX
  8
0
 62
9
  6
CONTINUOUS
 10
159.3995610228
 20
288.7023801933
  0
VERTEX
  8
0
 62
9
  6
CONTINUOUS
 10
159.3721230155
 20
289.430430234
  0
VERTEX
  8
0
 62
9
  6
CONTINUOUS
 10
159.3418092201
 20
289.998079421
  0
VERTEX
  8
0
 62
9
  6
CONTINUOUS
 10
159.3092976766
 20
290.3860576389
  0
VERTEX
  8
0
 62
9
  6
CONTINUOUS
 10
159.2752982718
 20
290.5803641814
  0
SEQEND
  0
LINE
  8
0
 62
9
  6
CONTINUOUS
 10
159.2614525041
 20
284.9799766543
 11
159.2528707375
 21
285.7968493637
  0
LINE
  8
0
 62
9
  6
CONTINUOUS
 10
159.4682892955
 20
284.9735316442
 11
159.4597428443
 21
285.795931886
  0
POLYLINE
  8
0
 62
9
  6
CONTINUOUS
 66
1
 70
0
  0
VERTEX
  8
0
 62
9
  6
CONTINUOUS
 10
159.2753891326
 20
247.9367714231
  0
VERTEX
  8
0
 62
9
  6
CONTINUOUS
 10
159.2755280732
 20
250.9175736036
  0
VERTEX
  8
0
 62
9
  6
CONTINUOUS
 10
159.2752379646
 20
257.8336337483
  0
SEQEND
  0
LINE
  8
0
 62
9
  6
CONTINUOUS
 10
159.2758010319
 20
63.933163
 11
159.2754090485
 21
71.0254426941
  0
POLYLINE
  8
0
 62
9
  6
CONTINUOUS
 66
1
 70
0
  0
VERTEX
  8
0
 62
9
  6
CONTINUOUS
 10
159.2752379646
 20
257.8336337483
  0
VERTEX
  8
0
 62
9
  6
CONTINUOUS
 10
159.2755167458
 20
265.8114954485
  0
VERTEX
  8
0
 62
9
  6
CONTINUOUS
 10
159.2754527434
 20
270.0220162069
  0
SEQEND
  0
LINE
  8
0
 62
9
  6
CONTINUOUS
 10
159.2753442709
 20
290.5801565264
 11
159.2754337093
 21
293.4998402366
  0
LINE
  8
0
 62
9
  6
CONTINUOUS
 10
159.2754337851
 20
293.4998400418
 11
159.27541015
 21
293.7477998707
  0
LINE
  8
0
 62
9
  6
CONTINUOUS
 10
159.2754527434
 20
270.0220162069
 11
159.2754140481
 21
279.3611830755
  0
LINE
  8
0
 62
9
  6
CONTINUOUS
 10
159.2754090485
 20
71.0254426941
 11
159.2753891326
 21
247.9367714231
  0
LINE
  8
0
 62
9
  6
CONTINUOUS
 10
159.2753928553
 20
8.9455092702
 11
159.2758010319
 21
63.933163
  0
POLYLINE
  8
0
 62
9
  6
CONTINUOUS
 66
1
 70
0
  0
VERTEX
  8
0
 62
9
  6
CONTINUOUS
 10
360.2565074215
 20
285.1413177534
  0
VERTEX
  8
0
 62
9
  6
CONTINUOUS
 10
359.735045368
 20
284.802452461
  0
VERTEX
  8
0
 62
9
  6
CONTINUOUS
 10
359.5909547206
 20
284.7310937041
  0
SEQEND
  0
POLYLINE
  8
0
 62
9
  6
CONTINUOUS
 66
1
 70
0
  0
VERTEX
  8
0
 62
9
  6
CONTINUOUS
 10
350.4964378687
 20
289.622569838
  0
VERTEX
  8
0
 62
9
  6
CONTINUOUS
 10
349.6098008609
 20
289.0510782799
  0
VERTEX
  8
0
 62
9
  6
CONTINUOUS
 10
348.7962792223
 20
288.3698029709
  0
VERTEX
  8
0
 62
9
  6
CONTINUOUS
 10
348.7805156982
 20
288.3542724917
  0
SEQEND
  0
POLYLINE
  8
0
 62
9
  6
CONTINUOUS
 66
1
 70
0
  0
VERTEX
  8
0
 62
9
  6
CONTINUOUS
 10
350.6065330288
 20
289.7399591954
  0
VERTEX
  8
0
 62
9
  6
CONTINUOUS
 10
349.7222804053
 20
289.1703554736
  0
VERTEX
  8
0
 62
9
  6
CONTINUOUS
 10
348.9107667634
 20
288.4915049647
  0
VERTEX
  8
0
 62
9
  6
CONTINUOUS
 10
348.7752851272
 20
288.3539625496
  0
SEQEND
  0
LINE
  8
0
 62
9
  6
CONTINUOUS
 10
19.7766932625
 20
288.3538698124
 11
19.6652831311
 21
288.4674390713
  0
LINE
  8
0
 62
9
  6
CONTINUOUS
 10
184.2815549117
 20
292.1051423874
 11
184.2825590754
 21
293.0252652763
  0
LINE
  8
0
 62
9
  6
CONTINUOUS
 10
184.2825590754
 20
293.0252652763
 11
184.2828751254
 21
293.0810652979
  0
LINE
  8
0
 62
9
  6
CONTINUOUS
 10
184.2587156307
 20
292.1051288842
 11
184.2586429278
 21
292.1026364417
  0
POLYLINE
  8
0
 62
9
  6
CONTINUOUS
 66
1
 70
0
  0
VERTEX
  8
0
 62
9
  6
CONTINUOUS
 10
19.6652831311
 20
288.4674390713
  0
VERTEX
  8
0
 62
9
  6
CONTINUOUS
 10
18.8714197891
 20
289.1385740187
  0
VERTEX
  8
0
 62
9
  6
CONTINUOUS
 10
17.9998129794
 20
289.7085844202
  0
SEQEND
  0
LINE
  8
0
 62
9
  6
CONTINUOUS
 10
209.4624045591
 20
282.877820334
 11
209.493228691
 21
282.28083132
  0
LINE
  8
0
 62
9
  6
CONTINUOUS
 10
209.493228691
 20
282.28083132
 11
209.5152339943
 21
281.801716497
  0
LINE
  8
0
 62
9
  6
CONTINUOUS
 10
209.5152339943
 20
281.801716497
 11
209.5364458286
 21
281.2759423364
  0
LINE
  8
0
 62
9
  6
CONTINUOUS
 10
209.5364458286
 20
281.2759423364
 11
209.5567824874
 21
280.6833339137
  0
POLYLINE
  8
0
 62
9
  6
CONTINUOUS
 66
1
 70
0
  0
VERTEX
  8
0
 62
9
  6
CONTINUOUS
 10
209.5567824874
 20
280.6833339137
  0
VERTEX
  8
0
 62
9
  6
CONTINUOUS
 10
209.5744514112
 20
280.0391623417
  0
VERTEX
  8
0
 62
9
  6
CONTINUOUS
 10
209.5817100236
 20
279.7050090859
  0
VERTEX
  8
0
 62
9
  6
CONTINUOUS
 10
209.5871892596
 20
279.3717502421
  0
SEQEND
  0
LINE
  8
0
 62
9
  6
CONTINUOUS
 10
209.2753663146
 20
279.3611834121
 11
209.2753891301
 21
8.9455092702
  0
LINE
  8
0
 62
9
  6
CONTINUOUS
 10
209.2753718354
 20
293.7477998707
 11
209.275437717
 21
290.5801557966
  0
LINE
  8
0
 62
9
  6
CONTINUOUS
 10
209.0828610139
 20
284.9738488242
 11
209.0914025357
 21
285.7959269217
  0
LINE
  8
0
 62
9
  6
CONTINUOUS
 10
209.2893583297
 20
284.9799771949
 11
209.2979405988
 21
285.796900459
  0
POLYLINE
  8
0
 62
9
  6
CONTINUOUS
 66
1
 70
0
  0
VERTEX
  8
0
 62
9
  6
CONTINUOUS
 10
209.0914025357
 20
285.7959269217
  0
VERTEX
  8
0
 62
9
  6
CONTINUOUS
 10
209.1074084584
 20
286.8587376729
  0
VERTEX
  8
0
 62
9
  6
CONTINUOUS
 10
209.1275947334
 20
287.8377099204
  0
VERTEX
  8
0
 62
9
  6
CONTINUOUS
 10
209.1515877757
 20
288.7023786014
  0
VERTEX
  8
0
 62
9
  6
CONTINUOUS
 10
209.1790314709
 20
289.4304296283
  0
VERTEX
  8
0
 62
9
  6
CONTINUOUS
 10
209.2093405424
 20
289.99807949
  0
VERTEX
  8
0
 62
9
  6
CONTINUOUS
 10
209.2418212428
 20
290.3860579694
  0
VERTEX
  8
0
 62
9
  6
CONTINUOUS
 10
209.2757689656
 20
290.58036436
  0
SEQEND
  0
POLYLINE
  8
0
 62
9
  6
CONTINUOUS
 66
1
 70
0
  0
VERTEX
  8
0
 62
9
  6
CONTINUOUS
 10
209.2979405988
 20
285.796900459
  0
VERTEX
  8
0
 62
9
  6
CONTINUOUS
 10
209.3141059968
 20
286.8596332181
  0
VERTEX
  8
0
 62
9
  6
CONTINUOUS
 10
209.3344865729
 20
287.8385061387
  0
VERTEX
  8
0
 62
9
  6
CONTINUOUS
 10
209.3587019173
 20
288.7030564905
  0
VERTEX
  8
0
 62
9
  6
CONTINUOUS
 10
209.3863917586
 20
289.4309601795
  0
VERTEX
  8
0
 62
9
  6
CONTINUOUS
 10
209.4169694698
 20
289.9984727446
  0
VERTEX
  8
0
 62
9
  6
CONTINUOUS
 10
209.4497386988
 20
290.3863231423
  0
VERTEX
  8
0
 62
9
  6
CONTINUOUS
 10
209.4839958645
 20
290.5804570613
  0
SEQEND
  0
POLYLINE
  8
0
 62
9
  6
CONTINUOUS
 66
1
 70
0
  0
VERTEX
  8
0
 62
9
  6
CONTINUOUS
 10
354.4993289121
 20
290.7042791596
  0
VERTEX
  8
0
 62
9
  6
CONTINUOUS
 10
354.5139472733
 20
290.7194407067
  0
VERTEX
  8
0
 62
9
  6
CONTINUOUS
 10
354.5293096577
 20
290.7363164575
  0
VERTEX
  8
0
 62
9
  6
CONTINUOUS
 10
354.5454206215
 20
290.7548735565
  0
VERTEX
  8
0
 62
9
  6
CONTINUOUS
 10
354.5622841973
 20
290.7750778875
  0
VERTEX
  8
0
 62
9
  6
CONTINUOUS
 10
354.57990435
 20
290.7968945366
  0
VERTEX
  8
0
 62
9
  6
CONTINUOUS
 10
354.5982855693
 20
290.8202885622
  0
SEQEND
  0
POLYLINE
  8
0
 62
9
  6
CONTINUOUS
 66
1
 70
0
  0
VERTEX
  8
0
 62
9
  6
CONTINUOUS
 10
18.0543441167
 20
289.622569838
  0
VERTEX
  8
0
 62
9
  6
CONTINUOUS
 10
18.9409791076
 20
289.051079765
  0
VERTEX
  8
0
 62
9
  6
CONTINUOUS
 10
19.7545027631
 20
288.3698029709
  0
VERTEX
  8
0
 62
9
  6
CONTINUOUS
 10
19.7702903924
 20
288.3542487416
  0
SEQEND
  0
LINE
  8
0
 62
9
  6
CONTINUOUS
 10
209.3410107152
 20
284.5535921461
 11
209.3499772793
 21
284.4674763451
  0
LINE
  8
0
 62
9
  6
CONTINUOUS
 10
209.3499772793
 20
284.4674763451
 11
209.3598631342
 21
284.3650709002
  0
LINE
  8
0
 62
9
  6
CONTINUOUS
 10
209.3598631342
 20
284.3650709002
 11
209.3710349774
 21
284.2401329465
  0
LINE
  8
0
 62
9
  6
CONTINUOUS
 10
209.3710349774
 20
284.2401329465
 11
209.3833337139
 21
284.0915334988
  0
LINE
  8
0
 62
9
  6
CONTINUOUS
 10
209.3833337139
 20
284.0915334988
 11
209.3976137751
 21
283.9052741198
  0
LINE
  8
0
 62
9
  6
CONTINUOUS
 10
209.3976137751
 20
283.9052741198
 11
209.4146158918
 21
283.6653282867
  0
LINE
  8
0
 62
9
  6
CONTINUOUS
 10
209.4146158918
 20
283.6653282867
 11
209.4330898264
 21
283.3813531825
  0
POLYLINE
  8
0
 62
9
  6
CONTINUOUS
 66
1
 70
0
  0
VERTEX
  8
0
 62
9
  6
CONTINUOUS
 10
209.4330898264
 20
283.3813531825
  0
VERTEX
  8
0
 62
9
  6
CONTINUOUS
 10
209.4525481841
 20
283.0543358226
  0
VERTEX
  8
0
 62
9
  6
CONTINUOUS
 10
209.4624045591
 20
282.877820334
  0
SEQEND
  0
POLYLINE
  8
0
 62
9
  6
CONTINUOUS
 66
1
 70
0
  0
VERTEX
  8
0
 62
9
  6
CONTINUOUS
 10
357.4107053032
 20
290.7559270938
  0
VERTEX
  8
0
 62
9
  6
CONTINUOUS
 10
357.6256146907
 20
291.0222490979
  0
VERTEX
  8
0
 62
9
  6
CONTINUOUS
 10
357.7874230113
 20
291.4445853627
  0
VERTEX
  8
0
 62
9
  6
CONTINUOUS
 10
357.8920867974
 20
291.9415938274
  0
VERTEX
  8
0
 62
9
  6
CONTINUOUS
 10
357.9278801811
 20
292.4346777543
  0
VERTEX
  8
0
 62
9
  6
CONTINUOUS
 10
357.88355555
 20
292.8497380435
  0
VERTEX
  8
0
 62
9
  6
CONTINUOUS
 10
357.7564780115
 20
293.119626745
  0
SEQEND
  0
POLYLINE
  8
0
 62
9
  6
CONTINUOUS
 66
1
 70
0
  0
VERTEX
  8
0
 62
9
  6
CONTINUOUS
 10
354.499328896
 20
290.7042791593
  0
VERTEX
  8
0
 62
9
  6
CONTINUOUS
 10
354.358432272
 20
290.5389355153
  0
VERTEX
  8
0
 62
9
  6
CONTINUOUS
 10
354.2509595814
 20
290.3795312956
  0
VERTEX
  8
0
 62
9
  6
CONTINUOUS
 10
354.1832162869
 20
290.2262074374
  0
VERTEX
  8
0
 62
9
  6
CONTINUOUS
 10
354.1362860004
 20
290.0785411296
  0
VERTEX
  8
0
 62
9
  6
CONTINUOUS
 10
354.0940196315
 20
289.9361884251
  0
VERTEX
  8
0
 62
9
  6
CONTINUOUS
 10
354.0544207499
 20
289.799053669
  0
VERTEX
  8
0
 62
9
  6
CONTINUOUS
 10
354.0054897781
 20
289.6668649518
  0
VERTEX
  8
0
 62
9
  6
CONTINUOUS
 10
353.9610870666
 20
289.53980709
  0
VERTEX
  8
0
 62
9
  6
CONTINUOUS
 10
353.933191815
 20
289.4180336999
  0
VERTEX
  8
0
 62
9
  6
CONTINUOUS
 10
353.9154478985
 20
289.3013664727
  0
VERTEX
  8
0
 62
9
  6
CONTINUOUS
 10
353.9188088925
 20
289.1900222678
  0
VERTEX
  8
0
 62
9
  6
CONTINUOUS
 10
353.9033248962
 20
289.0829691971
  0
VERTEX
  8
0
 62
9
  6
CONTINUOUS
 10
353.8602256052
 20
288.9797698085
  0
VERTEX
  8
0
 62
9
  6
CONTINUOUS
 10
353.7069258056
 20
288.8788576539
  0
VERTEX
  8
0
 62
9
  6
CONTINUOUS
 10
353.3772721912
 20
288.7788382112
  0
VERTEX
  8
0
 62
9
  6
CONTINUOUS
 10
352.813198734
 20
288.6787582509
  0
VERTEX
  8
0
 62
9
  6
CONTINUOUS
 10
351.9470051308
 20
288.5776123599
  0
VERTEX
  8
0
 62
9
  6
CONTINUOUS
 10
350.741440902
 20
288.4741625675
  0
SEQEND
  0
LINE
  8
0
 62
9
  6
CONTINUOUS
 10
360.4293555127
 20
285.3377384337
 11
360.2565074215
 21
285.1413177534
  0
POLYLINE
  8
0
 62
9
  6
CONTINUOUS
 66
1
 70
0
  0
VERTEX
  8
0
 62
9
  6
CONTINUOUS
 10
359.1504819717
 20
283.7540257947
  0
VERTEX
  8
0
 62
9
  6
CONTINUOUS
 10
359.0943367224
 20
283.695792909
  0
VERTEX
  8
0
 62
9
  6
CONTINUOUS
 10
358.5901047152
 20
283.4806356032
  0
VERTEX
  8
0
 62
9
  6
CONTINUOUS
 10
357.5759029045
 20
283.2912277839
  0
SEQEND
  0
POLYLINE
  8
0
 62
9
  6
CONTINUOUS
 66
1
 70
0
  0
VERTEX
  8
0
 62
9
  6
CONTINUOUS
 10
8.9598091662
 20
284.7311087942
  0
VERTEX
  8
0
 62
9
  6
CONTINUOUS
 10
8.8156811705
 20
284.8024845994
  0
VERTEX
  8
0
 62
9
  6
CONTINUOUS
 10
8.2942745639
 20
285.1413177534
  0
SEQEND
  0
POLYLINE
  8
0
 62
9
  6
CONTINUOUS
 66
1
 70
0
  0
VERTEX
  8
0
 62
9
  6
CONTINUOUS
 10
11.1400766823
 20
290.7559270938
  0
VERTEX
  8
0
 62
9
  6
CONTINUOUS
 10
11.4731251111
 20
290.5649649119
  0
VERTEX
  8
0
 62
9
  6
CONTINUOUS
 10
11.7962778119
 20
290.3741744585
  0
VERTEX
  8
0
 62
9
  6
CONTINUOUS
 10
12.1422546389
 20
290.1807279057
  0
VERTEX
  8
0
 62
9
  6
CONTINUOUS
 10
12.4128960295
 20
289.9931087371
  0
VERTEX
  8
0
 62
9
  6
CONTINUOUS
 10
12.4874902565
 20
289.8224514684
  0
VERTEX
  8
0
 62
9
  6
CONTINUOUS
 10
12.4664136693
 20
289.6579751757
  0
VERTEX
  8
0
 62
9
  6
CONTINUOUS
 10
12.373573796
 20
289.4902285213
  0
VERTEX
  8
0
 62
9
  6
CONTINUOUS
 10
12.3176653736
 20
289.3263572635
  0
VERTEX
  8
0
 62
9
  6
CONTINUOUS
 10
12.4022243379
 20
289.1735972458
  0
VERTEX
  8
0
 62
9
  6
CONTINUOUS
 10
12.6666346207
 20
289.0222268743
  0
VERTEX
  8
0
 62
9
  6
CONTINUOUS
 10
13.1940291213
 20
288.864022797
  0
VERTEX
  8
0
 62
9
  6
CONTINUOUS
 10
13.9566968733
 20
288.7017261314
  0
SEQEND
  0
LINE
  8
0
 62
9
  6
CONTINUOUS
 10
323.7978879694
 20
249.5748164221
 11
325.4998609342
 21
252.1061105143
  0
POLYLINE
  8
0
 62
9
  6
CONTINUOUS
 66
1
 70
0
  0
VERTEX
  8
0
 62
9
  6
CONTINUOUS
 10
325.4998609342
 20
252.1061105143
  0
VERTEX
  8
0
 62
9
  6
CONTINUOUS
 10
328.9905541776
 20
257.2753256195
  0
VERTEX
  8
0
 62
9
  6
CONTINUOUS
 10
330.7250863824
 20
259.8352400625
  0
VERTEX
  8
0
 62
9
  6
CONTINUOUS
 10
334.2127641842
 20
264.9622788419
  0
SEQEND
  0
POLYLINE
  8
0
 62
9
  6
CONTINUOUS
 66
1
 70
0
  0
VERTEX
  8
0
 62
9
  6
CONTINUOUS
 10
334.2127641842
 20
264.9622788419
  0
VERTEX
  8
0
 62
9
  6
CONTINUOUS
 10
335.9423993986
 20
267.5216492117
  0
VERTEX
  8
0
 62
9
  6
CONTINUOUS
 10
337.6447390205
 20
270.0531413748
  0
VERTEX
  8
0
 62
9
  6
CONTINUOUS
 10
339.319195335
 20
272.5682146142
  0
VERTEX
  8
0
 62
9
  6
CONTINUOUS
 10
340.9622982803
 20
275.0689450516
  0
VERTEX
  8
0
 62
9
  6
CONTINUOUS
 10
342.5862927317
 20
277.575247227
  0
VERTEX
  8
0
 62
9
  6
CONTINUOUS
 10
344.2068285136
 20
280.1115410222
  0
VERTEX
  8
0
 62
9
  6
CONTINUOUS
 10
345.8263769198
 20
282.6725621161
  0
SEQEND
  0
POLYLINE
  8
0
 62
7
  6
CONTINUOUS
 66
1
 70
0
  0
VERTEX
  8
0
 62
7
  6
CONTINUOUS
 10
360.4082792414
 20
285.303684741
  0
VERTEX
  8
0
 62
7
  6
CONTINUOUS
 10
360.4434315359
 20
285.3508685818
  0
VERTEX
  8
0
 62
7
  6
CONTINUOUS
 10
360.7281297778
 20
285.7800305832
  0
SEQEND
  0
LINE
  8
0
 62
7
  6
CONTINUOUS
 10
360.4354571222
 20
285.3458291502
 11
360.4293555127
 21
285.3377384337
  0
LINE
  8
0
 62
7
  6
CONTINUOUS
 10
358.4216806592
 20
282.6855046752
 11
360.271764837
 21
285.1297485101
  0
POLYLINE
  8
0
 62
9
  6
CONTINUOUS
 66
1
 70
0
  0
VERTEX
  8
0
 62
9
  6
CONTINUOUS
 10
17.9998129794
 20
289.7085844202
  0
VERTEX
  8
0
 62
9
  6
CONTINUOUS
 10
17.0553162727
 20
290.1716021019
  0
VERTEX
  8
0
 62
9
  6
CONTINUOUS
 10
16.0547442978
 20
290.5159636662
  0
VERTEX
  8
0
 62
9
  6
CONTINUOUS
 10
15.0110218122
 20
290.7344026669
  0
VERTEX
  8
0
 62
9
  6
CONTINUOUS
 10
13.9524964203
 20
290.8202885621
  0
SEQEND
  0
POLYLINE
  8
0
 62
9
  6
CONTINUOUS
 66
1
 70
0
  0
VERTEX
  8
0
 62
9
  6
CONTINUOUS
 10
261.3910057451
 20
9.9073011085
  0
VERTEX
  8
0
 62
9
  6
CONTINUOUS
 10
261.2073966531
 20
17.4346498473
  0
VERTEX
  8
0
 62
9
  6
CONTINUOUS
 10
261.0739920591
 20
24.0350118977
  0
VERTEX
  8
0
 62
9
  6
CONTINUOUS
 10
260.9871831992
 20
29.4881373436
  0
VERTEX
  8
0
 62
9
  6
CONTINUOUS
 10
260.9463416975
 20
34.4935663931
  0
VERTEX
  8
0
 62
9
  6
CONTINUOUS
 10
260.9498262867
 20
39.6966744767
  0
VERTEX
  8
0
 62
9
  6
CONTINUOUS
 10
261.0065769528
 20
45.00257939
  0
VERTEX
  8
0
 62
9
  6
CONTINUOUS
 10
261.1324455794
 20
50.686024504
  0
VERTEX
  8
0
 62
9
  6
CONTINUOUS
 10
261.3064493201
 20
56.2751656016
  0
VERTEX
  8
0
 62
9
  6
CONTINUOUS
 10
261.5032182644
 20
61.117653865
  0
VERTEX
  8
0
 62
9
  6
CONTINUOUS
 10
261.748084704
 20
66.0489902644
  0
VERTEX
  8
0
 62
9
  6
CONTINUOUS
 10
262.0620617583
 20
71.7532757738
  0
SEQEND
  0
POLYLINE
  8
0
 62
9
  6
CONTINUOUS
 66
1
 70
0
  0
VERTEX
  8
0
 62
9
  6
CONTINUOUS
 10
357.5759029045
 20
283.2912277839
  0
VERTEX
  8
0
 62
9
  6
CONTINUOUS
 10
355.2328032001
 20
279.5715308108
  0
VERTEX
  8
0
 62
9
  6
CONTINUOUS
 10
352.8741710808
 20
275.8166055387
  0
VERTEX
  8
0
 62
9
  6
CONTINUOUS
 10
350.5038940847
 20
272.0345842023
  0
VERTEX
  8
0
 62
9
  6
CONTINUOUS
 10
348.1108168819
 20
268.2030859121
  0
VERTEX
  8
0
 62
9
  6
CONTINUOUS
 10
345.6722986053
 20
264.2838994743
  0
VERTEX
  8
0
 62
9
  6
CONTINUOUS
 10
343.2248902866
 20
260.3329177117
  0
VERTEX
  8
0
 62
9
  6
CONTINUOUS
 10
340.7881968197
 20
256.3785451298
  0
VERTEX
  8
0
 62
9
  6
CONTINUOUS
 10
338.3866919866
 20
252.4646597421
  0
VERTEX
  8
0
 62
9
  6
CONTINUOUS
 10
336.0666205295
 20
248.6669502586
  0
VERTEX
  8
0
 62
9
  6
CONTINUOUS
 10
333.7840734501
 20
244.9177790521
  0
VERTEX
  8
0
 62
9
  6
CONTINUOUS
 10
331.5090541159
 20
241.1682346136
  0
VERTEX
  8
0
 62
9
  6
CONTINUOUS
 10
329.2555099003
 20
237.4355371883
  0
VERTEX
  8
0
 62
9
  6
CONTINUOUS
 10
327.0248821183
 20
233.7175109014
  0
VERTEX
  8
0
 62
9
  6
CONTINUOUS
 10
324.8271129835
 20
230.0228201342
  0
VERTEX
  8
0
 62
9
  6
CONTINUOUS
 10
322.6624744857
 20
226.3434266667
  0
VERTEX
  8
0
 62
9
  6
CONTINUOUS
 10
320.563810778
 20
222.7265523973
  0
VERTEX
  8
0
 62
9
  6
CONTINUOUS
 10
318.5742931093
 20
219.239510337
  0
VERTEX
  8
0
 62
9
  6
CONTINUOUS
 10
316.6578121159
 20
215.8154478251
  0
VERTEX
  8
0
 62
9
  6
CONTINUOUS
 10
314.7921251925
 20
212.408676072
  0
VERTEX
  8
0
 62
9
  6
CONTINUOUS
 10
312.9818529284
 20
209.0221752487
  0
VERTEX
  8
0
 62
9
  6
CONTINUOUS
 10
311.2219147835
 20
205.6423367906
  0
VERTEX
  8
0
 62
9
  6
CONTINUOUS
 10
309.5172031125
 20
202.2738025301
  0
VERTEX
  8
0
 62
9
  6
CONTINUOUS
 10
307.871711641
 20
198.9203948091
  0
VERTEX
  8
0
 62
9
  6
CONTINUOUS
 10
306.2824971767
 20
195.5711192027
  0
VERTEX
  8
0
 62
9
  6
CONTINUOUS
 10
304.7447499468
 20
192.2092744687
  0
VERTEX
  8
0
 62
9
  6
CONTINUOUS
 10
303.2712622119
 20
188.8549156199
  0
VERTEX
  8
0
 62
9
  6
CONTINUOUS
 10
301.8724932073
 20
185.5253589763
  0
VERTEX
  8
0
 62
9
  6
CONTINUOUS
 10
300.5471114558
 20
182.2130933855
  0
VERTEX
  8
0
 62
9
  6
CONTINUOUS
 10
299.2966832839
 20
178.9192544638
  0
VERTEX
  8
0
 62
9
  6
CONTINUOUS
 10
298.1186013688
 20
175.6364316296
  0
VERTEX
  8
0
 62
9
  6
CONTINUOUS
 10
297.0110978715
 20
172.3601880244
  0
VERTEX
  8
0
 62
9
  6
CONTINUOUS
 10
295.9709062448
 20
169.0833803768
  0
VERTEX
  8
0
 62
9
  6
CONTINUOUS
 10
294.9950533586
 20
165.8013561877
  0
VERTEX
  8
0
 62
9
  6
CONTINUOUS
 10
294.0787201237
 20
162.5028084612
  0
VERTEX
  8
0
 62
9
  6
CONTINUOUS
 10
293.2171264624
 20
159.1772481479
  0
VERTEX
  8
0
 62
9
  6
CONTINUOUS
 10
292.4072016001
 20
155.8175635689
  0
VERTEX
  8
0
 62
9
  6
CONTINUOUS
 10
291.6452287964
 20
152.4149121758
  0
VERTEX
  8
0
 62
9
  6
CONTINUOUS
 10
290.9286185815
 20
148.9639275935
  0
VERTEX
  8
0
 62
9
  6
CONTINUOUS
 10
290.2511014092
 20
145.4414288895
  0
VERTEX
  8
0
 62
9
  6
CONTINUOUS
 10
289.6194275956
 20
141.8921769299
  0
VERTEX
  8
0
 62
9
  6
CONTINUOUS
 10
289.0388561179
 20
138.37422866
  0
VERTEX
  8
0
 62
9
  6
CONTINUOUS
 10
288.4953272661
 20
134.8279242059
  0
VERTEX
  8
0
 62
9
  6
CONTINUOUS
 10
287.9797235835
 20
131.2069173074
  0
VERTEX
  8
0
 62
9
  6
CONTINUOUS
 10
287.4922158676
 20
127.5266206247
  0
VERTEX
  8
0
 62
9
  6
CONTINUOUS
 10
287.030527181
 20
123.7870085799
  0
VERTEX
  8
0
 62
9
  6
CONTINUOUS
 10
286.591299618
 20
119.9884888215
  0
VERTEX
  8
0
 62
9
  6
CONTINUOUS
 10
286.1688583031
 20
116.1087231442
  0
VERTEX
  8
0
 62
9
  6
CONTINUOUS
 10
285.7669227341
 20
112.2161704201
  0
VERTEX
  8
0
 62
9
  6
CONTINUOUS
 10
285.3894893511
 20
108.3919335696
  0
VERTEX
  8
0
 62
9
  6
CONTINUOUS
 10
285.0271077331
 20
104.5765596549
  0
VERTEX
  8
0
 62
9
  6
CONTINUOUS
 10
284.6737510099
 20
100.7282084057
  0
VERTEX
  8
0
 62
9
  6
CONTINUOUS
 10
284.3301005761
 20
96.8732151142
  0
VERTEX
  8
0
 62
9
  6
CONTINUOUS
 10
283.996717382
 20
93.0223773778
  0
VERTEX
  8
0
 62
9
  6
CONTINUOUS
 10
283.6751642271
 20
89.1784993135
  0
VERTEX
  8
0
 62
9
  6
CONTINUOUS
 10
283.3676426748
 20
85.3487181574
  0
VERTEX
  8
0
 62
9
  6
CONTINUOUS
 10
283.0762727991
 20
81.5298834522
  0
SEQEND
  0
POLYLINE
  8
0
 62
7
  6
CONTINUOUS
 66
1
 70
0
  0
VERTEX
  8
0
 62
7
  6
CONTINUOUS
 10
355.7701832167
 20
278.7654093389
  0
VERTEX
  8
0
 62
7
  6
CONTINUOUS
 10
358.4990078961
 20
282.7998288061
  0
VERTEX
  8
0
 62
7
  6
CONTINUOUS
 10
359.1509881114
 20
283.7547674286
  0
SEQEND
  0
LINE
  8
0
 62
9
  6
CONTINUOUS
 10
262.0620617583
 20
71.7532757738
 11
262.4912944104
 21
78.8207955521
  0
LINE
  8
0
 62
9
  6
CONTINUOUS
 10
262.4912944104
 20
78.8207955521
 11
262.7013360235
 21
82.1413183926
  0
LINE
  8
0
 62
9
  6
CONTINUOUS
 10
262.7013360235
 20
82.1413183926
 11
262.9164125658
 21
85.4722136169
  0
LINE
  8
0
 62
9
  6
CONTINUOUS
 10
262.9164125658
 20
85.4722136169
 11
263.0799964086
 21
87.9575132268
  0
LINE
  8
0
 62
9
  6
CONTINUOUS
 10
263.0799964086
 20
87.9575132268
 11
263.2466473531
 21
90.4461884764
  0
LINE
  8
0
 62
9
  6
CONTINUOUS
 10
263.2466473531
 20
90.4461884764
 11
263.4174872584
 21
92.9518902767
  0
LINE
  8
0
 62
9
  6
CONTINUOUS
 10
263.4174872584
 20
92.9518902767
 11
263.5918529962
 21
95.4618078554
  0
LINE
  8
0
 62
9
  6
CONTINUOUS
 10
263.5918529962
 20
95.4618078554
 11
263.7692873182
 21
97.9667833469
  0
LINE
  8
0
 62
9
  6
CONTINUOUS
 10
263.7692873182
 20
97.9667833469
 11
263.9202727817
 21
100.0597165846
  0
LINE
  8
0
 62
9
  6
CONTINUOUS
 10
263.9202727817
 20
100.0597165846
 11
264.0732831468
 21
102.1449500413
  0
LINE
  8
0
 62
9
  6
CONTINUOUS
 10
264.0732831468
 20
102.1449500413
 11
264.228989875
 21
104.2210398926
  0
POLYLINE
  8
0
 62
9
  6
CONTINUOUS
 66
1
 70
0
  0
VERTEX
  8
0
 62
9
  6
CONTINUOUS
 10
264.228989875
 20
104.2210398926
  0
VERTEX
  8
0
 62
9
  6
CONTINUOUS
 10
264.3882576599
 20
106.2868868575
  0
VERTEX
  8
0
 62
9
  6
CONTINUOUS
 10
264.4790811805
 20
107.4351180847
  0
VERTEX
  8
0
 62
9
  6
CONTINUOUS
 10
264.5741071112
 20
108.6138892676
  0
VERTEX
  8
0
 62
9
  6
CONTINUOUS
 10
264.669547575
 20
109.7714383394
  0
VERTEX
  8
0
 62
9
  6
CONTINUOUS
 10
264.7668701091
 20
110.9247562192
  0
VERTEX
  8
0
 62
9
  6
CONTINUOUS
 10
264.8662285099
 20
112.0736484268
  0
VERTEX
  8
0
 62
9
  6
CONTINUOUS
 10
264.9677743751
 20
113.2179189534
  0
VERTEX
  8
0
 62
9
  6
CONTINUOUS
 10
265.0716092677
 20
114.356867948
  0
VERTEX
  8
0
 62
9
  6
CONTINUOUS
 10
265.1780351566
 20
115.4918233546
  0
VERTEX
  8
0
 62
9
  6
CONTINUOUS
 10
265.287401958
 20
116.6246222087
  0
VERTEX
  8
0
 62
9
  6
CONTINUOUS
 10
265.3996710156
 20
117.7530169407
  0
VERTEX
  8
0
 62
9
  6
CONTINUOUS
 10
265.5148472731
 20
118.875290896
  0
VERTEX
  8
0
 62
9
  6
CONTINUOUS
 10
265.6331418994
 20
119.9917332122
  0
VERTEX
  8
0
 62
9
  6
CONTINUOUS
 10
265.7547415048
 20
121.1020767131
  0
VERTEX
  8
0
 62
9
  6
CONTINUOUS
 10
265.8797226948
 20
122.2062850439
  0
VERTEX
  8
0
 62
9
  6
CONTINUOUS
 10
266.002207392
 20
123.2581252215
  0
VERTEX
  8
0
 62
9
  6
CONTINUOUS
 10
266.1402490987
 20
124.3959038289
  0
VERTEX
  8
0
 62
9
  6
CONTINUOUS
 10
266.317496876
 20
125.8035300102
  0
VERTEX
  8
0
 62
9
  6
CONTINUOUS
 10
266.5120484148
 20
127.2936607511
  0
VERTEX
  8
0
 62
9
  6
CONTINUOUS
 10
266.7077810166
 20
128.7261901754
  0
VERTEX
  8
0
 62
9
  6
CONTINUOUS
 10
266.9101824039
 20
130.1479573079
  0
VERTEX
  8
0
 62
9
  6
CONTINUOUS
 10
267.1193377771
 20
131.5590706992
  0
VERTEX
  8
0
 62
9
  6
CONTINUOUS
 10
267.335328288
 20
132.9596368804
  0
VERTEX
  8
0
 62
9
  6
CONTINUOUS
 10
267.5546223558
 20
134.3297205699
  0
VERTEX
  8
0
 62
9
  6
CONTINUOUS
 10
267.7881399406
 20
135.7295751714
  0
VERTEX
  8
0
 62
9
  6
CONTINUOUS
 10
268.0501620689
 20
137.2389556317
  0
VERTEX
  8
0
 62
9
  6
CONTINUOUS
 10
268.3276090087
 20
138.7764029196
  0
VERTEX
  8
0
 62
9
  6
CONTINUOUS
 10
268.6108183129
 20
140.2810998992
  0
VERTEX
  8
0
 62
9
  6
CONTINUOUS
 10
268.9032628281
 20
141.7740151079
  0
VERTEX
  8
0
 62
9
  6
CONTINUOUS
 10
269.2051019128
 20
143.255646552
  0
VERTEX
  8
0
 62
9
  6
CONTINUOUS
 10
269.5165870074
 20
144.7267387236
  0
VERTEX
  8
0
 62
9
  6
CONTINUOUS
 10
269.8331063467
 20
146.1683347934
  0
VERTEX
  8
0
 62
9
  6
CONTINUOUS
 10
270.1693789735
 20
147.6402057078
  0
VERTEX
  8
0
 62
9
  6
CONTINUOUS
 10
270.5445698599
 20
149.2207712147
  0
VERTEX
  8
0
 62
9
  6
CONTINUOUS
 10
270.9413901711
 20
150.8314001805
  0
VERTEX
  8
0
 62
9
  6
CONTINUOUS
 10
271.3471673028
 20
152.4139804113
  0
VERTEX
  8
0
 62
9
  6
CONTINUOUS
 10
271.7665453622
 20
153.9891676357
  0
VERTEX
  8
0
 62
9
  6
CONTINUOUS
 10
272.1997828549
 20
155.5578298097
  0
VERTEX
  8
0
 62
9
  6
CONTINUOUS
 10
272.6473744514
 20
157.1211591031
  0
VERTEX
  8
0
 62
9
  6
CONTINUOUS
 10
273.101551562
 20
158.6553384142
  0
VERTEX
  8
0
 62
9
  6
CONTINUOUS
 10
273.5873749392
 20
160.2361933411
  0
VERTEX
  8
0
 62
9
  6
CONTINUOUS
 10
274.1369513047
 20
161.9615577262
  0
VERTEX
  8
0
 62
9
  6
CONTINUOUS
 10
274.7223046309
 20
163.736341308
  0
VERTEX
  8
0
 62
9
  6
CONTINUOUS
 10
275.3232342428
 20
165.4921666217
  0
VERTEX
  8
0
 62
9
  6
CONTINUOUS
 10
275.9474232017
 20
167.2529217501
  0
VERTEX
  8
0
 62
9
  6
CONTINUOUS
 10
276.5957084675
 20
169.0197898016
  0
VERTEX
  8
0
 62
9
  6
CONTINUOUS
 10
277.2683980397
 20
170.7926760987
  0
VERTEX
  8
0
 62
9
  6
CONTINUOUS
 10
277.9644516268
 20
172.5683453054
  0
VERTEX
  8
0
 62
9
  6
CONTINUOUS
 10
278.6887246204
 20
174.357552541
  0
VERTEX
  8
0
 62
9
  6
CONTINUOUS
 10
279.4477361803
 20
176.1745005015
  0
VERTEX
  8
0
 62
9
  6
CONTINUOUS
 10
280.2355247122
 20
178.0052180059
  0
VERTEX
  8
0
 62
9
  6
CONTINUOUS
 10
281.048053816
 20
179.8396803165
  0
VERTEX
  8
0
 62
9
  6
CONTINUOUS
 10
281.8860220541
 20
181.680500928
  0
VERTEX
  8
0
 62
9
  6
CONTINUOUS
 10
282.7489455272
 20
183.5271251965
  0
VERTEX
  8
0
 62
9
  6
CONTINUOUS
 10
283.6363404957
 20
185.3790010637
  0
VERTEX
  8
0
 62
9
  6
CONTINUOUS
 10
284.5396583302
 20
187.2202343725
  0
VERTEX
  8
0
 62
9
  6
CONTINUOUS
 10
285.4826040742
 20
189.096327233
  0
VERTEX
  8
0
 62
9
  6
CONTINUOUS
 10
286.4966906206
 20
191.0678409308
  0
VERTEX
  8
0
 62
9
  6
CONTINUOUS
 10
287.5501762824
 20
193.0724029544
  0
VERTEX
  8
0
 62
9
  6
CONTINUOUS
 10
288.6189790208
 20
195.0628347837
  0
VERTEX
  8
0
 62
9
  6
CONTINUOUS
 10
289.7113420812
 20
197.0557489474
  0
VERTEX
  8
0
 62
9
  6
CONTINUOUS
 10
290.8272924726
 20
199.051684822
  0
VERTEX
  8
0
 62
9
  6
CONTINUOUS
 10
291.9673802143
 20
201.0517721215
  0
VERTEX
  8
0
 62
9
  6
CONTINUOUS
 10
293.1227683546
 20
203.0419952434
  0
VERTEX
  8
0
 62
9
  6
CONTINUOUS
 10
294.3216203271
 20
205.0684612374
  0
VERTEX
  8
0
 62
9
  6
CONTINUOUS
 10
295.5999955265
 20
207.1915630689
  0
VERTEX
  8
0
 62
9
  6
CONTINUOUS
 10
296.9253375718
 20
209.3545832327
  0
VERTEX
  8
0
 62
9
  6
CONTINUOUS
 10
298.2737983771
 20
211.5156274737
  0
VERTEX
  8
0
 62
9
  6
CONTINUOUS
 10
299.6550152265
 20
213.6922930364
  0
VERTEX
  8
0
 62
9
  6
CONTINUOUS
 10
301.0708995889
 20
215.8878137676
  0
VERTEX
  8
0
 62
9
  6
CONTINUOUS
 10
302.5206961757
 20
218.103847676
  0
VERTEX
  8
0
 62
9
  6
CONTINUOUS
 10
303.9921229012
 20
220.3237549213
  0
VERTEX
  8
0
 62
9
  6
CONTINUOUS
 10
305.5216428572
 20
222.6058107469
  0
VERTEX
  8
0
 62
9
  6
CONTINUOUS
 10
307.1644521135
 20
225.0351442577
  0
VERTEX
  8
0
 62
9
  6
CONTINUOUS
 10
308.851592874
 20
227.5171564605
  0
VERTEX
  8
0
 62
9
  6
CONTINUOUS
 10
310.5295303398
 20
229.9753859271
  0
VERTEX
  8
0
 62
9
  6
CONTINUOUS
 10
312.2087504117
 20
232.4323508439
  0
VERTEX
  8
0
 62
9
  6
CONTINUOUS
 10
313.8810804638
 20
234.8827144376
  0
VERTEX
  8
0
 62
9
  6
CONTINUOUS
 10
315.5491096188
 20
237.3329369406
  0
VERTEX
  8
0
 62
9
  6
CONTINUOUS
 10
317.2158669188
 20
239.7942011261
  0
VERTEX
  8
0
 62
9
  6
CONTINUOUS
 10
318.8718615876
 20
242.2472488919
  0
VERTEX
  8
0
 62
9
  6
CONTINUOUS
 10
320.4953955601
 20
244.6597645876
  0
VERTEX
  8
0
 62
9
  6
CONTINUOUS
 10
323.7978879694
 20
249.5748164221
  0
SEQEND
  0
POLYLINE
  8
0
 62
7
  6
CONTINUOUS
 66
1
 70
0
  0
VERTEX
  8
0
 62
7
  6
CONTINUOUS
 10
360.7281297778
 20
285.7800305832
  0
VERTEX
  8
0
 62
7
  6
CONTINUOUS
 10
360.9525880936
 20
286.1927591915
  0
VERTEX
  8
0
 62
7
  6
CONTINUOUS
 10
361.1315356533
 20
286.5894204401
  0
VERTEX
  8
0
 62
7
  6
CONTINUOUS
 10
361.2765229125
 20
286.9737819205
  0
VERTEX
  8
0
 62
7
  6
CONTINUOUS
 10
361.3935566806
 20
287.3457586481
  0
VERTEX
  8
0
 62
7
  6
CONTINUOUS
 10
361.4888075551
 20
287.7154603057
  0
VERTEX
  8
0
 62
7
  6
CONTINUOUS
 10
361.5625718092
 20
288.077599374
  0
VERTEX
  8
0
 62
7
  6
CONTINUOUS
 10
361.6155747517
 20
288.4255544862
  0
VERTEX
  8
0
 62
7
  6
CONTINUOUS
 10
361.6512500819
 20
288.7817372032
  0
VERTEX
  8
0
 62
7
  6
CONTINUOUS
 10
361.6669579273
 20
289.1461740315
  0
VERTEX
  8
0
 62
7
  6
CONTINUOUS
 10
361.6529748378
 20
289.5922233848
  0
VERTEX
  8
0
 62
7
  6
CONTINUOUS
 10
361.5634496597
 20
290.1973459047
  0
VERTEX
  8
0
 62
7
  6
CONTINUOUS
 10
361.3190534862
 20
290.9432094964
  0
VERTEX
  8
0
 62
7
  6
CONTINUOUS
 10
360.8085042761
 20
291.7850193385
  0
VERTEX
  8
0
 62
7
  6
CONTINUOUS
 10
360.3260348271
 20
292.2848133361
  0
SEQEND
  0
POLYLINE
  8
0
 62
7
  6
CONTINUOUS
 66
1
 70
0
  0
VERTEX
  8
0
 62
7
  6
CONTINUOUS
 10
359.1492050693
 20
283.751781886
  0
VERTEX
  8
0
 62
7
  6
CONTINUOUS
 10
359.4959439622
 20
284.3803965085
  0
VERTEX
  8
0
 62
7
  6
CONTINUOUS
 10
359.7694850327
 20
285.3900725488
  0
VERTEX
  8
0
 62
7
  6
CONTINUOUS
 10
359.7556156827
 20
286.3874528371
  0
VERTEX
  8
0
 62
7
  6
CONTINUOUS
 10
359.5448846278
 20
287.1830106441
  0
VERTEX
  8
0
 62
7
  6
CONTINUOUS
 10
359.3198788337
 20
287.6668630915
  0
VERTEX
  8
0
 62
7
  6
CONTINUOUS
 10
359.2935583483
 20
287.7141944032
  0
SEQEND
  0
LINE
  8
0
 62
9
  6
CONTINUOUS
 10
360.6274727859
 20
285.7415714398
 11
360.2592926588
 21
285.1391984823
  0
POLYLINE
  8
0
 62
9
  6
CONTINUOUS
 66
1
 70
0
  0
VERTEX
  8
0
 62
9
  6
CONTINUOUS
 10
208.8959096864
 20
284.9023312007
  0
VERTEX
  8
0
 62
9
  6
CONTINUOUS
 10
208.9354196543
 20
284.8369320881
  0
VERTEX
  8
0
 62
9
  6
CONTINUOUS
 10
208.9768683183
 20
284.6663844124
  0
VERTEX
  8
0
 62
9
  6
CONTINUOUS
 10
209.0183103007
 20
284.4072205873
  0
VERTEX
  8
0
 62
9
  6
CONTINUOUS
 10
209.0599283478
 20
284.0634477118
  0
VERTEX
  8
0
 62
9
  6
CONTINUOUS
 10
209.1019397261
 20
283.6295527671
  0
VERTEX
  8
0
 62
9
  6
CONTINUOUS
 10
209.1425246321
 20
283.1173220371
  0
VERTEX
  8
0
 62
9
  6
CONTINUOUS
 10
209.1803311413
 20
282.5372651016
  0
VERTEX
  8
0
 62
9
  6
CONTINUOUS
 10
209.2136044777
 20
281.9096031493
  0
VERTEX
  8
0
 62
9
  6
CONTINUOUS
 10
209.2407063618
 20
281.2607512394
  0
VERTEX
  8
0
 62
9
  6
CONTINUOUS
 10
209.2607692532
 20
280.6052066954
  0
VERTEX
  8
0
 62
9
  6
CONTINUOUS
 10
209.2727209818
 20
279.9613324287
  0
VERTEX
  8
0
 62
9
  6
CONTINUOUS
 10
209.2753690059
 20
279.3587511746
  0
SEQEND
  0
POLYLINE
  8
0
 62
9
  6
CONTINUOUS
 66
1
 70
0
  0
VERTEX
  8
0
 62
9
  6
CONTINUOUS
 10
209.2754522949
 20
284.9171160644
  0
VERTEX
  8
0
 62
9
  6
CONTINUOUS
 10
209.2760014502
 20
284.9160059786
  0
VERTEX
  8
0
 62
9
  6
CONTINUOUS
 10
209.2768561766
 20
284.9144564633
  0
SEQEND
  0
POLYLINE
  8
0
 62
7
  6
CONTINUOUS
 66
1
 70
0
  0
VERTEX
  8
0
 62
7
  6
CONTINUOUS
 10
285.576975186
 20
29.5443255384
  0
VERTEX
  8
0
 62
7
  6
CONTINUOUS
 10
285.4938848414
 20
32.8932076866
  0
VERTEX
  8
0
 62
7
  6
CONTINUOUS
 10
285.4289925686
 20
35.8768290848
  0
VERTEX
  8
0
 62
7
  6
CONTINUOUS
 10
285.3746830386
 20
38.8018951525
  0
VERTEX
  8
0
 62
7
  6
CONTINUOUS
 10
285.3312451869
 20
41.6713694517
  0
VERTEX
  8
0
 62
7
  6
CONTINUOUS
 10
285.2989361208
 20
44.4879514937
  0
VERTEX
  8
0
 62
7
  6
CONTINUOUS
 10
285.2779826555
 20
47.2548161344
  0
VERTEX
  8
0
 62
7
  6
CONTINUOUS
 10
285.2686035024
 20
49.9736234143
  0
VERTEX
  8
0
 62
7
  6
CONTINUOUS
 10
285.2709919566
 20
52.6465724166
  0
VERTEX
  8
0
 62
7
  6
CONTINUOUS
 10
285.2853261895
 20
55.275317678
  0
VERTEX
  8
0
 62
7
  6
CONTINUOUS
 10
285.3115669058
 20
57.8616928925
  0
VERTEX
  8
0
 62
7
  6
CONTINUOUS
 10
285.3490679048
 20
60.4079643093
  0
VERTEX
  8
0
 62
7
  6
CONTINUOUS
 10
285.3971503853
 20
62.917577271
  0
VERTEX
  8
0
 62
7
  6
CONTINUOUS
 10
285.4550986249
 20
65.3891476491
  0
VERTEX
  8
0
 62
7
  6
CONTINUOUS
 10
285.5222737269
 20
67.823858162
  0
VERTEX
  8
0
 62
7
  6
CONTINUOUS
 10
285.5978949458
 20
70.2174073175
  0
VERTEX
  8
0
 62
7
  6
CONTINUOUS
 10
285.6811893671
 20
72.5668511279
  0
VERTEX
  8
0
 62
7
  6
CONTINUOUS
 10
285.771370324
 20
74.8693232901
  0
VERTEX
  8
0
 62
7
  6
CONTINUOUS
 10
285.8676383348
 20
77.1219294735
  0
VERTEX
  8
0
 62
7
  6
CONTINUOUS
 10
285.969188034
 20
79.3218156883
  0
VERTEX
  8
0
 62
7
  6
CONTINUOUS
 10
286.0751940752
 20
81.4658008534
  0
VERTEX
  8
0
 62
7
  6
CONTINUOUS
 10
286.1848889125
 20
83.5519629266
  0
VERTEX
  8
0
 62
7
  6
CONTINUOUS
 10
286.2973259922
 20
85.5755003602
  0
VERTEX
  8
0
 62
7
  6
CONTINUOUS
 10
286.4121429154
 20
87.5418501785
  0
VERTEX
  8
0
 62
7
  6
CONTINUOUS
 10
286.5287062575
 20
89.4506135128
  0
SEQEND
  0
POLYLINE
  8
0
 62
7
  6
CONTINUOUS
 66
1
 70
0
  0
VERTEX
  8
0
 62
7
  6
CONTINUOUS
 10
286.5287062575
 20
89.4506135128
  0
VERTEX
  8
0
 62
7
  6
CONTINUOUS
 10
286.6472538491
 20
91.3143956118
  0
VERTEX
  8
0
 62
7
  6
CONTINUOUS
 10
286.7684256179
 20
93.1495343821
  0
VERTEX
  8
0
 62
7
  6
CONTINUOUS
 10
286.8910790751
 20
94.9442436179
  0
VERTEX
  8
0
 62
7
  6
CONTINUOUS
 10
287.0147375692
 20
96.6972514958
  0
VERTEX
  8
0
 62
7
  6
CONTINUOUS
 10
287.1379205787
 20
98.3933886991
  0
VERTEX
  8
0
 62
7
  6
CONTINUOUS
 10
287.2591398586
 20
100.0182509291
  0
VERTEX
  8
0
 62
7
  6
CONTINUOUS
 10
287.3776921516
 20
101.5683421543
  0
VERTEX
  8
0
 62
7
  6
CONTINUOUS
 10
287.4927028167
 20
103.0376952728
  0
VERTEX
  8
0
 62
7
  6
CONTINUOUS
 10
287.603222637
 20
104.4193142719
  0
VERTEX
  8
0
 62
7
  6
CONTINUOUS
 10
287.7089215837
 20
105.7136649255
  0
SEQEND
  0
POLYLINE
  8
0
 62
9
  6
CONTINUOUS
 66
1
 70
0
  0
VERTEX
  8
0
 62
9
  6
CONTINUOUS
 10
283.0762727991
 20
81.5298834522
  0
VERTEX
  8
0
 62
9
  6
CONTINUOUS
 10
282.7056941598
 20
76.3208374552
  0
VERTEX
  8
0
 62
9
  6
CONTINUOUS
 10
282.3753903856
 20
71.1294236964
  0
VERTEX
  8
0
 62
9
  6
CONTINUOUS
 10
282.0914089546
 20
66.0051646322
  0
VERTEX
  8
0
 62
9
  6
CONTINUOUS
 10
281.8492210319
 20
60.7955175275
  0
VERTEX
  8
0
 62
9
  6
CONTINUOUS
 10
281.6483882181
 20
55.3028784878
  0
VERTEX
  8
0
 62
9
  6
CONTINUOUS
 10
281.5025922118
 20
49.706223723
  0
VERTEX
  8
0
 62
9
  6
CONTINUOUS
 10
281.4180659759
 20
44.1930372914
  0
VERTEX
  8
0
 62
9
  6
CONTINUOUS
 10
281.3860659901
 20
38.5491924137
  0
VERTEX
  8
0
 62
9
  6
CONTINUOUS
 10
281.4009402969
 20
32.5646850054
  0
VERTEX
  8
0
 62
9
  6
CONTINUOUS
 10
281.4538950981
 20
26.4182017882
  0
VERTEX
  8
0
 62
9
  6
CONTINUOUS
 10
281.5303512472
 20
20.232404315
  0
VERTEX
  8
0
 62
9
  6
CONTINUOUS
 10
281.6261615801
 20
13.9744042783
  0
SEQEND
  0
LINE
  8
0
 62
7
  6
CONTINUOUS
 10
285.7968807876
 20
88.3155428043
 11
285.8355109743
 21
88.7995715395
  0
LINE
  8
0
 62
7
  6
CONTINUOUS
 10
285.8355109743
 20
88.7995715395
 11
285.9233281519
 21
89.8604644046
  0
LINE
  8
0
 62
7
  6
CONTINUOUS
 10
287.7089215837
 20
105.7136649255
 11
287.8962757522
 21
107.942935038
  0
POLYLINE
  8
0
 62
7
  6
CONTINUOUS
 66
1
 70
0
  0
VERTEX
  8
0
 62
7
  6
CONTINUOUS
 10
285.9233281519
 20
89.8604644046
  0
VERTEX
  8
0
 62
7
  6
CONTINUOUS
 10
286.0520473836
 20
91.3475862449
  0
VERTEX
  8
0
 62
7
  6
CONTINUOUS
 10
286.1297621663
 20
92.2145001971
  0
VERTEX
  8
0
 62
7
  6
CONTINUOUS
 10
286.2146086958
 20
93.138407869
  0
VERTEX
  8
0
 62
7
  6
CONTINUOUS
 10
286.3065553068
 20
94.1159676724
  0
VERTEX
  8
0
 62
7
  6
CONTINUOUS
 10
286.4047368386
 20
95.1354951588
  0
VERTEX
  8
0
 62
7
  6
CONTINUOUS
 10
286.5098816571
 20
96.2022943562
  0
VERTEX
  8
0
 62
7
  6
CONTINUOUS
 10
286.6223391228
 20
97.3174498799
  0
VERTEX
  8
0
 62
7
  6
CONTINUOUS
 10
286.742456526
 20
98.4819143203
  0
VERTEX
  8
0
 62
7
  6
CONTINUOUS
 10
286.8706758167
 20
99.6974417045
  0
VERTEX
  8
0
 62
7
  6
CONTINUOUS
 10
287.0071158841
 20
100.962697099
  0
VERTEX
  8
0
 62
7
  6
CONTINUOUS
 10
287.1520179838
 20
102.2776766401
  0
VERTEX
  8
0
 62
7
  6
CONTINUOUS
 10
287.3053601496
 20
103.6401681194
  0
VERTEX
  8
0
 62
7
  6
CONTINUOUS
 10
287.4671712398
 20
105.0486712982
  0
VERTEX
  8
0
 62
7
  6
CONTINUOUS
 10
287.6373837363
 20
106.5010898752
  0
VERTEX
  8
0
 62
7
  6
CONTINUOUS
 10
287.8159019944
 20
107.9953567372
  0
VERTEX
  8
0
 62
7
  6
CONTINUOUS
 10
288.0026639487
 20
109.5299328877
  0
VERTEX
  8
0
 62
7
  6
CONTINUOUS
 10
288.1975652633
 20
111.103151703
  0
VERTEX
  8
0
 62
7
  6
CONTINUOUS
 10
288.4004779162
 20
112.7133733344
  0
VERTEX
  8
0
 62
7
  6
CONTINUOUS
 10
288.6112583373
 20
114.3590417287
  0
VERTEX
  8
0
 62
7
  6
CONTINUOUS
 10
288.8296959853
 20
116.0382815193
  0
VERTEX
  8
0
 62
7
  6
CONTINUOUS
 10
289.0555381813
 20
117.7491030508
  0
VERTEX
  8
0
 62
7
  6
CONTINUOUS
 10
289.2886157183
 20
119.4903355589
  0
VERTEX
  8
0
 62
7
  6
CONTINUOUS
 10
289.5286285579
 20
121.2599973768
  0
VERTEX
  8
0
 62
7
  6
CONTINUOUS
 10
289.775591342
 20
123.0585665029
  0
VERTEX
  8
0
 62
7
  6
CONTINUOUS
 10
290.0294371263
 20
124.885983605
  0
VERTEX
  8
0
 62
7
  6
CONTINUOUS
 10
290.2902469327
 20
126.7418412705
  0
VERTEX
  8
0
 62
7
  6
CONTINUOUS
 10
290.558458739
 20
128.6254517161
  0
VERTEX
  8
0
 62
7
  6
CONTINUOUS
 10
290.8347327531
 20
130.5370969674
  0
VERTEX
  8
0
 62
7
  6
CONTINUOUS
 10
291.1197410721
 20
132.4767890522
  0
VERTEX
  8
0
 62
7
  6
CONTINUOUS
 10
291.4142107494
 20
134.4445599694
  0
VERTEX
  8
0
 62
7
  6
CONTINUOUS
 10
291.718917906
 20
136.4404049063
  0
VERTEX
  8
0
 62
7
  6
CONTINUOUS
 10
292.0347020512
 20
138.46435894
  0
VERTEX
  8
0
 62
7
  6
CONTINUOUS
 10
292.3625353688
 20
140.5169021536
  0
VERTEX
  8
0
 62
7
  6
CONTINUOUS
 10
292.7031437845
 20
142.5965981037
  0
VERTEX
  8
0
 62
7
  6
CONTINUOUS
 10
293.0574730345
 20
144.7030539237
  0
VERTEX
  8
0
 62
7
  6
CONTINUOUS
 10
293.4261198638
 20
146.8335400583
  0
VERTEX
  8
0
 62
7
  6
CONTINUOUS
 10
293.8098657378
 20
148.9862730557
  0
VERTEX
  8
0
 62
7
  6
CONTINUOUS
 10
294.2092761345
 20
151.1579734063
  0
VERTEX
  8
0
 62
7
  6
CONTINUOUS
 10
294.6251701135
 20
153.3462749835
  0
VERTEX
  8
0
 62
7
  6
CONTINUOUS
 10
295.0579522894
 20
155.5465479163
  0
VERTEX
  8
0
 62
7
  6
CONTINUOUS
 10
295.5083311196
 20
157.7558064963
  0
VERTEX
  8
0
 62
7
  6
CONTINUOUS
 10
295.9760993713
 20
159.9667839835
  0
VERTEX
  8
0
 62
7
  6
CONTINUOUS
 10
296.4608098055
 20
162.1717365007
  0
VERTEX
  8
0
 62
7
  6
CONTINUOUS
 10
296.9633278821
 20
164.3692660446
  0
VERTEX
  8
0
 62
7
  6
CONTINUOUS
 10
297.4842463908
 20
166.5566460154
  0
VERTEX
  8
0
 62
7
  6
CONTINUOUS
 10
298.0239013845
 20
168.7301279871
  0
VERTEX
  8
0
 62
7
  6
CONTINUOUS
 10
298.5817772268
 20
170.8829580401
  0
VERTEX
  8
0
 62
7
  6
CONTINUOUS
 10
299.1607362941
 20
173.0215053639
  0
VERTEX
  8
0
 62
7
  6
CONTINUOUS
 10
299.7616776804
 20
175.1452522464
  0
VERTEX
  8
0
 62
7
  6
CONTINUOUS
 10
300.3895624136
 20
177.2682204387
  0
VERTEX
  8
0
 62
7
  6
CONTINUOUS
 10
301.0476967607
 20
179.3969692606
  0
VERTEX
  8
0
 62
7
  6
CONTINUOUS
 10
301.7445307932
 20
181.5526503446
  0
VERTEX
  8
0
 62
7
  6
CONTINUOUS
 10
302.4903969915
 20
183.7584200194
  0
VERTEX
  8
0
 62
7
  6
CONTINUOUS
 10
303.2883146098
 20
186.0133356812
  0
VERTEX
  8
0
 62
7
  6
CONTINUOUS
 10
304.1449552759
 20
188.3264307447
  0
VERTEX
  8
0
 62
7
  6
CONTINUOUS
 10
305.061078394
 20
190.6905492946
  0
VERTEX
  8
0
 62
7
  6
CONTINUOUS
 10
306.0321332225
 20
193.0870063902
  0
VERTEX
  8
0
 62
7
  6
CONTINUOUS
 10
307.0785785469
 20
195.560017286
  0
VERTEX
  8
0
 62
7
  6
CONTINUOUS
 10
308.2136428019
 20
198.1355542062
  0
VERTEX
  8
0
 62
7
  6
CONTINUOUS
 10
309.4556960634
 20
200.8493176285
  0
VERTEX
  8
0
 62
7
  6
CONTINUOUS
 10
310.8311682845
 20
203.7496763773
  0
VERTEX
  8
0
 62
7
  6
CONTINUOUS
 10
312.3379814312
 20
206.8221335238
  0
VERTEX
  8
0
 62
7
  6
CONTINUOUS
 10
313.9871313115
 20
210.079716069
  0
VERTEX
  8
0
 62
7
  6
CONTINUOUS
 10
315.7655515298
 20
213.4882961073
  0
VERTEX
  8
0
 62
7
  6
CONTINUOUS
 10
317.6473107429
 20
216.993437519
  0
VERTEX
  8
0
 62
7
  6
CONTINUOUS
 10
319.6759384467
 20
220.670781864
  0
VERTEX
  8
0
 62
7
  6
CONTINUOUS
 10
321.8764200383
 20
224.5591088141
  0
VERTEX
  8
0
 62
7
  6
CONTINUOUS
 10
324.2824619273
 20
228.7134819429
  0
VERTEX
  8
0
 62
7
  6
CONTINUOUS
 10
326.9401822282
 20
233.2104842008
  0
VERTEX
  8
0
 62
7
  6
CONTINUOUS
 10
329.8351990686
 20
238.0249140138
  0
VERTEX
  8
0
 62
7
  6
CONTINUOUS
 10
332.9810071404
 20
243.1789398743
  0
VERTEX
  8
0
 62
7
  6
CONTINUOUS
 10
336.3378858399
 20
248.6073989912
  0
VERTEX
  8
0
 62
7
  6
CONTINUOUS
 10
339.9647657915
 20
254.4014721068
  0
VERTEX
  8
0
 62
7
  6
CONTINUOUS
 10
343.5847492992
 20
260.1133476004
  0
VERTEX
  8
0
 62
7
  6
CONTINUOUS
 10
346.8835419029
 20
265.2546238061
  0
VERTEX
  8
0
 62
7
  6
CONTINUOUS
 10
349.9971270526
 20
270.0479582943
  0
VERTEX
  8
0
 62
7
  6
CONTINUOUS
 10
352.9504081629
 20
274.5367360536
  0
VERTEX
  8
0
 62
7
  6
CONTINUOUS
 10
355.7701832167
 20
278.7654093389
  0
SEQEND
  0
LINE
  8
0
 62
7
  6
CONTINUOUS
 10
287.8962757522
 20
107.942935038
 11
288.0286816299
 21
109.4637905408
  0
LINE
  8
0
 62
7
  6
CONTINUOUS
 10
288.0286816299
 20
109.4637905408
 11
288.0857872258
 21
110.1011860265
  0
POLYLINE
  8
0
 62
9
  6
CONTINUOUS
 66
1
 70
0
  0
VERTEX
  8
0
 62
9
  6
CONTINUOUS
 10
334.6362400118
 20
287.7764584324
  0
VERTEX
  8
0
 62
9
  6
CONTINUOUS
 10
334.8596359836
 20
288.5457134136
  0
VERTEX
  8
0
 62
9
  6
CONTINUOUS
 10
335.1843474216
 20
289.3635640205
  0
VERTEX
  8
0
 62
9
  6
CONTINUOUS
 10
335.5570102656
 20
290.0419730965
  0
VERTEX
  8
0
 62
9
  6
CONTINUOUS
 10
335.9708051897
 20
290.5602908915
  0
VERTEX
  8
0
 62
9
  6
CONTINUOUS
 10
336.419073946
 20
290.9014912468
  0
VERTEX
  8
0
 62
9
  6
CONTINUOUS
 10
336.8830378809
 20
291.048172682
  0
SEQEND
  0
POLYLINE
  8
0
 62
9
  6
CONTINUOUS
 66
1
 70
0
  0
VERTEX
  8
0
 62
9
  6
CONTINUOUS
 10
354.5945097522
 20
288.7018369025
  0
VERTEX
  8
0
 62
9
  6
CONTINUOUS
 10
355.35685023
 20
288.8640238479
  0
VERTEX
  8
0
 62
9
  6
CONTINUOUS
 10
355.8840645134
 20
289.0221584039
  0
VERTEX
  8
0
 62
9
  6
CONTINUOUS
 10
356.1484839285
 20
289.1735037046
  0
VERTEX
  8
0
 62
9
  6
CONTINUOUS
 10
356.233114497
 20
289.3262703476
  0
VERTEX
  8
0
 62
9
  6
CONTINUOUS
 10
356.1772045641
 20
289.4901746939
  0
VERTEX
  8
0
 62
9
  6
CONTINUOUS
 10
356.0843584843
 20
289.6579625869
  0
VERTEX
  8
0
 62
9
  6
CONTINUOUS
 10
356.0633039329
 20
289.8224678337
  0
VERTEX
  8
0
 62
9
  6
CONTINUOUS
 10
356.137919292
 20
289.9931429032
  0
VERTEX
  8
0
 62
9
  6
CONTINUOUS
 10
356.4085570565
 20
290.1807587478
  0
VERTEX
  8
0
 62
9
  6
CONTINUOUS
 10
356.7545225626
 20
290.3741937241
  0
VERTEX
  8
0
 62
9
  6
CONTINUOUS
 10
357.0776664991
 20
290.5649750903
  0
VERTEX
  8
0
 62
9
  6
CONTINUOUS
 10
357.4107053032
 20
290.7559270938
  0
SEQEND
  0
POLYLINE
  8
0
 62
7
  6
CONTINUOUS
 66
1
 70
0
  0
VERTEX
  8
0
 62
7
  6
CONTINUOUS
 10
351.6934826498
 20
288.5796883685
  0
VERTEX
  8
0
 62
7
  6
CONTINUOUS
 10
351.7498991058
 20
288.5913644759
  0
VERTEX
  8
0
 62
7
  6
CONTINUOUS
 10
351.8129408173
 20
288.6031120853
  0
VERTEX
  8
0
 62
7
  6
CONTINUOUS
 10
351.7131688286
 20
288.5891314221
  0
VERTEX
  8
0
 62
7
  6
CONTINUOUS
 10
351.4673005737
 20
288.5601128134
  0
VERTEX
  8
0
 62
7
  6
CONTINUOUS
 10
351.0764821077
 20
288.5210081152
  0
VERTEX
  8
0
 62
7
  6
CONTINUOUS
 10
350.5516040141
 20
288.4757950702
  0
VERTEX
  8
0
 62
7
  6
CONTINUOUS
 10
349.8808069308
 20
288.4253559308
  0
VERTEX
  8
0
 62
7
  6
CONTINUOUS
 10
349.0568435136
 20
288.3706465364
  0
VERTEX
  8
0
 62
7
  6
CONTINUOUS
 10
348.0633309335
 20
288.3117750854
  0
VERTEX
  8
0
 62
7
  6
CONTINUOUS
 10
346.8914989806
 20
288.249165111
  0
VERTEX
  8
0
 62
7
  6
CONTINUOUS
 10
345.538678254
 20
288.1834425241
  0
VERTEX
  8
0
 62
7
  6
CONTINUOUS
 10
343.9956021527
 20
288.1148205632
  0
SEQEND
  0
POLYLINE
  8
0
 62
7
  6
CONTINUOUS
 66
1
 70
0
  0
VERTEX
  8
0
 62
7
  6
CONTINUOUS
 10
357.5759489454
 20
283.2911882053
  0
VERTEX
  8
0
 62
7
  6
CONTINUOUS
 10
357.027417993
 20
283.2048181139
  0
VERTEX
  8
0
 62
7
  6
CONTINUOUS
 10
356.2049275941
 20
283.1252091663
  0
VERTEX
  8
0
 62
7
  6
CONTINUOUS
 10
355.1078503009
 20
283.0440964934
  0
VERTEX
  8
0
 62
7
  6
CONTINUOUS
 10
353.7453008636
 20
282.9646375413
  0
VERTEX
  8
0
 62
7
  6
CONTINUOUS
 10
352.1256751589
 20
282.8874920387
  0
VERTEX
  8
0
 62
7
  6
CONTINUOUS
 10
350.2590545524
 20
282.8120877514
  0
VERTEX
  8
0
 62
7
  6
CONTINUOUS
 10
348.1584470915
 20
282.7420058453
  0
VERTEX
  8
0
 62
7
  6
CONTINUOUS
 10
345.8322083294
 20
282.6678801221
  0
SEQEND
  0
POLYLINE
  8
0
 62
9
  6
CONTINUOUS
 66
1
 70
0
  0
VERTEX
  8
0
 62
9
  6
CONTINUOUS
 10
10.974879078
 20
283.2912277861
  0
VERTEX
  8
0
 62
9
  6
CONTINUOUS
 10
9.9610584816
 20
283.480565458
  0
VERTEX
  8
0
 62
9
  6
CONTINUOUS
 10
9.4566367886
 20
283.6956203848
  0
VERTEX
  8
0
 62
9
  6
CONTINUOUS
 10
9.400317741
 20
283.7539997424
  0
SEQEND
  0
POLYLINE
  8
0
 62
9
  6
CONTINUOUS
 66
1
 70
0
  0
VERTEX
  8
0
 62
9
  6
CONTINUOUS
 10
209.2768561766
 20
284.9144564633
  0
VERTEX
  8
0
 62
9
  6
CONTINUOUS
 10
209.2794617533
 20
284.9105601629
  0
VERTEX
  8
0
 62
9
  6
CONTINUOUS
 10
209.2812706083
 20
284.907218539
  0
VERTEX
  8
0
 62
9
  6
CONTINUOUS
 10
209.2834480431
 20
284.9025175914
  0
VERTEX
  8
0
 62
9
  6
CONTINUOUS
 10
209.2860114762
 20
284.8960592011
  0
VERTEX
  8
0
 62
9
  6
CONTINUOUS
 10
209.2890143097
 20
284.8872869513
  0
VERTEX
  8
0
 62
9
  6
CONTINUOUS
 10
209.2925424831
 20
284.8754365161
  0
VERTEX
  8
0
 62
9
  6
CONTINUOUS
 10
209.2965325876
 20
284.859979152
  0
VERTEX
  8
0
 62
9
  6
CONTINUOUS
 10
209.3009331701
 20
284.8403693934
  0
VERTEX
  8
0
 62
9
  6
CONTINUOUS
 10
209.3057854273
 20
284.8157701727
  0
VERTEX
  8
0
 62
9
  6
CONTINUOUS
 10
209.3113530316
 20
284.7837811234
  0
VERTEX
  8
0
 62
9
  6
CONTINUOUS
 10
209.3169118569
 20
284.7480574287
  0
VERTEX
  8
0
 62
9
  6
CONTINUOUS
 10
209.3216750616
 20
284.7144768162
  0
VERTEX
  8
0
 62
9
  6
CONTINUOUS
 10
209.3259113541
 20
284.6824169412
  0
VERTEX
  8
0
 62
9
  6
CONTINUOUS
 10
209.3294460266
 20
284.6542082852
  0
VERTEX
  8
0
 62
9
  6
CONTINUOUS
 10
209.3328652075
 20
284.625746089
  0
VERTEX
  8
0
 62
9
  6
CONTINUOUS
 10
209.3368114197
 20
284.5915422257
  0
VERTEX
  8
0
 62
9
  6
CONTINUOUS
 10
209.3410107152
 20
284.5535921461
  0
SEQEND
  0
POLYLINE
  8
0
 62
7
  6
CONTINUOUS
 66
1
 70
0
  0
VERTEX
  8
0
 62
7
  6
CONTINUOUS
 10
287.4547380365
 20
89.2851960869
  0
VERTEX
  8
0
 62
7
  6
CONTINUOUS
 10
286.127450611
 20
76.6542042324
  0
VERTEX
  8
0
 62
7
  6
CONTINUOUS
 10
285.6411275928
 20
71.4368488281
  0
SEQEND
  0
POLYLINE
  8
0
 62
7
  6
CONTINUOUS
 66
1
 70
0
  0
VERTEX
  8
0
 62
7
  6
CONTINUOUS
 10
297.4336966413
 20
166.3443834297
  0
VERTEX
  8
0
 62
7
  6
CONTINUOUS
 10
296.6282450327
 20
161.1448897603
  0
VERTEX
  8
0
 62
7
  6
CONTINUOUS
 10
295.3761958832
 20
152.314422092
  0
VERTEX
  8
0
 62
7
  6
CONTINUOUS
 10
294.1268592573
 20
143.0132026949
  0
VERTEX
  8
0
 62
7
  6
CONTINUOUS
 10
292.8286141554
 20
133.2980283331
  0
VERTEX
  8
0
 62
7
  6
CONTINUOUS
 10
291.5062558764
 20
123.1090306375
  0
VERTEX
  8
0
 62
7
  6
CONTINUOUS
 10
290.1631046989
 20
112.4371675578
  0
VERTEX
  8
0
 62
7
  6
CONTINUOUS
 10
288.8119646848
 20
101.1867569017
  0
VERTEX
  8
0
 62
7
  6
CONTINUOUS
 10
287.4547380365
 20
89.2851960869
  0
SEQEND
  0
POLYLINE
  8
0
 62
9
  6
CONTINUOUS
 66
1
 70
0
  0
VERTEX
  8
0
 62
9
  6
CONTINUOUS
 10
17.0005464841
 20
288.5403377477
  0
VERTEX
  8
0
 62
9
  6
CONTINUOUS
 10
15.9280956117
 20
288.6535895115
  0
VERTEX
  8
0
 62
9
  6
CONTINUOUS
 10
15.2348050248
 20
288.7642131073
  0
VERTEX
  8
0
 62
9
  6
CONTINUOUS
 10
14.8560911714
 20
288.8735804686
  0
VERTEX
  8
0
 62
9
  6
CONTINUOUS
 10
14.6916547085
 20
288.983780056
  0
VERTEX
  8
0
 62
9
  6
CONTINUOUS
 10
14.6338106968
 20
289.0970548344
  0
VERTEX
  8
0
 62
9
  6
CONTINUOUS
 10
14.6401323734
 20
289.2143132229
  0
VERTEX
  8
0
 62
9
  6
CONTINUOUS
 10
14.6278263409
 20
289.3372725125
  0
VERTEX
  8
0
 62
9
  6
CONTINUOUS
 10
14.6103075643
 20
289.4657490522
  0
VERTEX
  8
0
 62
9
  6
CONTINUOUS
 10
14.567518793
 20
289.6002283706
  0
VERTEX
  8
0
 62
9
  6
CONTINUOUS
 10
14.5170832768
 20
289.7404202199
  0
VERTEX
  8
0
 62
9
  6
CONTINUOUS
 10
14.4729539449
 20
289.8861269885
  0
VERTEX
  8
0
 62
9
  6
CONTINUOUS
 10
14.4260845087
 20
290.0375562967
  0
VERTEX
  8
0
 62
9
  6
CONTINUOUS
 10
14.3790424186
 20
290.1947110827
  0
VERTEX
  8
0
 62
9
  6
CONTINUOUS
 10
14.3109393873
 20
290.3580077813
  0
VERTEX
  8
0
 62
9
  6
CONTINUOUS
 10
14.1992388854
 20
290.5279159836
  0
VERTEX
  8
0
 62
9
  6
CONTINUOUS
 10
14.0514530894
 20
290.7042791593
  0
SEQEND
  0
POLYLINE
  8
0
 62
7
  6
CONTINUOUS
 66
1
 70
0
  0
VERTEX
  8
0
 62
7
  6
CONTINUOUS
 10
13.9566968733
 20
288.7017261314
  0
VERTEX
  8
0
 62
7
  6
CONTINUOUS
 10
14.4658801436
 20
288.6341331794
  0
VERTEX
  8
0
 62
7
  6
CONTINUOUS
 10
15.2341772628
 20
288.5630214892
  0
VERTEX
  8
0
 62
7
  6
CONTINUOUS
 10
16.2648790727
 20
288.4881704355
  0
SEQEND
  0
POLYLINE
  8
0
 62
7
  6
CONTINUOUS
 66
1
 70
0
  0
VERTEX
  8
0
 62
7
  6
CONTINUOUS
 10
205.9679635897
 20
292.5509495892
  0
VERTEX
  8
0
 62
7
  6
CONTINUOUS
 10
205.9755327737
 20
292.5521422231
  0
VERTEX
  8
0
 62
7
  6
CONTINUOUS
 10
205.9596787816
 20
292.5500229561
  0
VERTEX
  8
0
 62
7
  6
CONTINUOUS
 10
205.9094034353
 20
292.5440916827
  0
VERTEX
  8
0
 62
7
  6
CONTINUOUS
 10
205.8314678634
 20
292.5359883911
  0
VERTEX
  8
0
 62
7
  6
CONTINUOUS
 10
205.7261674674
 20
292.5262336173
  0
VERTEX
  8
0
 62
7
  6
CONTINUOUS
 10
205.596257393
 20
292.5154215274
  0
VERTEX
  8
0
 62
7
  6
CONTINUOUS
 10
205.441125472
 20
292.5037446383
  0
VERTEX
  8
0
 62
7
  6
CONTINUOUS
 10
205.261032681
 20
292.4914157886
  0
VERTEX
  8
0
 62
7
  6
CONTINUOUS
 10
205.0551554976
 20
292.4785202451
  0
SEQEND
  0
LINE
  8
0
 62
9
  6
CONTINUOUS
 10
159.275390945
 20
284.9787014036
 11
159.2813938419
 21
284.9796029153
  0
LINE
  8
0
 62
9
  6
CONTINUOUS
 10
158.9143257461
 20
284.9853298151
 11
158.9229225688
 21
284.9863213553
  0
POLYLINE
  8
0
 62
9
  6
CONTINUOUS
 66
1
 70
0
  0
VERTEX
  8
0
 62
9
  6
CONTINUOUS
 10
354.5982855693
 20
290.8202885622
  0
VERTEX
  8
0
 62
9
  6
CONTINUOUS
 10
353.557547105
 20
290.7369535921
  0
VERTEX
  8
0
 62
9
  6
CONTINUOUS
 10
352.5297019571
 20
290.5251744106
  0
VERTEX
  8
0
 62
9
  6
CONTINUOUS
 10
351.544851445
 20
290.1919409804
  0
VERTEX
  8
0
 62
9
  6
CONTINUOUS
 10
350.6065330288
 20
289.7399591954
  0
SEQEND
  0
POLYLINE
  8
0
 62
9
  6
CONTINUOUS
 66
1
 70
0
  0
VERTEX
  8
0
 62
9
  6
CONTINUOUS
 10
354.4993899602
 20
290.7042802256
  0
VERTEX
  8
0
 62
9
  6
CONTINUOUS
 10
353.4557859629
 20
290.6215714807
  0
VERTEX
  8
0
 62
9
  6
CONTINUOUS
 10
352.4249962151
 20
290.4097435882
  0
VERTEX
  8
0
 62
9
  6
CONTINUOUS
 10
351.4373625844
 20
290.0758329561
  0
VERTEX
  8
0
 62
9
  6
CONTINUOUS
 10
350.4964378687
 20
289.622569838
  0
SEQEND
  0
POLYLINE
  8
0
 62
7
  6
CONTINUOUS
 66
1
 70
0
  0
VERTEX
  8
0
 62
7
  6
CONTINUOUS
 10
352.2858025033
 20
288.4881600958
  0
VERTEX
  8
0
 62
7
  6
CONTINUOUS
 10
353.3163570855
 20
288.5630163181
  0
VERTEX
  8
0
 62
7
  6
CONTINUOUS
 10
354.08485282
 20
288.6341709213
  0
VERTEX
  8
0
 62
7
  6
CONTINUOUS
 10
354.5945097522
 20
288.7018369025
  0
SEQEND
  0
LINE
  8
0
 62
9
  6
CONTINUOUS
 10
350.741440902
 20
288.4741625675
 11
349.1358906123
 21
288.3664830919
  0
LINE
  8
0
 62
7
  6
CONTINUOUS
 10
351.0028492095
 20
288.4102412456
 11
352.2858025033
 21
288.4881600958
  0
LINE
  8
0
 62
9
  6
CONTINUOUS
 10
349.1358906123
 20
288.3664830919
 11
347.1327488265
 21
288.2556319536
  0
POLYLINE
  8
0
 62
9
  6
CONTINUOUS
 66
1
 70
0
  0
VERTEX
  8
0
 62
9
  6
CONTINUOUS
 10
347.1327488265
 20
288.2556319536
  0
VERTEX
  8
0
 62
9
  6
CONTINUOUS
 10
344.7038871338
 20
288.1417689529
  0
VERTEX
  8
0
 62
9
  6
CONTINUOUS
 10
341.8802590256
 20
288.0256629684
  0
VERTEX
  8
0
 62
9
  6
CONTINUOUS
 10
338.6754562079
 20
287.9081559831
  0
VERTEX
  8
0
 62
9
  6
CONTINUOUS
 10
338.1571155875
 20
287.8923842583
  0
SEQEND
  0
LINE
  8
0
 62
9
  6
CONTINUOUS
 10
209.2753690059
 20
279.3587511746
 11
209.5871892596
 21
279.3717502421
  0
LINE
  8
0
 62
7
  6
CONTINUOUS
 10
343.9956021527
 20
288.1148205632
 11
342.2494594389
 21
288.0431990717
  0
POLYLINE
  8
0
 62
7
  6
CONTINUOUS
 66
1
 70
0
  0
VERTEX
  8
0
 62
7
  6
CONTINUOUS
 10
343.497907581
 20
288.0766928133
  0
VERTEX
  8
0
 62
7
  6
CONTINUOUS
 10
345.7154893292
 20
288.1626693784
  0
VERTEX
  8
0
 62
7
  6
CONTINUOUS
 10
347.70550685
 20
288.2469196387
  0
VERTEX
  8
0
 62
7
  6
CONTINUOUS
 10
349.4725587418
 20
288.3296711767
  0
VERTEX
  8
0
 62
7
  6
CONTINUOUS
 10
351.0028492095
 20
288.4102412456
  0
SEQEND
  0
LINE
  8
0
 62
9
  6
CONTINUOUS
 10
209.2754522949
 20
284.9171160644
 11
208.8959096864
 21
284.9023312007
  0
POLYLINE
  8
0
 62
7
  6
CONTINUOUS
 66
1
 70
0
  0
VERTEX
  8
0
 62
7
  6
CONTINUOUS
 10
342.2494594389
 20
288.0431990717
  0
VERTEX
  8
0
 62
7
  6
CONTINUOUS
 10
340.299800096
 20
287.96883429
  0
VERTEX
  8
0
 62
7
  6
CONTINUOUS
 10
338.1571155875
 20
287.8923842583
  0
VERTEX
  8
0
 62
7
  6
CONTINUOUS
 10
335.8278422277
 20
287.8142598312
  0
VERTEX
  8
0
 62
7
  6
CONTINUOUS
 10
333.3108342954
 20
287.7344123625
  0
VERTEX
  8
0
 62
7
  6
CONTINUOUS
 10
330.6102972474
 20
287.6528803589
  0
VERTEX
  8
0
 62
7
  6
CONTINUOUS
 10
327.7314907341
 20
287.5696804757
  0
VERTEX
  8
0
 62
7
  6
CONTINUOUS
 10
324.6985130283
 20
287.4853756005
  0
VERTEX
  8
0
 62
7
  6
CONTINUOUS
 10
321.5194447765
 20
287.3999596922
  0
VERTEX
  8
0
 62
7
  6
CONTINUOUS
 10
318.1913730212
 20
287.3131639114
  0
VERTEX
  8
0
 62
7
  6
CONTINUOUS
 10
314.7214345714
 20
287.2249837069
  0
VERTEX
  8
0
 62
7
  6
CONTINUOUS
 10
311.1155916018
 20
287.1353901458
  0
SEQEND
  0
LINE
  8
0
 62
7
  6
CONTINUOUS
 10
209.2701973185
 20
284.9796180805
 11
209.2697702284
 21
284.9796021776
  0
POLYLINE
  8
0
 62
9
  6
CONTINUOUS
 66
1
 70
0
  0
VERTEX
  8
0
 62
9
  6
CONTINUOUS
 10
345.8263769198
 20
282.6725621161
  0
VERTEX
  8
0
 62
9
  6
CONTINUOUS
 10
343.4098181374
 20
282.5891626927
  0
VERTEX
  8
0
 62
9
  6
CONTINUOUS
 10
340.8718565642
 20
282.4995208595
  0
VERTEX
  8
0
 62
9
  6
CONTINUOUS
 10
338.2758058672
 20
282.4128504356
  0
VERTEX
  8
0
 62
9
  6
CONTINUOUS
 10
335.4480314093
 20
282.3100695946
  0
VERTEX
  8
0
 62
9
  6
CONTINUOUS
 10
332.1641444452
 20
282.1937762419
  0
VERTEX
  8
0
 62
9
  6
CONTINUOUS
 10
325.2486524898
 20
281.9937156631
  0
SEQEND
  0
POLYLINE
  8
0
 62
9
  6
CONTINUOUS
 66
1
 70
0
  0
VERTEX
  8
0
 62
9
  6
CONTINUOUS
 10
335.8278422277
 20
287.8142598312
  0
VERTEX
  8
0
 62
9
  6
CONTINUOUS
 10
335.1134356258
 20
287.7891884836
  0
VERTEX
  8
0
 62
9
  6
CONTINUOUS
 10
331.2168221555
 20
287.6691085081
  0
VERTEX
  8
0
 62
9
  6
CONTINUOUS
 10
327.0032037092
 20
287.5475353844
  0
VERTEX
  8
0
 62
9
  6
CONTINUOUS
 10
322.5068189317
 20
287.4246322391
  0
VERTEX
  8
0
 62
9
  6
CONTINUOUS
 10
317.700340501
 20
287.2991157138
  0
SEQEND
  0
POLYLINE
  8
0
 62
7
  6
CONTINUOUS
 66
1
 70
0
  0
VERTEX
  8
0
 62
7
  6
CONTINUOUS
 10
209.2698490402
 20
284.9797016778
  0
VERTEX
  8
0
 62
7
  6
CONTINUOUS
 10
200.7403359121
 20
284.712722058
  0
VERTEX
  8
0
 62
7
  6
CONTINUOUS
 10
191.5301903114
 20
284.5483432459
  0
VERTEX
  8
0
 62
7
  6
CONTINUOUS
 10
182.6654200644
 20
284.5107486787
  0
VERTEX
  8
0
 62
7
  6
CONTINUOUS
 10
174.1707219985
 20
284.5855243393
  0
VERTEX
  8
0
 62
7
  6
CONTINUOUS
 10
166.0682945112
 20
284.7582042737
  0
VERTEX
  8
0
 62
7
  6
CONTINUOUS
 10
159.2818040733
 20
284.9796157867
  0
SEQEND
  0
POLYLINE
  8
0
 62
9
  6
CONTINUOUS
 66
1
 70
0
  0
VERTEX
  8
0
 62
9
  6
CONTINUOUS
 10
325.2486524898
 20
281.9937156631
  0
VERTEX
  8
0
 62
9
  6
CONTINUOUS
 10
321.5936553329
 20
281.8846377769
  0
VERTEX
  8
0
 62
9
  6
CONTINUOUS
 10
317.4885913108
 20
281.7674600033
  0
SEQEND
  0
POLYLINE
  8
0
 62
9
  6
CONTINUOUS
 66
1
 70
0
  0
VERTEX
  8
0
 62
9
  6
CONTINUOUS
 10
317.4885913108
 20
281.7674600033
  0
VERTEX
  8
0
 62
9
  6
CONTINUOUS
 10
308.9588309494
 20
281.5470118379
  0
VERTEX
  8
0
 62
9
  6
CONTINUOUS
 10
304.5420445102
 20
281.4288425219
  0
VERTEX
  8
0
 62
9
  6
CONTINUOUS
 10
299.6780151078
 20
281.3018888817
  0
VERTEX
  8
0
 62
9
  6
CONTINUOUS
 10
294.6411874235
 20
281.1789510557
  0
SEQEND
  0
LINE
  8
0
 62
7
  6
CONTINUOUS
 10
311.1155916018
 20
287.1353901458
 11
303.4943762427
 21
286.9514320072
  0
POLYLINE
  8
0
 62
9
  6
CONTINUOUS
 66
1
 70
0
  0
VERTEX
  8
0
 62
9
  6
CONTINUOUS
 10
356.209264599
 20
294.693668187
  0
VERTEX
  8
0
 62
9
  6
CONTINUOUS
 10
334.0348124175
 20
294.1620986644
  0
VERTEX
  8
0
 62
9
  6
CONTINUOUS
 10
310.9508354328
 20
294.1897698978
  0
VERTEX
  8
0
 62
9
  6
CONTINUOUS
 10
286.9832401522
 20
294.4228738846
  0
VERTEX
  8
0
 62
9
  6
CONTINUOUS
 10
262.0736784215
 20
294.3097123822
  0
VERTEX
  8
0
 62
9
  6
CONTINUOUS
 10
236.1646605333
 20
293.8972886146
  0
VERTEX
  8
0
 62
9
  6
CONTINUOUS
 10
209.2753482762
 20
293.4998402366
  0
SEQEND
  0
LINE
  8
0
 62
9
  6
CONTINUOUS
 10
307.1093593584
 20
287.0365555743
 11
303.4943762427
 21
286.9514320072
  0
POLYLINE
  8
0
 62
9
  6
CONTINUOUS
 66
1
 70
0
  0
VERTEX
  8
0
 62
9
  6
CONTINUOUS
 10
336.8829573823
 20
291.0481860864
  0
VERTEX
  8
0
 62
9
  6
CONTINUOUS
 10
339.7300363432
 20
291.11607386
  0
VERTEX
  8
0
 62
9
  6
CONTINUOUS
 10
342.3469464255
 20
291.1662724518
  0
VERTEX
  8
0
 62
9
  6
CONTINUOUS
 10
344.7396877704
 20
291.1963440107
  0
VERTEX
  8
0
 62
9
  6
CONTINUOUS
 10
346.8907808383
 20
291.2058118408
  0
VERTEX
  8
0
 62
9
  6
CONTINUOUS
 10
348.7869665917
 20
291.1952351385
  0
VERTEX
  8
0
 62
9
  6
CONTINUOUS
 10
350.4214046933
 20
291.1664758645
  0
VERTEX
  8
0
 62
9
  6
CONTINUOUS
 10
351.7818876399
 20
291.1221864366
  0
VERTEX
  8
0
 62
9
  6
CONTINUOUS
 10
352.8710565174
 20
291.0669210375
  0
VERTEX
  8
0
 62
9
  6
CONTINUOUS
 10
353.6811568482
 20
291.0053386471
  0
VERTEX
  8
0
 62
9
  6
CONTINUOUS
 10
354.2309706852
 20
290.9414841099
  0
VERTEX
  8
0
 62
9
  6
CONTINUOUS
 10
354.5387182793
 20
290.8793506041
  0
VERTEX
  8
0
 62
9
  6
CONTINUOUS
 10
354.5982855526
 20
290.8202885944
  0
SEQEND
  0
POLYLINE
  8
0
 62
9
  6
CONTINUOUS
 66
1
 70
0
  0
VERTEX
  8
0
 62
9
  6
CONTINUOUS
 10
294.6411874235
 20
281.1789510557
  0
VERTEX
  8
0
 62
9
  6
CONTINUOUS
 10
279.0900517078
 20
280.8122648237
  0
VERTEX
  8
0
 62
9
  6
CONTINUOUS
 10
273.4016136992
 20
280.6820734554
  0
VERTEX
  8
0
 62
9
  6
CONTINUOUS
 10
262.1051915587
 20
280.4284722119
  0
SEQEND
  0
LINE
  8
0
 62
7
  6
CONTINUOUS
 10
303.4943762427
 20
286.9514320072
 11
295.3032748501
 21
286.7603491634
  0
LINE
  8
0
 62
7
  6
CONTINUOUS
 10
295.3032748501
 20
286.7603491634
 11
286.4962025934
 21
286.5612922107
  0
LINE
  8
0
 62
9
  6
CONTINUOUS
 10
288.3281532129
 20
286.6010092955
 11
286.4962025934
 21
286.5612922107
  0
LINE
  8
0
 62
7
  6
CONTINUOUS
 10
286.4962025934
 20
286.5612922107
 11
277.0260375846
 21
286.3533258133
  0
POLYLINE
  8
0
 62
9
  6
CONTINUOUS
 66
1
 70
0
  0
VERTEX
  8
0
 62
9
  6
CONTINUOUS
 10
262.1051915587
 20
280.4284722119
  0
VERTEX
  8
0
 62
9
  6
CONTINUOUS
 10
255.9475016692
 20
280.294570566
  0
VERTEX
  8
0
 62
9
  6
CONTINUOUS
 10
249.6311685606
 20
280.1640704521
  0
SEQEND
  0
LINE
  8
0
 62
9
  6
CONTINUOUS
 10
281.2429431993
 20
286.4440038916
 11
277.0260375846
 21
286.3533258133
  0
LINE
  8
0
 62
7
  6
CONTINUOUS
 10
277.0260375846
 20
286.3533258133
 11
266.8258469051
 21
286.134869672
  0
LINE
  8
0
 62
7
  6
CONTINUOUS
 10
266.8258469051
 20
286.134869672
 11
255.8024135266
 21
285.9034865145
  0
LINE
  8
0
 62
9
  6
CONTINUOUS
 10
257.5544898035
 20
285.9386619063
 11
255.8024135266
 21
285.9034865145
  0
LINE
  8
0
 62
7
  6
CONTINUOUS
 10
255.8024135266
 20
285.9034865145
 11
243.8379406075
 21
285.6572365901
  0
POLYLINE
  8
0
 62
9
  6
CONTINUOUS
 66
1
 70
0
  0
VERTEX
  8
0
 62
9
  6
CONTINUOUS
 10
249.6311685606
 20
280.1640704521
  0
VERTEX
  8
0
 62
9
  6
CONTINUOUS
 10
237.0705374224
 20
279.9108146601
  0
VERTEX
  8
0
 62
9
  6
CONTINUOUS
 10
230.3004053981
 20
279.7777550808
  0
VERTEX
  8
0
 62
9
  6
CONTINUOUS
 10
216.4946114013
 20
279.5023972947
  0
SEQEND
  0
POLYLINE
  8
0
 62
7
  6
CONTINUOUS
 66
1
 70
0
  0
VERTEX
  8
0
 62
7
  6
CONTINUOUS
 10
243.8379406075
 20
285.6572365901
  0
VERTEX
  8
0
 62
7
  6
CONTINUOUS
 10
230.7591702235
 20
285.3943313706
  0
VERTEX
  8
0
 62
7
  6
CONTINUOUS
 10
223.7324130985
 20
285.2561727023
  0
VERTEX
  8
0
 62
7
  6
CONTINUOUS
 10
216.329463295
 20
285.1132280469
  0
SEQEND
  0
POLYLINE
  8
0
 62
9
  6
CONTINUOUS
 66
1
 70
0
  0
VERTEX
  8
0
 62
9
  6
CONTINUOUS
 10
209.2759368188
 20
284.9171268545
  0
VERTEX
  8
0
 62
9
  6
CONTINUOUS
 10
219.4705689322
 20
285.1131177431
  0
VERTEX
  8
0
 62
9
  6
CONTINUOUS
 10
229.4930098679
 20
285.3097299568
  0
VERTEX
  8
0
 62
9
  6
CONTINUOUS
 10
239.4646564913
 20
285.5094859679
  0
VERTEX
  8
0
 62
9
  6
CONTINUOUS
 10
249.0213182062
 20
285.7048183589
  0
VERTEX
  8
0
 62
9
  6
CONTINUOUS
 10
257.7772361902
 20
285.8880114161
  0
VERTEX
  8
0
 62
9
  6
CONTINUOUS
 10
265.918511987
 20
286.0620325002
  0
VERTEX
  8
0
 62
9
  6
CONTINUOUS
 10
273.4881045279
 20
286.2270822577
  0
VERTEX
  8
0
 62
9
  6
CONTINUOUS
 10
280.5296828273
 20
286.3837451175
  0
VERTEX
  8
0
 62
9
  6
CONTINUOUS
 10
287.095069308
 20
286.5325616316
  0
VERTEX
  8
0
 62
9
  6
CONTINUOUS
 10
293.2027626762
 20
286.6738640775
  0
VERTEX
  8
0
 62
9
  6
CONTINUOUS
 10
298.8847436476
 20
286.8081061337
  0
VERTEX
  8
0
 62
9
  6
CONTINUOUS
 10
304.1523886171
 20
286.9354641501
  0
VERTEX
  8
0
 62
9
  6
CONTINUOUS
 10
309.02316612
 20
287.0562228067
  0
VERTEX
  8
0
 62
9
  6
CONTINUOUS
 10
313.5107804509
 20
287.1705107916
  0
VERTEX
  8
0
 62
9
  6
CONTINUOUS
 10
317.6243527454
 20
287.2783804943
  0
VERTEX
  8
0
 62
9
  6
CONTINUOUS
 10
321.3951010157
 20
287.3803454911
  0
VERTEX
  8
0
 62
9
  6
CONTINUOUS
 10
324.840025885
 20
287.4765280598
  0
VERTEX
  8
0
 62
9
  6
CONTINUOUS
 10
328.0109006555
 20
287.5681544862
  0
VERTEX
  8
0
 62
9
  6
CONTINUOUS
 10
330.9506870495
 20
287.6560768563
  0
VERTEX
  8
0
 62
9
  6
CONTINUOUS
 10
333.7028204294
 20
287.741540048
  0
VERTEX
  8
0
 62
9
  6
CONTINUOUS
 10
336.3233212023
 20
287.8260058543
  0
VERTEX
  8
0
 62
9
  6
CONTINUOUS
 10
338.8173959564
 20
287.9096756152
  0
VERTEX
  8
0
 62
9
  6
CONTINUOUS
 10
341.2119097565
 20
287.9933240104
  0
VERTEX
  8
0
 62
9
  6
CONTINUOUS
 10
343.497907581
 20
288.0766928133
  0
SEQEND
  0
LINE
  8
0
 62
9
  6
CONTINUOUS
 10
216.4946114013
 20
279.5023972947
 11
209.5871168608
 21
279.3701312586
  0
LINE
  8
0
 62
7
  6
CONTINUOUS
 10
209.267022277
 20
284.9795585744
 11
216.329463295
 21
285.1132280469
  0
LINE
  8
0
 62
9
  6
CONTINUOUS
 10
354.499328896
 20
290.7042791593
 11
357.4107053032
 21
290.7559270938
  0
POLYLINE
  8
0
 62
9
  6
CONTINUOUS
 66
1
 70
0
  0
VERTEX
  8
0
 62
9
  6
CONTINUOUS
 10
184.1549905105
 20
284.5070194568
  0
VERTEX
  8
0
 62
9
  6
CONTINUOUS
 10
192.5006274346
 20
284.5579025016
  0
VERTEX
  8
0
 62
9
  6
CONTINUOUS
 10
200.8751036876
 20
284.7145625254
  0
VERTEX
  8
0
 62
9
  6
CONTINUOUS
 10
209.2750855033
 20
284.9787172051
  0
SEQEND
  0
LINE
  8
0
 62
9
  6
CONTINUOUS
 10
200.9664899428
 20
290.5935611322
 11
213.7901426091
 21
290.6109226017
  0
POLYLINE
  8
0
 62
9
  6
CONTINUOUS
 66
1
 70
0
  0
VERTEX
  8
0
 62
9
  6
CONTINUOUS
 10
200.9664899428
 20
290.5935611322
  0
VERTEX
  8
0
 62
9
  6
CONTINUOUS
 10
192.6334363214
 20
290.5867158226
  0
VERTEX
  8
0
 62
9
  6
CONTINUOUS
 10
184.262757096
 20
290.584426563
  0
VERTEX
  8
0
 62
9
  6
CONTINUOUS
 10
175.8948802501
 20
290.5867331764
  0
VERTEX
  8
0
 62
9
  6
CONTINUOUS
 10
167.5702337624
 20
290.5935868145
  0
VERTEX
  8
0
 62
9
  6
CONTINUOUS
 10
154.7913703584
 20
290.6108870245
  0
SEQEND
  0
LINE
  8
0
 62
9
  6
CONTINUOUS
 10
135.2736320966
 20
290.6100866532
 11
141.4358241545
 21
290.6161191567
  0
LINE
  8
0
 62
9
  6
CONTINUOUS
 10
213.7901426091
 20
290.6109226017
 11
221.6112950659
 21
290.6166707979
  0
LINE
  8
0
 62
9
  6
CONTINUOUS
 10
192.6084067003
 20
290.5770465718
 11
209.4839958645
 21
290.5804570613
  0
POLYLINE
  8
0
 62
9
  6
CONTINUOUS
 66
1
 70
0
  0
VERTEX
  8
0
 62
9
  6
CONTINUOUS
 10
209.4839750442
 20
290.5804290057
  0
VERTEX
  8
0
 62
9
  6
CONTINUOUS
 10
217.7094380319
 20
290.579708244
  0
VERTEX
  8
0
 62
9
  6
CONTINUOUS
 10
225.9222254957
 20
290.5656400887
  0
VERTEX
  8
0
 62
9
  6
CONTINUOUS
 10
234.1261109162
 20
290.5392986524
  0
VERTEX
  8
0
 62
9
  6
CONTINUOUS
 10
242.3095196268
 20
290.498249471
  0
VERTEX
  8
0
 62
9
  6
CONTINUOUS
 10
250.4635274461
 20
290.442441517
  0
VERTEX
  8
0
 62
9
  6
CONTINUOUS
 10
258.5838489947
 20
290.3741350487
  0
VERTEX
  8
0
 62
9
  6
CONTINUOUS
 10
266.6686313424
 20
290.3003133997
  0
VERTEX
  8
0
 62
9
  6
CONTINUOUS
 10
274.7014169722
 20
290.2352432252
  0
VERTEX
  8
0
 62
9
  6
CONTINUOUS
 10
282.6594756833
 20
290.1924922354
  0
VERTEX
  8
0
 62
9
  6
CONTINUOUS
 10
290.5582826379
 20
290.1879064455
  0
VERTEX
  8
0
 62
9
  6
CONTINUOUS
 10
298.4078919658
 20
290.2333005629
  0
VERTEX
  8
0
 62
9
  6
CONTINUOUS
 10
306.201543272
 20
290.3306407316
  0
VERTEX
  8
0
 62
9
  6
CONTINUOUS
 10
313.9319444678
 20
290.4731298798
  0
VERTEX
  8
0
 62
9
  6
CONTINUOUS
 10
321.6152472684
 20
290.6497853304
  0
VERTEX
  8
0
 62
9
  6
CONTINUOUS
 10
329.2668466301
 20
290.8472699736
  0
VERTEX
  8
0
 62
9
  6
CONTINUOUS
 10
336.8829573823
 20
291.0481860864
  0
SEQEND
  0
LINE
  8
0
 62
9
  6
CONTINUOUS
 10
141.4358241545
 20
290.6161191567
 11
146.9986479158
 21
290.6166544394
  0
LINE
  8
0
 62
9
  6
CONTINUOUS
 10
150.8302933062
 20
290.5797153011
 11
192.6084067003
 21
290.5770465718
  0
LINE
  8
0
 62
9
  6
CONTINUOUS
 10
221.6112950659
 20
290.6166707979
 11
227.1587834106
 21
290.6160974267
  0
LINE
  8
0
 62
9
  6
CONTINUOUS
 10
146.9986479158
 20
290.6166544394
 11
154.7913703584
 21
290.6108870245
  0
POLYLINE
  8
0
 62
9
  6
CONTINUOUS
 66
1
 70
0
  0
VERTEX
  8
0
 62
9
  6
CONTINUOUS
 10
227.1587834106
 20
290.6160974267
  0
VERTEX
  8
0
 62
9
  6
CONTINUOUS
 10
233.3538167699
 20
290.6099721335
  0
VERTEX
  8
0
 62
9
  6
CONTINUOUS
 10
237.6961869115
 20
290.6017877412
  0
VERTEX
  8
0
 62
9
  6
CONTINUOUS
 10
242.3615305177
 20
290.5890539501
  0
VERTEX
  8
0
 62
9
  6
CONTINUOUS
 10
247.2344992255
 20
290.571061089
  0
VERTEX
  8
0
 62
9
  6
CONTINUOUS
 10
252.0303896454
 20
290.5487393392
  0
VERTEX
  8
0
 62
9
  6
CONTINUOUS
 10
256.9828589121
 20
290.5213283239
  0
VERTEX
  8
0
 62
9
  6
CONTINUOUS
 10
262.2305316043
 20
290.4879480467
  0
VERTEX
  8
0
 62
9
  6
CONTINUOUS
 10
273.630232437
 20
290.4083306002
  0
SEQEND
  0
LINE
  8
0
 62
9
  6
CONTINUOUS
 10
175.8362722678
 20
284.5605823262
 11
184.1549905105
 21
284.5070194568
  0
LINE
  8
0
 62
9
  6
CONTINUOUS
 10
11.1400766823
 20
290.7559270938
 11
14.0514530894
 21
290.7042791593
  0
LINE
  8
0
 62
9
  6
CONTINUOUS
 10
167.5408163604
 20
284.7179193118
 11
175.8362722678
 21
284.5605823262
  0
POLYLINE
  8
0
 62
7
  6
CONTINUOUS
 66
1
 70
0
  0
VERTEX
  8
0
 62
7
  6
CONTINUOUS
 10
159.2813938419
 20
284.9796029153
  0
VERTEX
  8
0
 62
7
  6
CONTINUOUS
 10
152.1340418304
 20
285.1148960243
  0
VERTEX
  8
0
 62
7
  6
CONTINUOUS
 10
144.7302691653
 20
285.2578899554
  0
VERTEX
  8
0
 62
7
  6
CONTINUOUS
 10
137.6995662529
 20
285.3961563606
  0
SEQEND
  0
POLYLINE
  8
0
 62
9
  6
CONTINUOUS
 66
1
 70
0
  0
VERTEX
  8
0
 62
9
  6
CONTINUOUS
 10
158.9636651247
 20
279.3701312586
  0
VERTEX
  8
0
 62
9
  6
CONTINUOUS
 10
152.0769949343
 20
279.5020598784
  0
VERTEX
  8
0
 62
9
  6
CONTINUOUS
 10
145.2005649104
 20
279.6396698155
  0
VERTEX
  8
0
 62
9
  6
CONTINUOUS
 10
131.4746954809
 20
279.9109981847
  0
SEQEND
  0
LINE
  8
0
 62
9
  6
CONTINUOUS
 10
149.0859885535
 20
285.113005539
 11
159.2748451666
 21
284.9171268545
  0
LINE
  8
0
 62
9
  6
CONTINUOUS
 10
147.3919320894
 20
285.2057449191
 11
144.7302691653
 21
285.2578899554
  0
POLYLINE
  8
0
 62
9
  6
CONTINUOUS
 66
1
 70
0
  0
VERTEX
  8
0
 62
9
  6
CONTINUOUS
 10
137.6995662529
 20
285.3961563606
  0
VERTEX
  8
0
 62
9
  6
CONTINUOUS
 10
125.9821541625
 20
285.6300711308
  0
VERTEX
  8
0
 62
9
  6
CONTINUOUS
 10
124.6142311319
 20
285.6592451032
  0
SEQEND
  0
POLYLINE
  8
0
 62
9
  6
CONTINUOUS
 66
1
 70
0
  0
VERTEX
  8
0
 62
9
  6
CONTINUOUS
 10
131.4746954809
 20
279.9109981847
  0
VERTEX
  8
0
 62
9
  6
CONTINUOUS
 10
118.936537135
 20
280.1635751212
  0
VERTEX
  8
0
 62
9
  6
CONTINUOUS
 10
112.5988155035
 20
280.2945061376
  0
VERTEX
  8
0
 62
9
  6
CONTINUOUS
 10
106.4128554667
 20
280.4292086301
  0
VERTEX
  8
0
 62
9
  6
CONTINUOUS
 10
95.0834857777
 20
280.6830297571
  0
SEQEND
  0
LINE
  8
0
 62
7
  6
CONTINUOUS
 10
137.6995662529
 20
285.3961563606
 11
124.6142311319
 21
285.6592451032
  0
LINE
  8
0
 62
7
  6
CONTINUOUS
 10
124.6142311319
 20
285.6592451032
 11
112.6517041037
 21
285.9054938358
  0
LINE
  8
0
 62
9
  6
CONTINUOUS
 10
116.0739653582
 20
285.8333361293
 11
112.6517041037
 21
285.9054938358
  0
LINE
  8
0
 62
7
  6
CONTINUOUS
 10
112.6517041037
 20
285.9054938358
 11
101.6355946056
 21
286.136765317
  0
LINE
  8
0
 62
7
  6
CONTINUOUS
 10
101.6355946056
 20
286.136765317
 11
91.4423787717
 21
286.3551193839
  0
LINE
  8
0
 62
7
  6
CONTINUOUS
 10
91.4423787717
 20
286.3551193839
 11
81.9873405875
 21
286.562776679
  0
LINE
  8
0
 62
7
  6
CONTINUOUS
 10
81.9873405875
 20
286.562776679
 11
73.2042704113
 21
286.7613296824
  0
LINE
  8
0
 62
9
  6
CONTINUOUS
 10
95.0834857777
 20
280.6830297571
 11
89.3907167347
 21
280.8135546089
  0
LINE
  8
0
 62
9
  6
CONTINUOUS
 10
73.8598462947
 20
286.7450765553
 11
69.0427976469
 21
286.8576504915
  0
LINE
  8
0
 62
7
  6
CONTINUOUS
 10
73.2042704113
 20
286.7613296824
 11
65.0251968233
 21
286.9521769013
  0
LINE
  8
0
 62
9
  6
CONTINUOUS
 10
89.3907167347
 20
280.8135546089
 11
73.873124392
 21
281.18044833
  0
LINE
  8
0
 62
9
  6
CONTINUOUS
 10
66.8326186087
 20
286.9081657268
 11
65.0251968233
 21
286.9521769013
  0
POLYLINE
  8
0
 62
9
  6
CONTINUOUS
 66
1
 70
0
  0
VERTEX
  8
0
 62
9
  6
CONTINUOUS
 10
12.3366203617
 20
294.6938588919
  0
VERTEX
  8
0
 62
9
  6
CONTINUOUS
 10
34.5141293592
 20
294.1621222171
  0
VERTEX
  8
0
 62
9
  6
CONTINUOUS
 10
57.5999495519
 20
294.1897610064
  0
VERTEX
  8
0
 62
9
  6
CONTINUOUS
 10
81.5678528417
 20
294.4228623564
  0
VERTEX
  8
0
 62
9
  6
CONTINUOUS
 10
106.4770588137
 20
294.3098269702
  0
VERTEX
  8
0
 62
9
  6
CONTINUOUS
 10
132.3861349866
 20
293.8972536942
  0
VERTEX
  8
0
 62
9
  6
CONTINUOUS
 10
159.2754337851
 20
293.4998400418
  0
SEQEND
  0
POLYLINE
  8
0
 62
9
  6
CONTINUOUS
 66
1
 70
0
  0
VERTEX
  8
0
 62
9
  6
CONTINUOUS
 10
73.873124392
 20
281.18044833
  0
VERTEX
  8
0
 62
9
  6
CONTINUOUS
 10
68.8595960928
 20
281.3028910452
  0
VERTEX
  8
0
 62
9
  6
CONTINUOUS
 10
64.0208902449
 20
281.4290523595
  0
VERTEX
  8
0
 62
9
  6
CONTINUOUS
 10
59.6323989714
 20
281.5465067009
  0
SEQEND
  0
POLYLINE
  8
0
 62
7
  6
CONTINUOUS
 66
1
 70
0
  0
VERTEX
  8
0
 62
7
  6
CONTINUOUS
 10
65.0251968233
 20
286.9521769013
  0
VERTEX
  8
0
 62
7
  6
CONTINUOUS
 10
57.4062753203
 20
287.136100955
  0
VERTEX
  8
0
 62
7
  6
CONTINUOUS
 10
53.8027009722
 20
287.2256534526
  0
VERTEX
  8
0
 62
7
  6
CONTINUOUS
 10
50.33260371
 20
287.3138532173
  0
VERTEX
  8
0
 62
7
  6
CONTINUOUS
 10
47.0061920883
 20
287.4006248119
  0
VERTEX
  8
0
 62
7
  6
CONTINUOUS
 10
43.8297494325
 20
287.4859912297
  0
VERTEX
  8
0
 62
7
  6
CONTINUOUS
 10
40.8016301935
 20
287.5701816971
  0
VERTEX
  8
0
 62
7
  6
CONTINUOUS
 10
37.925848748
 20
287.6533055508
  0
VERTEX
  8
0
 62
7
  6
CONTINUOUS
 10
35.2152880869
 20
287.7351924118
  0
VERTEX
  8
0
 62
7
  6
CONTINUOUS
 10
32.6863474032
 20
287.8154860386
  0
VERTEX
  8
0
 62
7
  6
CONTINUOUS
 10
30.3586364193
 20
287.8936083106
  0
VERTEX
  8
0
 62
7
  6
CONTINUOUS
 10
28.2290001988
 20
287.9695810244
  0
VERTEX
  8
0
 62
7
  6
CONTINUOUS
 10
26.2899751388
 20
288.043577422
  0
SEQEND
  0
LINE
  8
0
 62
9
  6
CONTINUOUS
 10
60.2757441809
 20
287.0645738603
 11
57.4062753203
 21
287.136100955
  0
POLYLINE
  8
0
 62
9
  6
CONTINUOUS
 66
1
 70
0
  0
VERTEX
  8
0
 62
9
  6
CONTINUOUS
 10
54.1695187861
 20
287.2150602348
  0
VERTEX
  8
0
 62
9
  6
CONTINUOUS
 10
48.507197161
 20
287.3595938527
  0
VERTEX
  8
0
 62
9
  6
CONTINUOUS
 10
43.2553067567
 20
287.5001469396
  0
VERTEX
  8
0
 62
9
  6
CONTINUOUS
 10
38.3616113382
 20
287.6387491224
  0
VERTEX
  8
0
 62
9
  6
CONTINUOUS
 10
37.925848748
 20
287.6533055508
  0
SEQEND
  0
POLYLINE
  8
0
 62
9
  6
CONTINUOUS
 66
1
 70
0
  0
VERTEX
  8
0
 62
9
  6
CONTINUOUS
 10
59.6323989714
 20
281.5465067009
  0
VERTEX
  8
0
 62
9
  6
CONTINUOUS
 10
51.1102499763
 20
281.7656168464
  0
VERTEX
  8
0
 62
9
  6
CONTINUOUS
 10
46.9828560941
 20
281.8832218148
  0
VERTEX
  8
0
 62
9
  6
CONTINUOUS
 10
43.2991196651
 20
281.9932375759
  0
VERTEX
  8
0
 62
9
  6
CONTINUOUS
 10
39.830453568
 20
282.0948289701
  0
VERTEX
  8
0
 62
9
  6
CONTINUOUS
 10
36.3746308482
 20
282.1939586232
  0
VERTEX
  8
0
 62
9
  6
CONTINUOUS
 10
33.1111534816
 20
282.3082221854
  0
VERTEX
  8
0
 62
9
  6
CONTINUOUS
 10
30.2982824885
 20
282.4103012683
  0
VERTEX
  8
0
 62
9
  6
CONTINUOUS
 10
27.7085159652
 20
282.4968032104
  0
VERTEX
  8
0
 62
9
  6
CONTINUOUS
 10
22.7244050453
 20
282.6725621172
  0
SEQEND
  0
POLYLINE
  8
0
 62
9
  6
CONTINUOUS
 66
1
 70
0
  0
VERTEX
  8
0
 62
9
  6
CONTINUOUS
 10
31.667824603
 20
291.0481860841
  0
VERTEX
  8
0
 62
9
  6
CONTINUOUS
 10
39.2766781651
 20
290.8474609955
  0
VERTEX
  8
0
 62
9
  6
CONTINUOUS
 10
46.9175137318
 20
290.6502320429
  0
VERTEX
  8
0
 62
9
  6
CONTINUOUS
 10
54.5832277606
 20
290.4738802011
  0
VERTEX
  8
0
 62
9
  6
CONTINUOUS
 10
62.2991452961
 20
290.3314269573
  0
VERTEX
  8
0
 62
9
  6
CONTINUOUS
 10
70.092988966
 20
290.2337582118
  0
VERTEX
  8
0
 62
9
  6
CONTINUOUS
 10
77.9493005183
 20
290.1880143168
  0
VERTEX
  8
0
 62
9
  6
CONTINUOUS
 10
85.8617561339
 20
290.1923863868
  0
VERTEX
  8
0
 62
9
  6
CONTINUOUS
 10
93.8261391767
 20
290.2350797457
  0
VERTEX
  8
0
 62
9
  6
CONTINUOUS
 10
101.8348110034
 20
290.2999103869
  0
VERTEX
  8
0
 62
9
  6
CONTINUOUS
 10
109.8919395557
 20
290.3734525495
  0
VERTEX
  8
0
 62
9
  6
CONTINUOUS
 10
118.0014532631
 20
290.4417774443
  0
VERTEX
  8
0
 62
9
  6
CONTINUOUS
 10
126.1579603477
 20
290.4977516495
  0
VERTEX
  8
0
 62
9
  6
CONTINUOUS
 10
134.3664026093
 20
290.5390329344
  0
VERTEX
  8
0
 62
9
  6
CONTINUOUS
 10
142.599938132
 20
290.5655691065
  0
VERTEX
  8
0
 62
9
  6
CONTINUOUS
 10
150.8302933062
 20
290.5797153011
  0
SEQEND
  0
POLYLINE
  8
0
 62
9
  6
CONTINUOUS
 66
1
 70
0
  0
VERTEX
  8
0
 62
9
  6
CONTINUOUS
 10
35.2152880869
 20
287.7351924118
  0
VERTEX
  8
0
 62
9
  6
CONTINUOUS
 10
33.8756567003
 20
287.7751971998
  0
VERTEX
  8
0
 62
9
  6
CONTINUOUS
 10
32.6863474032
 20
287.8154860386
  0
SEQEND
  0
LINE
  8
0
 62
9
  6
CONTINUOUS
 10
159.2753064546
 20
284.9786789203
 11
159.2813938419
 21
284.9796029153
  0
LINE
  8
0
 62
9
  6
CONTINUOUS
 10
159.2819185147
 20
284.9795852423
 11
167.5408163604
 21
284.7179193118
  0
POLYLINE
  8
0
 62
7
  6
CONTINUOUS
 66
1
 70
0
  0
VERTEX
  8
0
 62
7
  6
CONTINUOUS
 10
22.7185979325
 20
282.6678417169
  0
VERTEX
  8
0
 62
7
  6
CONTINUOUS
 10
20.3923439004
 20
282.7419701049
  0
VERTEX
  8
0
 62
7
  6
CONTINUOUS
 10
18.2917303518
 20
282.8120561539
  0
VERTEX
  8
0
 62
7
  6
CONTINUOUS
 10
16.4251128892
 20
282.8874648613
  0
VERTEX
  8
0
 62
7
  6
CONTINUOUS
 10
14.805492471
 20
282.9646133035
  0
VERTEX
  8
0
 62
7
  6
CONTINUOUS
 10
13.442945581
 20
283.0440737481
  0
VERTEX
  8
0
 62
7
  6
CONTINUOUS
 10
12.3458697928
 20
283.1251862683
  0
VERTEX
  8
0
 62
7
  6
CONTINUOUS
 10
11.5233802427
 20
283.2047934412
  0
VERTEX
  8
0
 62
7
  6
CONTINUOUS
 10
10.9748502706
 20
283.291160914
  0
SEQEND
  0
POLYLINE
  8
0
 62
9
  6
CONTINUOUS
 66
1
 70
0
  0
VERTEX
  8
0
 62
9
  6
CONTINUOUS
 10
159.6548744935
 20
284.9022721976
  0
VERTEX
  8
0
 62
9
  6
CONTINUOUS
 10
167.8542032997
 20
284.6375263551
  0
VERTEX
  8
0
 62
9
  6
CONTINUOUS
 10
176.0622333279
 20
284.4784840558
  0
VERTEX
  8
0
 62
9
  6
CONTINUOUS
 10
184.2753910003
 20
284.4254315312
  0
VERTEX
  8
0
 62
9
  6
CONTINUOUS
 10
192.4885486712
 20
284.4784840423
  0
VERTEX
  8
0
 62
9
  6
CONTINUOUS
 10
200.6965786948
 20
284.6375263286
  0
VERTEX
  8
0
 62
9
  6
CONTINUOUS
 10
208.8959074934
 20
284.9022721587
  0
SEQEND
  0
POLYLINE
  8
0
 62
9
  6
CONTINUOUS
 66
1
 70
0
  0
VERTEX
  8
0
 62
9
  6
CONTINUOUS
 10
159.2754310398
 20
279.358717278
  0
VERTEX
  8
0
 62
9
  6
CONTINUOUS
 10
167.5997964287
 20
279.0881854897
  0
VERTEX
  8
0
 62
9
  6
CONTINUOUS
 10
175.9339864422
 20
278.925814072
  0
VERTEX
  8
0
 62
9
  6
CONTINUOUS
 10
184.274904118
 20
278.8716697126
  0
VERTEX
  8
0
 62
9
  6
CONTINUOUS
 10
192.6159306893
 20
278.9258191109
  0
VERTEX
  8
0
 62
9
  6
CONTINUOUS
 10
200.9504472732
 20
279.0881920071
  0
VERTEX
  8
0
 62
9
  6
CONTINUOUS
 10
209.2753568679
 20
279.3587181593
  0
SEQEND
  0
POLYLINE
  8
0
 62
9
  6
CONTINUOUS
 66
1
 70
0
  0
VERTEX
  8
0
 62
9
  6
CONTINUOUS
 10
30.3586364193
 20
287.8936083106
  0
VERTEX
  8
0
 62
9
  6
CONTINUOUS
 10
29.816185169
 20
287.9102713722
  0
VERTEX
  8
0
 62
9
  6
CONTINUOUS
 10
26.2233709159
 20
288.0430510612
  0
VERTEX
  8
0
 62
9
  6
CONTINUOUS
 10
23.1454341766
 20
288.1731021065
  0
VERTEX
  8
0
 62
9
  6
CONTINUOUS
 10
20.5769790851
 20
288.2997454556
  0
SEQEND
  0
POLYLINE
  8
0
 62
9
  6
CONTINUOUS
 66
1
 70
0
  0
VERTEX
  8
0
 62
9
  6
CONTINUOUS
 10
25.0599801782
 20
288.0764394014
  0
VERTEX
  8
0
 62
9
  6
CONTINUOUS
 10
27.3681412313
 20
287.9923151387
  0
VERTEX
  8
0
 62
9
  6
CONTINUOUS
 10
29.7807315656
 20
287.9080843911
  0
VERTEX
  8
0
 62
9
  6
CONTINUOUS
 10
32.2901926355
 20
287.8239727379
  0
VERTEX
  8
0
 62
9
  6
CONTINUOUS
 10
34.9192000777
 20
287.7393034405
  0
VERTEX
  8
0
 62
9
  6
CONTINUOUS
 10
37.6678801255
 20
287.6540097175
  0
VERTEX
  8
0
 62
9
  6
CONTINUOUS
 10
40.596322443
 20
287.5664872759
  0
VERTEX
  8
0
 62
9
  6
CONTINUOUS
 10
43.7475044924
 20
287.4754723506
  0
VERTEX
  8
0
 62
9
  6
CONTINUOUS
 10
47.1728891132
 20
287.379876576
  0
VERTEX
  8
0
 62
9
  6
CONTINUOUS
 10
50.9348316877
 20
287.278160879
  0
VERTEX
  8
0
 62
9
  6
CONTINUOUS
 10
55.0436320503
 20
287.1704136172
  0
VERTEX
  8
0
 62
9
  6
CONTINUOUS
 10
59.5272142042
 20
287.056235967
  0
VERTEX
  8
0
 62
9
  6
CONTINUOUS
 10
64.395061025
 20
286.9355503989
  0
VERTEX
  8
0
 62
9
  6
CONTINUOUS
 10
69.6598637177
 20
286.8082399083
  0
VERTEX
  8
0
 62
9
  6
CONTINUOUS
 10
75.3399212977
 20
286.6740240971
  0
VERTEX
  8
0
 62
9
  6
CONTINUOUS
 10
81.4474927203
 20
286.5327331963
  0
VERTEX
  8
0
 62
9
  6
CONTINUOUS
 10
88.0133893704
 20
286.3839183134
  0
VERTEX
  8
0
 62
9
  6
CONTINUOUS
 10
95.054909033
 20
286.2272590826
  0
VERTEX
  8
0
 62
9
  6
CONTINUOUS
 10
102.6248514636
 20
286.0622001545
  0
VERTEX
  8
0
 62
9
  6
CONTINUOUS
 10
110.7672964473
 20
285.8881475492
  0
VERTEX
  8
0
 62
9
  6
CONTINUOUS
 10
119.5257016802
 20
285.7048967926
  0
VERTEX
  8
0
 62
9
  6
CONTINUOUS
 10
129.0884519003
 20
285.5094428085
  0
VERTEX
  8
0
 62
9
  6
CONTINUOUS
 10
139.0648457681
 20
285.3095934235
  0
VERTEX
  8
0
 62
9
  6
CONTINUOUS
 10
149.0859885535
 20
285.113005539
  0
SEQEND
  0
LINE
  8
0
 62
9
  6
CONTINUOUS
 10
158.9636344493
 20
279.3710115798
 11
159.2754213326
 21
279.3587508966
  0
LINE
  8
0
 62
9
  6
CONTINUOUS
 10
159.6548593699
 20
284.90233172
 11
159.2753889515
 21
284.9171182961
  0
LINE
  8
0
 62
7
  6
CONTINUOUS
 10
26.2899751388
 20
288.043577422
 11
24.5463514321
 21
288.1151881151
  0
POLYLINE
  8
0
 62
7
  6
CONTINUOUS
 66
1
 70
0
  0
VERTEX
  8
0
 62
7
  6
CONTINUOUS
 10
24.5463514321
 20
288.1151881151
  0
VERTEX
  8
0
 62
7
  6
CONTINUOUS
 10
23.0064214243
 20
288.1837246104
  0
VERTEX
  8
0
 62
7
  6
CONTINUOUS
 10
21.6618764754
 20
288.249022525
  0
VERTEX
  8
0
 62
7
  6
CONTINUOUS
 10
20.5021752567
 20
288.3109349541
  0
VERTEX
  8
0
 62
7
  6
CONTINUOUS
 10
19.5123826585
 20
288.3695120177
  0
VERTEX
  8
0
 62
7
  6
CONTINUOUS
 10
18.6824302285
 20
288.4245202841
  0
VERTEX
  8
0
 62
7
  6
CONTINUOUS
 10
18.0021706591
 20
288.475594097
  0
VERTEX
  8
0
 62
7
  6
CONTINUOUS
 10
17.4708080369
 20
288.5213036703
  0
VERTEX
  8
0
 62
7
  6
CONTINUOUS
 10
17.0803136675
 20
288.5603863241
  0
VERTEX
  8
0
 62
7
  6
CONTINUOUS
 10
16.8371035192
 20
288.5891428054
  0
VERTEX
  8
0
 62
7
  6
CONTINUOUS
 10
16.7837659862
 20
288.5963339973
  0
SEQEND
  0
POLYLINE
  8
0
 62
7
  6
CONTINUOUS
 66
1
 70
0
  0
VERTEX
  8
0
 62
7
  6
CONTINUOUS
 10
17.548113048
 20
288.4102418945
  0
VERTEX
  8
0
 62
7
  6
CONTINUOUS
 10
19.0782198024
 20
288.3296857721
  0
VERTEX
  8
0
 62
7
  6
CONTINUOUS
 10
20.8458507608
 20
288.2469173548
  0
VERTEX
  8
0
 62
7
  6
CONTINUOUS
 10
22.8383665064
 20
288.1625725548
  0
VERTEX
  8
0
 62
7
  6
CONTINUOUS
 10
25.0599801782
 20
288.0764394014
  0
SEQEND
  0
POLYLINE
  8
0
 62
9
  6
CONTINUOUS
 66
1
 70
0
  0
VERTEX
  8
0
 62
9
  6
CONTINUOUS
 10
20.5769790851
 20
288.2997454556
  0
VERTEX
  8
0
 62
9
  6
CONTINUOUS
 10
18.5462221364
 20
288.4220927914
  0
VERTEX
  8
0
 62
9
  6
CONTINUOUS
 10
17.0005464841
 20
288.5403377477
  0
SEQEND
  0
LINE
  8
0
 62
7
  6
CONTINUOUS
 10
16.2648790727
 20
288.4881704355
 11
17.548113048
 21
288.4102418945
  0
POLYLINE
  8
0
 62
9
  6
CONTINUOUS
 66
1
 70
0
  0
VERTEX
  8
0
 62
9
  6
CONTINUOUS
 10
10.7940666051
 20
293.1198863583
  0
VERTEX
  8
0
 62
9
  6
CONTINUOUS
 10
20.2299540833
 20
292.4002816194
  0
VERTEX
  8
0
 62
9
  6
CONTINUOUS
 10
29.2321408395
 20
291.814081639
  0
VERTEX
  8
0
 62
9
  6
CONTINUOUS
 10
37.8242197747
 20
291.3465660162
  0
VERTEX
  8
0
 62
9
  6
CONTINUOUS
 10
45.917347975
 20
290.9905517238
  0
VERTEX
  8
0
 62
9
  6
CONTINUOUS
 10
53.2910018053
 20
290.7390527903
  0
VERTEX
  8
0
 62
9
  6
CONTINUOUS
 10
60.3698971503
 20
290.5634957418
  0
VERTEX
  8
0
 62
9
  6
CONTINUOUS
 10
67.5625580961
 20
290.4457847276
  0
VERTEX
  8
0
 62
9
  6
CONTINUOUS
 10
74.7002402392
 20
290.3813064911
  0
VERTEX
  8
0
 62
9
  6
CONTINUOUS
 10
81.8444923696
 20
290.3608275634
  0
VERTEX
  8
0
 62
9
  6
CONTINUOUS
 10
88.7131995105
 20
290.3750434107
  0
VERTEX
  8
0
 62
9
  6
CONTINUOUS
 10
94.9763005481
 20
290.408687728
  0
VERTEX
  8
0
 62
9
  6
CONTINUOUS
 10
106.3891558962
 20
290.488413087
  0
SEQEND
  0
POLYLINE
  8
0
 62
9
  6
CONTINUOUS
 66
1
 70
0
  0
VERTEX
  8
0
 62
9
  6
CONTINUOUS
 10
14.0514530775
 20
290.7042791595
  0
VERTEX
  8
0
 62
9
  6
CONTINUOUS
 10
15.0950193199
 20
290.6215681805
  0
VERTEX
  8
0
 62
9
  6
CONTINUOUS
 10
16.1257857703
 20
290.4097435882
  0
VERTEX
  8
0
 62
9
  6
CONTINUOUS
 10
17.1134156557
 20
290.0758344843
  0
VERTEX
  8
0
 62
9
  6
CONTINUOUS
 10
18.0543441167
 20
289.622569838
  0
SEQEND
  0
LINE
  8
0
 62
9
  6
CONTINUOUS
 10
209.6364805338
 20
284.9853302706
 11
209.6278810237
 21
284.9863217603
  0
LINE
  8
0
 62
9
  6
CONTINUOUS
 10
209.2750161505
 20
284.9786944398
 11
209.2701973185
 21
284.9796180805
  0
POLYLINE
  8
0
 62
9
  6
CONTINUOUS
 66
1
 70
0
  0
VERTEX
  8
0
 62
9
  6
CONTINUOUS
 10
204.5114289392
 20
292.4408949718
  0
VERTEX
  8
0
 62
9
  6
CONTINUOUS
 10
205.4864025397
 20
292.4946230406
  0
VERTEX
  8
0
 62
9
  6
CONTINUOUS
 10
206.1982865234
 20
292.5499807885
  0
VERTEX
  8
0
 62
9
  6
CONTINUOUS
 10
206.6286452515
 20
292.6057852483
  0
VERTEX
  8
0
 62
9
  6
CONTINUOUS
 10
206.7694375791
 20
292.6612523558
  0
VERTEX
  8
0
 62
9
  6
CONTINUOUS
 10
206.6239765868
 20
292.7160646273
  0
VERTEX
  8
0
 62
9
  6
CONTINUOUS
 10
206.200222771
 20
292.7692214746
  0
VERTEX
  8
0
 62
9
  6
CONTINUOUS
 10
205.5040352266
 20
292.8197371567
  0
VERTEX
  8
0
 62
9
  6
CONTINUOUS
 10
204.5385786432
 20
292.8670368697
  0
SEQEND
  0
LINE
  8
0
 62
7
  6
CONTINUOUS
 10
205.0551554976
 20
292.4785202451
 11
204.5632515499
 21
292.4513088974
  0
POLYLINE
  8
0
 62
9
  6
CONTINUOUS
 66
1
 70
0
  0
VERTEX
  8
0
 62
9
  6
CONTINUOUS
 10
164.0681160913
 20
292.869698662
  0
VERTEX
  8
0
 62
9
  6
CONTINUOUS
 10
163.086372195
 20
292.82256341
  0
VERTEX
  8
0
 62
9
  6
CONTINUOUS
 10
162.3736906545
 20
292.7721562009
  0
VERTEX
  8
0
 62
9
  6
CONTINUOUS
 10
161.9337962436
 20
292.7191087099
  0
VERTEX
  8
0
 62
9
  6
CONTINUOUS
 10
161.7719154525
 20
292.6643728205
  0
VERTEX
  8
0
 62
9
  6
CONTINUOUS
 10
161.8956897809
 20
292.6090025449
  0
VERTEX
  8
0
 62
9
  6
CONTINUOUS
 10
162.3076995102
 20
292.5533392869
  0
VERTEX
  8
0
 62
9
  6
CONTINUOUS
 10
162.9997116683
 20
292.498099423
  0
VERTEX
  8
0
 62
9
  6
CONTINUOUS
 10
163.9537318044
 20
292.4444663274
  0
SEQEND
  0
LINE
  8
0
 62
7
  6
CONTINUOUS
 10
204.5632515499
 20
292.4513088974
 11
203.9558330379
 21
292.4224493114
  0
LINE
  8
0
 62
7
  6
CONTINUOUS
 10
203.9558330379
 20
292.4224493114
 11
203.2178966321
 21
292.3920357835
  0
LINE
  8
0
 62
7
  6
CONTINUOUS
 10
203.2178966321
 20
292.3920357835
 11
202.336982061
 21
292.3602535352
  0
LINE
  8
0
 62
7
  6
CONTINUOUS
 10
202.336982061
 20
292.3602535352
 11
201.2920323896
 21
292.3272029398
  0
LINE
  8
0
 62
7
  6
CONTINUOUS
 10
201.2920323896
 20
292.3272029398
 11
200.0586636112
 21
292.2930638116
  0
POLYLINE
  8
0
 62
7
  6
CONTINUOUS
 66
1
 70
0
  0
VERTEX
  8
0
 62
7
  6
CONTINUOUS
 10
209.2753909927
 20
293.7468254678
  0
VERTEX
  8
0
 62
7
  6
CONTINUOUS
 10
230.7618035991
 20
294.2639952495
  0
VERTEX
  8
0
 62
7
  6
CONTINUOUS
 10
251.2683512737
 20
294.6623676512
  0
VERTEX
  8
0
 62
7
  6
CONTINUOUS
 10
270.7470772287
 20
294.9667787962
  0
VERTEX
  8
0
 62
7
  6
CONTINUOUS
 10
289.3418518273
 20
295.1027203142
  0
VERTEX
  8
0
 62
7
  6
CONTINUOUS
 10
307.1878726538
 20
294.8983306063
  0
VERTEX
  8
0
 62
7
  6
CONTINUOUS
 10
324.2632012571
 20
294.6705054809
  0
VERTEX
  8
0
 62
7
  6
CONTINUOUS
 10
340.5938559736
 20
294.7113046223
  0
VERTEX
  8
0
 62
7
  6
CONTINUOUS
 10
356.1711640246
 20
294.9233748026
  0
SEQEND
  0
LINE
  8
0
 62
7
  6
CONTINUOUS
 10
200.0586636112
 20
292.2930638116
 11
198.6114536441
 21
292.2581134211
  0
LINE
  8
0
 62
7
  6
CONTINUOUS
 10
198.6114536441
 20
292.2581134211
 11
196.9203900116
 21
292.2228752795
  0
POLYLINE
  8
0
 62
7
  6
CONTINUOUS
 66
1
 70
0
  0
VERTEX
  8
0
 62
7
  6
CONTINUOUS
 10
196.9203900116
 20
292.2228752795
  0
VERTEX
  8
0
 62
7
  6
CONTINUOUS
 10
194.946574384
 20
292.1883106648
  0
VERTEX
  8
0
 62
7
  6
CONTINUOUS
 10
193.8399846619
 20
292.171773719
  0
VERTEX
  8
0
 62
7
  6
CONTINUOUS
 10
192.6437556953
 20
292.1560635768
  0
VERTEX
  8
0
 62
7
  6
CONTINUOUS
 10
191.354467071
 20
292.1415513908
  0
VERTEX
  8
0
 62
7
  6
CONTINUOUS
 10
189.9616038733
 20
292.1286135561
  0
VERTEX
  8
0
 62
7
  6
CONTINUOUS
 10
188.4609853412
 20
292.1178395008
  0
VERTEX
  8
0
 62
7
  6
CONTINUOUS
 10
186.8438250828
 20
292.1099227023
  0
SEQEND
  0
POLYLINE
  8
0
 62
9
  6
CONTINUOUS
 66
1
 70
0
  0
VERTEX
  8
0
 62
9
  6
CONTINUOUS
 10
106.3891558962
 20
290.488413087
  0
VERTEX
  8
0
 62
9
  6
CONTINUOUS
 10
111.6439089767
 20
290.5217801068
  0
VERTEX
  8
0
 62
9
  6
CONTINUOUS
 10
116.6002381906
 20
290.5491461758
  0
VERTEX
  8
0
 62
9
  6
CONTINUOUS
 10
121.4018157854
 20
290.5714188411
  0
VERTEX
  8
0
 62
9
  6
CONTINUOUS
 10
126.294746148
 20
290.5893893597
  0
VERTEX
  8
0
 62
9
  6
CONTINUOUS
 10
130.9692367513
 20
290.6020479524
  0
VERTEX
  8
0
 62
9
  6
CONTINUOUS
 10
135.2736320966
 20
290.6100866532
  0
SEQEND
  0
POLYLINE
  8
0
 62
9
  6
CONTINUOUS
 66
1
 70
0
  0
VERTEX
  8
0
 62
9
  6
CONTINUOUS
 10
357.7566097362
 20
293.1199098124
  0
VERTEX
  8
0
 62
9
  6
CONTINUOUS
 10
358.3133416252
 20
293.1214372381
  0
VERTEX
  8
0
 62
9
  6
CONTINUOUS
 10
358.8666651954
 20
293.0338092238
  0
VERTEX
  8
0
 62
9
  6
CONTINUOUS
 10
359.3814258889
 20
292.8662497849
  0
VERTEX
  8
0
 62
9
  6
CONTINUOUS
 10
359.8607173678
 20
292.6233503
  0
VERTEX
  8
0
 62
9
  6
CONTINUOUS
 10
360.2972204522
 20
292.309818962
  0
SEQEND
  0
POLYLINE
  8
0
 62
9
  6
CONTINUOUS
 66
1
 70
0
  0
VERTEX
  8
0
 62
9
  6
CONTINUOUS
 10
184.2586429278
 20
292.1026364417
  0
VERTEX
  8
0
 62
9
  6
CONTINUOUS
 10
186.8136686955
 20
292.1072697538
  0
VERTEX
  8
0
 62
9
  6
CONTINUOUS
 10
189.3226519299
 20
292.1209950632
  0
VERTEX
  8
0
 62
9
  6
CONTINUOUS
 10
191.7497565635
 20
292.1429858119
  0
VERTEX
  8
0
 62
9
  6
CONTINUOUS
 10
194.0637878601
 20
292.1720152947
  0
VERTEX
  8
0
 62
9
  6
CONTINUOUS
 10
196.2520489382
 20
292.2071500091
  0
VERTEX
  8
0
 62
9
  6
CONTINUOUS
 10
198.2975099888
 20
292.2474829857
  0
VERTEX
  8
0
 62
9
  6
CONTINUOUS
 10
200.1597589804
 20
292.2916325386
  0
VERTEX
  8
0
 62
9
  6
CONTINUOUS
 10
201.8182483029
 20
292.338630725
  0
VERTEX
  8
0
 62
9
  6
CONTINUOUS
 10
203.2776589058
 20
292.3886015913
  0
VERTEX
  8
0
 62
9
  6
CONTINUOUS
 10
204.5114289392
 20
292.4408949718
  0
SEQEND
  0
POLYLINE
  8
0
 62
9
  6
CONTINUOUS
 66
1
 70
0
  0
VERTEX
  8
0
 62
9
  6
CONTINUOUS
 10
184.2828751239
 20
293.0810652528
  0
VERTEX
  8
0
 62
9
  6
CONTINUOUS
 10
181.7853357818
 20
293.0793360525
  0
VERTEX
  8
0
 62
9
  6
CONTINUOUS
 10
179.3211190782
 20
293.0740766939
  0
VERTEX
  8
0
 62
9
  6
CONTINUOUS
 10
176.9183257956
 20
293.0650613383
  0
VERTEX
  8
0
 62
9
  6
CONTINUOUS
 10
174.5828429894
 20
293.0517656148
  0
VERTEX
  8
0
 62
9
  6
CONTINUOUS
 10
172.3644140221
 20
293.0338832565
  0
VERTEX
  8
0
 62
9
  6
CONTINUOUS
 10
170.3122520672
 20
293.0112413569
  0
VERTEX
  8
0
 62
9
  6
CONTINUOUS
 10
168.4354137094
 20
292.983475898
  0
VERTEX
  8
0
 62
9
  6
CONTINUOUS
 10
166.7619671746
 20
292.9506718773
  0
VERTEX
  8
0
 62
9
  6
CONTINUOUS
 10
165.3015827195
 20
292.9126874371
  0
VERTEX
  8
0
 62
9
  6
CONTINUOUS
 10
164.0681160913
 20
292.869698662
  0
SEQEND
  0
LINE
  8
0
 62
7
  6
CONTINUOUS
 10
186.8438250828
 20
292.1099227023
 11
184.2587156307
 21
292.1051288842
  0
POLYLINE
  8
0
 62
7
  6
CONTINUOUS
 66
1
 70
0
  0
VERTEX
  8
0
 62
7
  6
CONTINUOUS
 10
184.2587156304
 20
292.1051288842
  0
VERTEX
  8
0
 62
7
  6
CONTINUOUS
 10
182.0311135213
 20
292.1087554335
  0
VERTEX
  8
0
 62
7
  6
CONTINUOUS
 10
180.5179650385
 20
292.1153096045
  0
VERTEX
  8
0
 62
7
  6
CONTINUOUS
 10
179.1051778486
 20
292.1244505794
  0
VERTEX
  8
0
 62
7
  6
CONTINUOUS
 10
177.7863154874
 20
292.1356178538
  0
VERTEX
  8
0
 62
7
  6
CONTINUOUS
 10
176.5570762522
 20
292.1483098549
  0
VERTEX
  8
0
 62
7
  6
CONTINUOUS
 10
175.4092040593
 20
292.1621855664
  0
SEQEND
  0
POLYLINE
  8
0
 62
9
  6
CONTINUOUS
 66
1
 70
0
  0
VERTEX
  8
0
 62
9
  6
CONTINUOUS
 10
273.630232437
 20
290.4083306002
  0
VERTEX
  8
0
 62
9
  6
CONTINUOUS
 10
279.886886234
 20
290.3748432902
  0
VERTEX
  8
0
 62
9
  6
CONTINUOUS
 10
286.7458137359
 20
290.3608344759
  0
VERTEX
  8
0
 62
9
  6
CONTINUOUS
 10
293.8797289649
 20
290.3814750318
  0
VERTEX
  8
0
 62
9
  6
CONTINUOUS
 10
301.0085061539
 20
290.4460383549
  0
VERTEX
  8
0
 62
9
  6
CONTINUOUS
 10
308.1934167521
 20
290.563751842
  0
VERTEX
  8
0
 62
9
  6
CONTINUOUS
 10
315.2661331022
 20
290.7392391683
  0
VERTEX
  8
0
 62
9
  6
CONTINUOUS
 10
322.6350871414
 20
290.9906159539
  0
VERTEX
  8
0
 62
9
  6
CONTINUOUS
 10
330.7249287044
 20
291.3464858291
  0
VERTEX
  8
0
 62
9
  6
CONTINUOUS
 10
339.3154773369
 20
291.8138928001
  0
VERTEX
  8
0
 62
9
  6
CONTINUOUS
 10
348.3182496572
 20
292.4000998199
  0
VERTEX
  8
0
 62
9
  6
CONTINUOUS
 10
357.7567153559
 20
293.1198863564
  0
SEQEND
  0
POLYLINE
  8
0
 62
7
  6
CONTINUOUS
 66
1
 70
0
  0
VERTEX
  8
0
 62
7
  6
CONTINUOUS
 10
159.2753909927
 20
293.7468254678
  0
VERTEX
  8
0
 62
7
  6
CONTINUOUS
 10
167.6084780543
 20
293.6422758122
  0
VERTEX
  8
0
 62
7
  6
CONTINUOUS
 10
175.941776206
 20
293.5795460188
  0
VERTEX
  8
0
 62
7
  6
CONTINUOUS
 10
184.2753909927
 20
293.5586360877
  0
VERTEX
  8
0
 62
7
  6
CONTINUOUS
 10
192.6090057795
 20
293.5795460188
  0
VERTEX
  8
0
 62
7
  6
CONTINUOUS
 10
200.9423039311
 20
293.6422758122
  0
VERTEX
  8
0
 62
7
  6
CONTINUOUS
 10
209.2753909927
 20
293.7468254678
  0
SEQEND
  0
LINE
  8
0
 62
7
  6
CONTINUOUS
 10
175.4092040593
 20
292.1621855664
 11
173.3447552531
 21
292.1922891699
  0
LINE
  8
0
 62
7
  6
CONTINUOUS
 10
173.3447552531
 20
292.1922891699
 11
171.5526806699
 21
292.2241535385
  0
LINE
  8
0
 62
7
  6
CONTINUOUS
 10
171.5526806699
 20
292.2241535385
 11
169.9975656448
 21
292.2565503488
  0
POLYLINE
  8
0
 62
7
  6
CONTINUOUS
 66
1
 70
0
  0
VERTEX
  8
0
 62
7
  6
CONTINUOUS
 10
159.2753909927
 20
293.7468254678
  0
VERTEX
  8
0
 62
7
  6
CONTINUOUS
 10
137.78398333
 20
294.2640063511
  0
VERTEX
  8
0
 62
7
  6
CONTINUOUS
 10
117.2805243754
 20
294.6624114894
  0
VERTEX
  8
0
 62
7
  6
CONTINUOUS
 10
97.8169374658
 20
294.9668866616
  0
VERTEX
  8
0
 62
7
  6
CONTINUOUS
 10
79.237452591
 20
295.1028945308
  0
VERTEX
  8
0
 62
7
  6
CONTINUOUS
 10
61.3947219455
 20
294.8985589776
  0
VERTEX
  8
0
 62
7
  6
CONTINUOUS
 10
44.3154022528
 20
294.6707421279
  0
VERTEX
  8
0
 62
7
  6
CONTINUOUS
 10
27.9742268993
 20
294.7114603288
  0
VERTEX
  8
0
 62
7
  6
CONTINUOUS
 10
12.3796180897
 20
294.923374798
  0
SEQEND
  0
LINE
  8
0
 62
7
  6
CONTINUOUS
 10
169.9975656448
 20
292.2565503488
 11
168.6495951704
 21
292.2887290208
  0
LINE
  8
0
 62
7
  6
CONTINUOUS
 10
168.6495951704
 20
292.2887290208
 11
167.4857584284
 21
292.3202413144
  0
LINE
  8
0
 62
7
  6
CONTINUOUS
 10
167.4857584284
 20
292.3202413144
 11
166.4854054986
 21
292.3508702066
  0
POLYLINE
  8
0
 62
9
  6
CONTINUOUS
 66
1
 70
0
  0
VERTEX
  8
0
 62
9
  6
CONTINUOUS
 10
204.5385786432
 20
292.8670368697
  0
VERTEX
  8
0
 62
9
  6
CONTINUOUS
 10
203.3188197534
 20
292.9103078525
  0
VERTEX
  8
0
 62
9
  6
CONTINUOUS
 10
201.8679222471
 20
292.9486733024
  0
VERTEX
  8
0
 62
9
  6
CONTINUOUS
 10
200.1969172117
 20
292.9819248773
  0
VERTEX
  8
0
 62
9
  6
CONTINUOUS
 10
198.3151596156
 20
293.0101377633
  0
VERTEX
  8
0
 62
9
  6
CONTINUOUS
 10
196.253039914
 20
293.0331597889
  0
VERTEX
  8
0
 62
9
  6
CONTINUOUS
 10
194.0208668676
 20
293.0513378326
  0
VERTEX
  8
0
 62
9
  6
CONTINUOUS
 10
191.6662493342
 20
293.0648562031
  0
VERTEX
  8
0
 62
9
  6
CONTINUOUS
 10
189.2471035148
 20
293.0739959361
  0
VERTEX
  8
0
 62
9
  6
CONTINUOUS
 10
186.7770861004
 20
293.0793051956
  0
VERTEX
  8
0
 62
9
  6
CONTINUOUS
 10
184.2828751254
 20
293.0810652979
  0
SEQEND
  0
LINE
  8
0
 62
7
  6
CONTINUOUS
 10
166.4854054986
 20
292.3508702066
 11
165.6293492202
 21
292.3804639933
  0
LINE
  8
0
 62
7
  6
CONTINUOUS
 10
165.6293492202
 20
292.3804639933
 11
164.8989404675
 21
292.4089631401
  0
POLYLINE
  8
0
 62
9
  6
CONTINUOUS
 66
1
 70
0
  0
VERTEX
  8
0
 62
9
  6
CONTINUOUS
 10
163.9537318044
 20
292.4444663274
  0
VERTEX
  8
0
 62
9
  6
CONTINUOUS
 10
165.1672209585
 20
292.3921767726
  0
VERTEX
  8
0
 62
9
  6
CONTINUOUS
 10
166.6113447023
 20
292.3420216896
  0
VERTEX
  8
0
 62
9
  6
CONTINUOUS
 10
168.2596007107
 20
292.2947169802
  0
VERTEX
  8
0
 62
9
  6
CONTINUOUS
 10
170.1187056897
 20
292.2501333076
  0
VERTEX
  8
0
 62
9
  6
CONTINUOUS
 10
172.1702977519
 20
292.2092290259
  0
VERTEX
  8
0
 62
9
  6
CONTINUOUS
 10
174.3725904883
 20
292.1734755819
  0
VERTEX
  8
0
 62
9
  6
CONTINUOUS
 10
176.7108810677
 20
292.1438252115
  0
VERTEX
  8
0
 62
9
  6
CONTINUOUS
 10
179.1646466032
 20
292.1213653531
  0
VERTEX
  8
0
 62
9
  6
CONTINUOUS
 10
181.6919772394
 20
292.1073880092
  0
VERTEX
  8
0
 62
9
  6
CONTINUOUS
 10
184.2586429215
 20
292.1026360098
  0
SEQEND
  0
LINE
  8
0
 62
7
  6
CONTINUOUS
 10
164.8989404675
 20
292.4089631401
 11
164.2834373803
 21
292.4362140179
  0
POLYLINE
  8
0
 62
7
  6
CONTINUOUS
 66
1
 70
0
  0
VERTEX
  8
0
 62
7
  6
CONTINUOUS
 10
164.2834373803
 20
292.4362140179
  0
VERTEX
  8
0
 62
7
  6
CONTINUOUS
 10
163.7722440968
 20
292.4621262726
  0
VERTEX
  8
0
 62
7
  6
CONTINUOUS
 10
163.5523992608
 20
292.4745380292
  0
VERTEX
  8
0
 62
7
  6
CONTINUOUS
 10
163.3552659554
 20
292.4865372473
  0
VERTEX
  8
0
 62
7
  6
CONTINUOUS
 10
163.1802859758
 20
292.4980705281
  0
VERTEX
  8
0
 62
7
  6
CONTINUOUS
 10
163.026926013
 20
292.5090682532
  0
VERTEX
  8
0
 62
7
  6
CONTINUOUS
 10
162.8946610789
 20
292.5194385119
  0
VERTEX
  8
0
 62
7
  6
CONTINUOUS
 10
162.7827802662
 20
292.5290762561
  0
VERTEX
  8
0
 62
7
  6
CONTINUOUS
 10
162.6925886482
 20
292.5376641006
  0
VERTEX
  8
0
 62
7
  6
CONTINUOUS
 10
162.6444974997
 20
292.5426769147
  0
SEQEND
  0
POLYLINE
  8
0
 62
9
  6
CONTINUOUS
 66
1
 70
0
  0
VERTEX
  8
0
 62
9
  6
CONTINUOUS
 10
354.594437554
 20
288.7018391658
  0
VERTEX
  8
0
 62
9
  6
CONTINUOUS
 10
355.2059464587
 20
288.6573728578
  0
VERTEX
  8
0
 62
9
  6
CONTINUOUS
 10
355.8014108338
 20
288.5054242585
  0
VERTEX
  8
0
 62
9
  6
CONTINUOUS
 10
356.3365867615
 20
288.2645452309
  0
VERTEX
  8
0
 62
9
  6
CONTINUOUS
 10
356.8199429077
 20
287.9402938075
  0
VERTEX
  8
0
 62
9
  6
CONTINUOUS
 10
357.2566205492
 20
287.5247127542
  0
VERTEX
  8
0
 62
9
  6
CONTINUOUS
 10
357.6225262055
 20
287.0291063473
  0
VERTEX
  8
0
 62
9
  6
CONTINUOUS
 10
357.9013323807
 20
286.4639394911
  0
VERTEX
  8
0
 62
9
  6
CONTINUOUS
 10
358.0769328119
 20
285.8468753655
  0
VERTEX
  8
0
 62
9
  6
CONTINUOUS
 10
358.1375980929
 20
285.2070131321
  0
VERTEX
  8
0
 62
9
  6
CONTINUOUS
 10
358.0780465451
 20
284.5517076199
  0
VERTEX
  8
0
 62
9
  6
CONTINUOUS
 10
357.8875979661
 20
283.8944183401
  0
VERTEX
  8
0
 62
9
  6
CONTINUOUS
 10
357.5759295645
 20
283.2912199361
  0
SEQEND
  0
POLYLINE
  8
0
 62
9
  6
CONTINUOUS
 66
1
 70
0
  0
VERTEX
  8
0
 62
9
  6
CONTINUOUS
 10
357.410704037
 20
290.7559270717
  0
VERTEX
  8
0
 62
9
  6
CONTINUOUS
 10
358.0430772398
 20
290.7094716351
  0
VERTEX
  8
0
 62
9
  6
CONTINUOUS
 10
358.658738825
 20
290.5489352213
  0
VERTEX
  8
0
 62
9
  6
CONTINUOUS
 10
359.2087631727
 20
290.2948548458
  0
VERTEX
  8
0
 62
9
  6
CONTINUOUS
 10
359.7023673167
 20
289.9533678196
  0
VERTEX
  8
0
 62
9
  6
CONTINUOUS
 10
360.1452310884
 20
289.5151399433
  0
VERTEX
  8
0
 62
9
  6
CONTINUOUS
 10
360.5104466364
 20
288.9931057006
  0
VERTEX
  8
0
 62
9
  6
CONTINUOUS
 10
360.779760194
 20
288.3998982756
  0
VERTEX
  8
0
 62
9
  6
CONTINUOUS
 10
360.9363233162
 20
287.7545284521
  0
VERTEX
  8
0
 62
9
  6
CONTINUOUS
 10
360.9680619861
 20
287.0887917223
  0
VERTEX
  8
0
 62
9
  6
CONTINUOUS
 10
360.8688422238
 20
286.4121461246
  0
VERTEX
  8
0
 62
9
  6
CONTINUOUS
 10
360.6274727859
 20
285.7415714398
  0
SEQEND
  0
POLYLINE
  8
0
 62
9
  6
CONTINUOUS
 66
1
 70
0
  0
VERTEX
  8
0
 62
9
  6
CONTINUOUS
 10
343.497883868
 20
288.0766918632
  0
VERTEX
  8
0
 62
9
  6
CONTINUOUS
 10
343.9962781748
 20
288.0185760499
  0
VERTEX
  8
0
 62
9
  6
CONTINUOUS
 10
344.4696178416
 20
287.8431019339
  0
VERTEX
  8
0
 62
9
  6
CONTINUOUS
 10
344.9017267519
 20
287.5693616662
  0
VERTEX
  8
0
 62
9
  6
CONTINUOUS
 10
345.2863571978
 20
287.2056902918
  0
VERTEX
  8
0
 62
9
  6
CONTINUOUS
 10
345.6171858977
 20
286.7615832832
  0
VERTEX
  8
0
 62
9
  6
CONTINUOUS
 10
345.8841319849
 20
286.2520141171
  0
VERTEX
  8
0
 62
9
  6
CONTINUOUS
 10
346.0797965662
 20
285.6916452925
  0
VERTEX
  8
0
 62
9
  6
CONTINUOUS
 10
346.1988592588
 20
285.0957269687
  0
VERTEX
  8
0
 62
9
  6
CONTINUOUS
 10
346.2368677141
 20
284.4830202539
  0
VERTEX
  8
0
 62
9
  6
CONTINUOUS
 10
346.1906830484
 20
283.8643565244
  0
VERTEX
  8
0
 62
9
  6
CONTINUOUS
 10
346.0573400376
 20
283.2497066014
  0
VERTEX
  8
0
 62
9
  6
CONTINUOUS
 10
345.8311035358
 20
282.6687409447
  0
SEQEND
  0
POLYLINE
  8
0
 62
7
  6
CONTINUOUS
 66
1
 70
0
  0
VERTEX
  8
0
 62
7
  6
CONTINUOUS
 10
281.6309532783
 20
13.9743141644
  0
VERTEX
  8
0
 62
7
  6
CONTINUOUS
 10
282.4782924822
 20
15.3661086855
  0
VERTEX
  8
0
 62
7
  6
CONTINUOUS
 10
283.2033857445
 20
16.8367923726
  0
VERTEX
  8
0
 62
7
  6
CONTINUOUS
 10
283.7933256208
 20
18.3834829236
  0
VERTEX
  8
0
 62
7
  6
CONTINUOUS
 10
284.2868344441
 20
20.0148272443
  0
VERTEX
  8
0
 62
7
  6
CONTINUOUS
 10
284.7261198469
 20
21.7361932109
  0
VERTEX
  8
0
 62
7
  6
CONTINUOUS
 10
285.0878184857
 20
23.5545356104
  0
VERTEX
  8
0
 62
7
  6
CONTINUOUS
 10
285.3785489798
 20
25.475481846
  0
VERTEX
  8
0
 62
7
  6
CONTINUOUS
 10
285.5505730721
 20
27.5083819466
  0
VERTEX
  8
0
 62
7
  6
CONTINUOUS
 10
285.5633500181
 20
29.5443134084
  0
SEQEND
  0
POLYLINE
  8
0
 62
7
  6
CONTINUOUS
 66
1
 70
0
  0
VERTEX
  8
0
 62
7
  6
CONTINUOUS
 10
281.6309532783
 20
13.9743141644
  0
VERTEX
  8
0
 62
7
  6
CONTINUOUS
 10
281.1524787468
 20
13.4894676251
  0
VERTEX
  8
0
 62
7
  6
CONTINUOUS
 10
280.4180217758
 20
13.0213280674
  0
VERTEX
  8
0
 62
7
  6
CONTINUOUS
 10
279.4216047581
 20
12.5676599211
  0
VERTEX
  8
0
 62
7
  6
CONTINUOUS
 10
278.181160515
 20
12.1351698971
  0
VERTEX
  8
0
 62
7
  6
CONTINUOUS
 10
276.7065267423
 20
11.728593458
  0
VERTEX
  8
0
 62
7
  6
CONTINUOUS
 10
275.0160112088
 20
11.3516087788
  0
VERTEX
  8
0
 62
7
  6
CONTINUOUS
 10
273.123941197
 20
11.0084710412
  0
VERTEX
  8
0
 62
7
  6
CONTINUOUS
 10
271.0520958611
 20
10.7021846874
  0
VERTEX
  8
0
 62
7
  6
CONTINUOUS
 10
268.8185468929
 20
10.4364171158
  0
VERTEX
  8
0
 62
7
  6
CONTINUOUS
 10
266.4487439624
 20
10.2134346399
  0
VERTEX
  8
0
 62
7
  6
CONTINUOUS
 10
263.9780948326
 20
10.0371621371
  0
VERTEX
  8
0
 62
7
  6
CONTINUOUS
 10
261.3947969156
 20
9.9062913148
  0
SEQEND
  0
POLYLINE
  8
0
 62
7
  6
CONTINUOUS
 66
1
 70
0
  0
VERTEX
  8
0
 62
7
  6
CONTINUOUS
 10
12.3796180897
 20
294.923374798
  0
VERTEX
  8
0
 62
7
  6
CONTINUOUS
 10
11.7066308649
 20
294.8748534556
  0
VERTEX
  8
0
 62
7
  6
CONTINUOUS
 10
11.0774755527
 20
294.7104792363
  0
VERTEX
  8
0
 62
7
  6
CONTINUOUS
 10
10.4824911074
 20
294.4241407529
  0
VERTEX
  8
0
 62
7
  6
CONTINUOUS
 10
9.9506606667
 20
294.0341721666
  0
VERTEX
  8
0
 62
7
  6
CONTINUOUS
 10
9.5041241693
 20
293.5498165824
  0
SEQEND
  0
LINE
  8
0
 62
9
  6
CONTINUOUS
 10
357.7567153559
 20
293.1198863564
 11
357.3973695557
 21
293.4151347756
  0
LINE
  8
0
 62
7
  6
CONTINUOUS
 10
360.2972204522
 20
292.309818962
 11
360.3262712694
 21
292.2850870263
  0
LINE
  8
0
 62
7
  6
CONTINUOUS
 10
359.4553800018
 20
293.0407013587
 11
359.115402206
 21
293.3313791598
  0
LINE
  8
0
 62
7
  6
CONTINUOUS
 10
360.2972204522
 20
292.309818962
 11
359.4553800018
 21
293.0407013587
  0
POLYLINE
  8
0
 62
9
  6
CONTINUOUS
 66
1
 70
0
  0
VERTEX
  8
0
 62
9
  6
CONTINUOUS
 10
357.3973695557
 20
293.4151347756
  0
VERTEX
  8
0
 62
9
  6
CONTINUOUS
 10
356.7705146855
 20
294.0022399206
  0
VERTEX
  8
0
 62
9
  6
CONTINUOUS
 10
356.5172816951
 20
294.2485510801
  0
VERTEX
  8
0
 62
9
  6
CONTINUOUS
 10
356.3327239332
 20
294.4683331058
  0
VERTEX
  8
0
 62
9
  6
CONTINUOUS
 10
356.209264599
 20
294.693668187
  0
SEQEND
  0
POLYLINE
  8
0
 62
7
  6
CONTINUOUS
 66
1
 70
0
  0
VERTEX
  8
0
 62
7
  6
CONTINUOUS
 10
359.0465162427
 20
293.5500019383
  0
VERTEX
  8
0
 62
7
  6
CONTINUOUS
 10
358.5999618405
 20
294.034314707
  0
VERTEX
  8
0
 62
7
  6
CONTINUOUS
 10
358.0681375226
 20
294.4242332683
  0
VERTEX
  8
0
 62
7
  6
CONTINUOUS
 10
357.4731812698
 20
294.7105251636
  0
VERTEX
  8
0
 62
7
  6
CONTINUOUS
 10
356.8440772315
 20
294.8748700853
  0
VERTEX
  8
0
 62
7
  6
CONTINUOUS
 10
356.1711640246
 20
294.9233748026
  0
SEQEND
  0
LINE
  8
0
 62
7
  6
CONTINUOUS
 10
359.263488566
 20
293.2047667221
 11
359.0465162427
 21
293.5500019383
  0
POLYLINE
  8
0
 62
9
  6
CONTINUOUS
 66
1
 70
0
  0
VERTEX
  8
0
 62
9
  6
CONTINUOUS
 10
356.2141616262
 20
294.6938588918
  0
VERTEX
  8
0
 62
9
  6
CONTINUOUS
 10
356.2012752839
 20
294.7300509356
  0
VERTEX
  8
0
 62
9
  6
CONTINUOUS
 10
356.1910675814
 20
294.7671116648
  0
VERTEX
  8
0
 62
9
  6
CONTINUOUS
 10
356.1838309212
 20
294.8049562601
  0
VERTEX
  8
0
 62
9
  6
CONTINUOUS
 10
356.178517719
 20
294.843577515
  0
VERTEX
  8
0
 62
9
  6
CONTINUOUS
 10
356.1740792163
 20
294.8829801656
  0
VERTEX
  8
0
 62
9
  6
CONTINUOUS
 10
356.1708044674
 20
294.923089332
  0
SEQEND
  0
ENDSEC
  0
EOF
