999
DXF file: K:\Client\125_Heirloom\001\00\Final_Data\Drawings\BASINS\annex-361200_2.dxf
999
Pro/ENGINEER 2017110 by Parametric Technology Corporation
  0
SECTION
  2
HEADER
  9
$EXTMAX
 10
420.0
 20
297.0
 30
0.0
  9
$EXTMIN
 10
0.0
 20
0.0
 30
0.0
  9
$LIMMIN
 10
0.0
 20
0.0
  9
$LIMMAX
 10
420.0
 20
297.0
  9
$VIEWCTR
 10
210.0
 20
148.5
  9
$VIEWSIZE
 40
297.0
  9
$CLAYER
  8
0
  9
$LTSCALE
 40
23.1
  9
$CELTYPE
  6
BYLAYER
  9
$DIMSCALE
 40
1.0
  9
$DIMASZ
 40
3.0
  9
$DIMEXO
 40
1.0
  9
$DIMDLI
 40
15.96
  9
$DIMEXE
 40
1.0
  9
$DIMCEN
 40
3.78
  9
$DIMLFAC
 40
1.0
  9
$DIMBLK
  1
_FILLED
  9
$DIMALT
 70
0
  9
$DIMALTF
 40
0.0393700787
  9
$DIMTXT
 40
3.0
  9
$AUNITS
 70
0
  9
$PDMODE
 70
3
  9
$PDSIZE
 40
5.0
  9
$TILEMODE
 70
1
  0
ENDSEC
  0
SECTION
  2
TABLES
  0
TABLE
  2
LTYPE
 70
6
  0
LTYPE
  2
BYBLOCK
 70
0
  3

 72
65
 73
0
 40
0.0
  0
LTYPE
  2
BYLAYER
 70
0
  3

 72
65
 73
0
 40
0.0
  0
LTYPE
  2
CONTINUOUS
 70
64
  3
Solid line
 72
65
 73
0
 40
0.0
  0
LTYPE
  2
CENTER
 70
64
  3
____ _ ____ _ ____ _ ____ _ ____ _ ____ _ ____
 72
65
 73
4
 40
0.6
 49
0.375
 49
-0.075
 49
0.075
 49
-0.075
  0
LTYPE
  2
HIDDEN
 70
64
  3
- - - - - - - - - - - - - - - - - - - -
 72
65
 73
2
 40
0.2
 49
0.1
 49
-0.1
  0
LTYPE
  2
PHANTOM
 70
64
  3
_____ _ _ _____ _ _ _____ _ _ _____
 72
65
 73
6
 40
0.8
 49
0.45
 49
-0.05
 49
0.1
 49
-0.05
 49
0.1
 49
-0.05
  0
LTYPE
  2
DOT
 70
64
  3
. . . . . . . . . . . . . . . . . . . .
 72
65
 73
2
 40
0.2
 49
0.1
 49
-0.1
  0
LTYPE
  2
DASHED
 70
64
  3
- - - - - - - - - - - - - - - - - - - -
 72
65
 73
2
 40
0.2
 49
0.1
 49
-0.1
  0
ENDTAB
  0
TABLE
  2
LAYER
 70
36
  0
LAYER
  2
0
 70
0
 62
7
  6
CONTINUOUS
  0
LAYER
  2
DEFAULT_1
 70
0
 62
7
  6
CENTER
  0
LAYER
  2
DEFAULT_2
 70
0
 62
8
  6
HIDDEN
  0
LAYER
  2
DEFAULT_3
 70
0
 62
7
  6
PHANTOM
  0
LAYER
  2
0000_BOM
 70
0
 62
7
  6
CONTINUOUS
  0
LAYER
  2
0000_REV_TABLE
 70
0
 62
7
  6
CONTINUOUS
  0
LAYER
  2
0000_STEVENS_NOTE
 70
0
 62
7
  6
CONTINUOUS
  0
LAYER
  2
01_DATUM_PLANES
 70
0
 62
7
  6
CONTINUOUS
  0
LAYER
  2
01_DEF_PLANES
 70
0
 62
7
  6
CONTINUOUS
  0
LAYER
  2
02_DATUM_COS
 70
0
 62
7
  6
CONTINUOUS
  0
LAYER
  2
90_IMP_FEAT
 70
0
 62
7
  6
CONTINUOUS
  0
LAYER
  2
95_STL
 70
0
 62
7
  6
CONTINUOUS
  0
LAYER
  2
99_SOLID
 70
0
 62
7
  6
CONTINUOUS
  0
LAYER
  2
CAD-MASTER_ZINC-PL
 70
0
 62
7
  6
CONTINUOUS
  0
LAYER
  2
CURVE
 70
0
 62
7
  6
CONTINUOUS
  0
LAYER
  2
SKEL
 70
0
 62
7
  6
CONTINUOUS
  0
LAYER
  2
SKETCH
 70
0
 62
7
  6
CONTINUOUS
  0
LAYER
  2
SURFACE
 70
0
 62
7
  6
CONTINUOUS
  0
ENDTAB
  0
TABLE
  2
STYLE
 70
1
  0
STYLE
  2
STANDARD
 70
0
 40
0.0
 41
0.75
 50
0.0
 71
0
 42
0.2
  3
txt
  4

  0
STYLE
  2
TEXTSTYLE_1
 70
0
 40
0.0
 41
0.8
 50
0.0
 71
0
 42
0.2
  3
gdt
  4

  0
ENDTAB
  0
ENDSEC
  0
SECTION
  2
BLOCKS
  0
ENDSEC
  0
SECTION
  2
ENTITIES
  0
POLYLINE
  8
0
 62
7
  6
CONTINUOUS
 66
1
 70
0
  0
VERTEX
  8
0
 62
7
  6
CONTINUOUS
 10
3.8543755676
 20
283.9881596894
  0
VERTEX
  8
0
 62
7
  6
CONTINUOUS
 10
3.7533204682
 20
283.8296861754
  0
VERTEX
  8
0
 62
7
  6
CONTINUOUS
 10
3.6583723952
 20
283.6611423294
  0
VERTEX
  8
0
 62
7
  6
CONTINUOUS
 10
3.5715457573
 20
283.4846268408
  0
VERTEX
  8
0
 62
7
  6
CONTINUOUS
 10
3.4925602626
 20
283.2977540655
  0
VERTEX
  8
0
 62
7
  6
CONTINUOUS
 10
3.4224121814
 20
283.0999258314
  0
VERTEX
  8
0
 62
7
  6
CONTINUOUS
 10
3.3615835443
 20
282.8876378268
  0
VERTEX
  8
0
 62
7
  6
CONTINUOUS
 10
3.3112681842
 20
282.6554710136
  0
VERTEX
  8
0
 62
7
  6
CONTINUOUS
 10
3.275536731
 20
282.4085230039
  0
VERTEX
  8
0
 62
7
  6
CONTINUOUS
 10
3.2572746499
 20
282.152895985
  0
VERTEX
  8
0
 62
7
  6
CONTINUOUS
 10
3.2583547542
 20
281.8827488432
  0
VERTEX
  8
0
 62
7
  6
CONTINUOUS
 10
3.2826666587
 20
281.5941737766
  0
VERTEX
  8
0
 62
7
  6
CONTINUOUS
 10
3.3347190063
 20
281.2901404206
  0
VERTEX
  8
0
 62
7
  6
CONTINUOUS
 10
3.419201369
 20
280.9732371124
  0
VERTEX
  8
0
 62
7
  6
CONTINUOUS
 10
3.5413849855
 20
280.6459688485
  0
VERTEX
  8
0
 62
7
  6
CONTINUOUS
 10
3.7071619833
 20
280.3118155927
  0
VERTEX
  8
0
 62
7
  6
CONTINUOUS
 10
3.9209248429
 20
279.978556749
  0
SEQEND
  0
POLYLINE
  8
0
 62
7
  6
CONTINUOUS
 66
1
 70
0
  0
VERTEX
  8
0
 62
7
  6
CONTINUOUS
 10
4.0300710885
 20
284.236359274
  0
VERTEX
  8
0
 62
7
  6
CONTINUOUS
 10
3.6808601523
 20
283.724128544
  0
VERTEX
  8
0
 62
7
  6
CONTINUOUS
 10
3.4230220909
 20
283.1440716085
  0
VERTEX
  8
0
 62
7
  6
CONTINUOUS
 10
3.2729130913
 20
282.5164096562
  0
VERTEX
  8
0
 62
7
  6
CONTINUOUS
 10
3.2408763105
 20
281.8675577462
  0
VERTEX
  8
0
 62
7
  6
CONTINUOUS
 10
3.3320532466
 20
281.2120132023
  0
VERTEX
  8
0
 62
7
  6
CONTINUOUS
 10
3.5525704002
 20
280.5681389355
  0
VERTEX
  8
0
 62
7
  6
CONTINUOUS
 10
3.9029130773
 20
279.9655576815
  0
SEQEND
  0
LINE
  8
0
 62
7
  6
CONTINUOUS
 10
3.9029130773
 20
279.9655576815
 11
3.9209248429
 21
279.978556749
  0
POLYLINE
  8
0
 62
7
  6
CONTINUOUS
 66
1
 70
0
  0
VERTEX
  8
0
 62
7
  6
CONTINUOUS
 10
4.0797438591
 20
284.4586168436
  0
VERTEX
  8
0
 62
7
  6
CONTINUOUS
 10
3.9298678545
 20
284.3545347058
  0
VERTEX
  8
0
 62
7
  6
CONTINUOUS
 10
3.7802796477
 20
284.2384022085
  0
VERTEX
  8
0
 62
7
  6
CONTINUOUS
 10
3.6320160827
 20
284.1095943358
  0
VERTEX
  8
0
 62
7
  6
CONTINUOUS
 10
3.4867894293
 20
283.9681111451
  0
VERTEX
  8
0
 62
7
  6
CONTINUOUS
 10
3.3462562881
 20
283.8141043404
  0
VERTEX
  8
0
 62
7
  6
CONTINUOUS
 10
3.2119624545
 20
283.6478150296
  0
VERTEX
  8
0
 62
7
  6
CONTINUOUS
 10
3.085530331
 20
283.4698232787
  0
VERTEX
  8
0
 62
7
  6
CONTINUOUS
 10
2.9683488565
 20
283.2806741649
  0
VERTEX
  8
0
 62
7
  6
CONTINUOUS
 10
2.8619023987
 20
283.0813935749
  0
VERTEX
  8
0
 62
7
  6
CONTINUOUS
 10
2.7671801366
 20
282.8724124824
  0
VERTEX
  8
0
 62
7
  6
CONTINUOUS
 10
2.6853346683
 20
282.6546929976
  0
VERTEX
  8
0
 62
7
  6
CONTINUOUS
 10
2.6172190357
 20
282.4286232168
  0
VERTEX
  8
0
 62
7
  6
CONTINUOUS
 10
2.5638123323
 20
282.1949802157
  0
VERTEX
  8
0
 62
7
  6
CONTINUOUS
 10
2.526048783
 20
281.954477695
  0
VERTEX
  8
0
 62
7
  6
CONTINUOUS
 10
2.5048826926
 20
281.7080562274
  0
VERTEX
  8
0
 62
7
  6
CONTINUOUS
 10
2.5012345925
 20
281.4569787024
  0
VERTEX
  8
0
 62
7
  6
CONTINUOUS
 10
2.5158853918
 20
281.2030371496
  0
VERTEX
  8
0
 62
7
  6
CONTINUOUS
 10
2.549588825
 20
280.9468860315
  0
VERTEX
  8
0
 62
7
  6
CONTINUOUS
 10
2.6030147705
 20
280.6901259712
  0
VERTEX
  8
0
 62
7
  6
CONTINUOUS
 10
2.6770151719
 20
280.4334848969
  0
VERTEX
  8
0
 62
7
  6
CONTINUOUS
 10
2.7722888133
 20
280.1786053226
  0
VERTEX
  8
0
 62
7
  6
CONTINUOUS
 10
2.8896021201
 20
279.9269540578
  0
VERTEX
  8
0
 62
7
  6
CONTINUOUS
 10
3.0293173393
 20
279.6808273991
  0
VERTEX
  8
0
 62
7
  6
CONTINUOUS
 10
3.1652549856
 20
279.4784762194
  0
SEQEND
  0
POLYLINE
  8
0
 62
7
  6
CONTINUOUS
 66
1
 70
0
  0
VERTEX
  8
0
 62
7
  6
CONTINUOUS
 10
4.8298058745
 20
284.9505558464
  0
VERTEX
  8
0
 62
7
  6
CONTINUOUS
 10
4.772807148
 20
284.912309742
  0
VERTEX
  8
0
 62
7
  6
CONTINUOUS
 10
4.6806569587
 20
284.8469394533
  0
VERTEX
  8
0
 62
7
  6
CONTINUOUS
 10
4.5878277841
 20
284.7763892843
  0
VERTEX
  8
0
 62
7
  6
CONTINUOUS
 10
4.492145272
 20
284.6983400056
  0
VERTEX
  8
0
 62
7
  6
CONTINUOUS
 10
4.3925669632
 20
284.610842058
  0
VERTEX
  8
0
 62
7
  6
CONTINUOUS
 10
4.2887445038
 20
284.5120806267
  0
VERTEX
  8
0
 62
7
  6
CONTINUOUS
 10
4.1790766702
 20
284.3983515642
  0
VERTEX
  8
0
 62
7
  6
CONTINUOUS
 10
4.0682574373
 20
284.2721347935
  0
VERTEX
  8
0
 62
7
  6
CONTINUOUS
 10
3.9597859143
 20
284.1356395836
  0
VERTEX
  8
0
 62
7
  6
CONTINUOUS
 10
3.8543755676
 20
283.9881596894
  0
SEQEND
  0
LINE
  8
0
 62
7
  6
CONTINUOUS
 10
3.165254987
 20
279.4784762198
 11
3.9031027701
 21
279.9655246662
  0
LINE
  8
0
 62
7
  6
CONTINUOUS
 10
4.8298058745
 20
284.9505558464
 11
4.0797438591
 21
284.4586168436
  0
POLYLINE
  8
0
 62
7
  6
CONTINUOUS
 66
1
 70
0
  0
VERTEX
  8
0
 62
7
  6
CONTINUOUS
 10
80.0184924533
 20
289.3090843449
  0
VERTEX
  8
0
 62
7
  6
CONTINUOUS
 10
79.9618913251
 20
289.2641793647
  0
VERTEX
  8
0
 62
7
  6
CONTINUOUS
 10
79.9024312304
 20
289.1122307653
  0
VERTEX
  8
0
 62
7
  6
CONTINUOUS
 10
79.8509010803
 20
288.8713517378
  0
VERTEX
  8
0
 62
7
  6
CONTINUOUS
 10
79.8063139125
 20
288.5471003144
  0
VERTEX
  8
0
 62
7
  6
CONTINUOUS
 10
79.76827801
 20
288.131519261
  0
VERTEX
  8
0
 62
7
  6
CONTINUOUS
 10
79.7391048256
 20
287.6359128542
  0
VERTEX
  8
0
 62
7
  6
CONTINUOUS
 10
79.7203094252
 20
287.070745998
  0
VERTEX
  8
0
 62
7
  6
CONTINUOUS
 10
79.7132519606
 20
286.4536818724
  0
VERTEX
  8
0
 62
7
  6
CONTINUOUS
 10
79.7186257089
 20
285.8138196389
  0
VERTEX
  8
0
 62
7
  6
CONTINUOUS
 10
79.7368480918
 20
285.1585141267
  0
VERTEX
  8
0
 62
7
  6
CONTINUOUS
 10
79.7687890547
 20
284.501224847
  0
VERTEX
  8
0
 62
7
  6
CONTINUOUS
 10
79.8124104277
 20
283.898026443
  0
SEQEND
  0
LINE
  8
0
 62
7
  6
CONTINUOUS
 10
139.5717612267
 20
9.4394058733
 11
353.9135436953
 21
49.5032886859
  0
POLYLINE
  8
0
 62
7
  6
CONTINUOUS
 66
1
 70
0
  0
VERTEX
  8
0
 62
7
  6
CONTINUOUS
 10
53.5220566604
 20
278.1820537339
  0
VERTEX
  8
0
 62
7
  6
CONTINUOUS
 10
52.8636450107
 20
280.718347529
  0
VERTEX
  8
0
 62
7
  6
CONTINUOUS
 10
52.205512003
 20
283.279368623
  0
SEQEND
  0
POLYLINE
  8
0
 62
7
  6
CONTINUOUS
 66
1
 70
0
  0
VERTEX
  8
0
 62
7
  6
CONTINUOUS
 10
131.4799035387
 20
78.5974627965
  0
VERTEX
  8
0
 62
7
  6
CONTINUOUS
 10
132.2205691675
 20
78.5795749839
  0
VERTEX
  8
0
 62
7
  6
CONTINUOUS
 10
133.1929700047
 20
78.6238079815
  0
VERTEX
  8
0
 62
7
  6
CONTINUOUS
 10
134.370073414
 20
78.7275426209
  0
VERTEX
  8
0
 62
7
  6
CONTINUOUS
 10
135.7532360237
 20
78.8901319773
  0
VERTEX
  8
0
 62
7
  6
CONTINUOUS
 10
137.3429069385
 20
79.1113431968
  0
VERTEX
  8
0
 62
7
  6
CONTINUOUS
 10
139.1247857344
 20
79.3898571815
  0
VERTEX
  8
0
 62
7
  6
CONTINUOUS
 10
141.0936948036
 20
79.7259129565
  0
VERTEX
  8
0
 62
7
  6
CONTINUOUS
 10
143.227278276
 20
80.1158515862
  0
VERTEX
  8
0
 62
7
  6
CONTINUOUS
 10
145.4991374279
 20
80.5550260921
  0
VERTEX
  8
0
 62
7
  6
CONTINUOUS
 10
147.8938964389
 20
81.041060268
  0
VERTEX
  8
0
 62
7
  6
CONTINUOUS
 10
150.3984634847
 20
81.5715026176
  0
VERTEX
  8
0
 62
7
  6
CONTINUOUS
 10
152.9669941309
 20
82.1367727124
  0
SEQEND
  0
POLYLINE
  8
0
 62
7
  6
CONTINUOUS
 66
1
 70
0
  0
VERTEX
  8
0
 62
7
  6
CONTINUOUS
 10
3.1729355368
 20
279.4729045083
  0
VERTEX
  8
0
 62
7
  6
CONTINUOUS
 10
19.3442583117
 20
258.1616199318
  0
VERTEX
  8
0
 62
7
  6
CONTINUOUS
 10
35.1883798627
 20
238.7555549422
  0
VERTEX
  8
0
 62
7
  6
CONTINUOUS
 10
49.5333570671
 20
221.7905455226
  0
VERTEX
  8
0
 62
7
  6
CONTINUOUS
 10
62.4332282407
 20
206.7779057448
  0
VERTEX
  8
0
 62
7
  6
CONTINUOUS
 10
73.7630559946
 20
193.376998575
  0
VERTEX
  8
0
 62
7
  6
CONTINUOUS
 10
83.4680683528
 20
181.0537927911
  0
VERTEX
  8
0
 62
7
  6
CONTINUOUS
 10
91.4984889413
 20
169.5790176815
  0
VERTEX
  8
0
 62
7
  6
CONTINUOUS
 10
98.4133847193
 20
158.0993706198
  0
VERTEX
  8
0
 62
7
  6
CONTINUOUS
 10
104.6641948853
 20
145.8333550464
  0
VERTEX
  8
0
 62
7
  6
CONTINUOUS
 10
110.4761874121
 20
132.3233232146
  0
VERTEX
  8
0
 62
7
  6
CONTINUOUS
 10
116.1599583276
 20
116.8326929525
  0
VERTEX
  8
0
 62
7
  6
CONTINUOUS
 10
121.6876592622
 20
99.5503745874
  0
VERTEX
  8
0
 62
7
  6
CONTINUOUS
 10
127.0712369028
 20
80.3290537102
  0
VERTEX
  8
0
 62
7
  6
CONTINUOUS
 10
131.8836346161
 20
58.8854525311
  0
VERTEX
  8
0
 62
7
  6
CONTINUOUS
 10
135.9335502648
 20
34.8829214299
  0
VERTEX
  8
0
 62
7
  6
CONTINUOUS
 10
139.5727028407
 20
9.4395818759
  0
SEQEND
  0
POLYLINE
  8
0
 62
7
  6
CONTINUOUS
 66
1
 70
0
  0
VERTEX
  8
0
 62
7
  6
CONTINUOUS
 10
3.9011306523
 20
279.9679899189
  0
VERTEX
  8
0
 62
7
  6
CONTINUOUS
 10
9.8768444475
 20
271.8522168038
  0
VERTEX
  8
0
 62
7
  6
CONTINUOUS
 10
15.5624729861
 20
264.3793167783
  0
VERTEX
  8
0
 62
7
  6
CONTINUOUS
 10
20.9407743676
 20
257.5100709847
  0
VERTEX
  8
0
 62
7
  6
CONTINUOUS
 10
25.941590981
 20
251.2738911252
  0
VERTEX
  8
0
 62
7
  6
CONTINUOUS
 10
30.3880744794
 20
245.8279810771
  0
VERTEX
  8
0
 62
7
  6
CONTINUOUS
 10
34.5765490084
 20
240.7637288451
  0
VERTEX
  8
0
 62
7
  6
CONTINUOUS
 10
38.8282088593
 20
235.6744299512
  0
VERTEX
  8
0
 62
7
  6
CONTINUOUS
 10
42.9748126949
 20
230.753763071
  0
VERTEX
  8
0
 62
7
  6
CONTINUOUS
 10
46.955018093
 20
226.0647283708
  0
VERTEX
  8
0
 62
7
  6
CONTINUOUS
 10
50.7723794837
 20
221.5944768837
  0
VERTEX
  8
0
 62
7
  6
CONTINUOUS
 10
54.3549420964
 20
217.4190253832
  0
VERTEX
  8
0
 62
7
  6
CONTINUOUS
 10
61.5054144819
 20
209.1117669175
  0
SEQEND
  0
POLYLINE
  8
0
 62
7
  6
CONTINUOUS
 66
1
 70
0
  0
VERTEX
  8
0
 62
7
  6
CONTINUOUS
 10
88.3211836251
 20
193.6792094612
  0
VERTEX
  8
0
 62
7
  6
CONTINUOUS
 10
86.1530275182
 20
197.6625554542
  0
VERTEX
  8
0
 62
7
  6
CONTINUOUS
 10
85.0686584109
 20
199.6584913289
  0
VERTEX
  8
0
 62
7
  6
CONTINUOUS
 10
83.9849889177
 20
201.6585786283
  0
VERTEX
  8
0
 62
7
  6
CONTINUOUS
 10
82.9106353901
 20
203.6488017502
  0
VERTEX
  8
0
 62
7
  6
CONTINUOUS
 10
81.8226776388
 20
205.6752677442
  0
VERTEX
  8
0
 62
7
  6
CONTINUOUS
 10
80.6901676439
 20
207.7983695757
  0
VERTEX
  8
0
 62
7
  6
CONTINUOUS
 10
79.54609848
 20
209.9613897395
  0
VERTEX
  8
0
 62
7
  6
CONTINUOUS
 10
78.4164141125
 20
212.1224339806
  0
VERTEX
  8
0
 62
7
  6
CONTINUOUS
 10
77.29446462
 20
214.2990995432
  0
VERTEX
  8
0
 62
7
  6
CONTINUOUS
 10
76.1819382121
 20
216.4946202745
  0
VERTEX
  8
0
 62
7
  6
CONTINUOUS
 10
75.0806341358
 20
218.7106541829
  0
VERTEX
  8
0
 62
7
  6
CONTINUOUS
 10
74.0015574912
 20
220.9305614281
  0
VERTEX
  8
0
 62
7
  6
CONTINUOUS
 10
72.9190571718
 20
223.2126172537
  0
VERTEX
  8
0
 62
7
  6
CONTINUOUS
 10
71.7975333232
 20
225.6419507645
  0
VERTEX
  8
0
 62
7
  6
CONTINUOUS
 10
70.6827377219
 20
228.1239629674
  0
VERTEX
  8
0
 62
7
  6
CONTINUOUS
 10
69.6084309832
 20
230.5821924339
  0
VERTEX
  8
0
 62
7
  6
CONTINUOUS
 10
68.5595570671
 20
233.0391573508
  0
VERTEX
  8
0
 62
7
  6
CONTINUOUS
 10
67.5338023578
 20
235.4895209445
  0
VERTEX
  8
0
 62
7
  6
CONTINUOUS
 10
66.525478235
 20
237.9397434475
  0
VERTEX
  8
0
 62
7
  6
CONTINUOUS
 10
65.5249759885
 20
240.4010076329
  0
VERTEX
  8
0
 62
7
  6
CONTINUOUS
 10
64.5422140445
 20
242.8540553988
  0
VERTEX
  8
0
 62
7
  6
CONTINUOUS
 10
63.5909622208
 20
245.2665710945
  0
VERTEX
  8
0
 62
7
  6
CONTINUOUS
 10
62.6555470235
 20
247.6918176585
  0
VERTEX
  8
0
 62
7
  6
CONTINUOUS
 10
61.7218227756
 20
250.181622929
  0
VERTEX
  8
0
 62
7
  6
CONTINUOUS
 10
60.8082520932
 20
252.7129170212
  0
VERTEX
  8
0
 62
7
  6
CONTINUOUS
 10
59.9244708132
 20
255.2910667724
  0
VERTEX
  8
0
 62
7
  6
CONTINUOUS
 10
59.0819341251
 20
257.8821321263
  0
VERTEX
  8
0
 62
7
  6
CONTINUOUS
 10
58.2943841582
 20
260.4420465694
  0
VERTEX
  8
0
 62
7
  6
CONTINUOUS
 10
57.5513392086
 20
262.9994074349
  0
VERTEX
  8
0
 62
7
  6
CONTINUOUS
 10
56.8349701858
 20
265.5690853488
  0
VERTEX
  8
0
 62
7
  6
CONTINUOUS
 10
56.1421398519
 20
268.1284557185
  0
VERTEX
  8
0
 62
7
  6
CONTINUOUS
 10
55.4775242604
 20
270.6599478817
  0
VERTEX
  8
0
 62
7
  6
CONTINUOUS
 10
53.5220566604
 20
278.1820537339
  0
SEQEND
  0
POLYLINE
  8
0
 62
7
  6
CONTINUOUS
 66
1
 70
0
  0
VERTEX
  8
0
 62
7
  6
CONTINUOUS
 10
123.9045308539
 20
108.0419245916
  0
VERTEX
  8
0
 62
7
  6
CONTINUOUS
 10
123.5797332434
 20
109.2206957745
  0
VERTEX
  8
0
 62
7
  6
CONTINUOUS
 10
123.2586753018
 20
110.3782448462
  0
VERTEX
  8
0
 62
7
  6
CONTINUOUS
 10
122.9365983203
 20
111.531562726
  0
VERTEX
  8
0
 62
7
  6
CONTINUOUS
 10
122.6134804255
 20
112.6804549337
  0
VERTEX
  8
0
 62
7
  6
CONTINUOUS
 10
122.2893035468
 20
113.8247254602
  0
VERTEX
  8
0
 62
7
  6
CONTINUOUS
 10
121.9641972628
 20
114.9636744548
  0
VERTEX
  8
0
 62
7
  6
CONTINUOUS
 10
121.6377172735
 20
116.0986298614
  0
VERTEX
  8
0
 62
7
  6
CONTINUOUS
 10
121.3092573137
 20
117.2314287156
  0
VERTEX
  8
0
 62
7
  6
CONTINUOUS
 10
120.9793943839
 20
118.3598234475
  0
VERTEX
  8
0
 62
7
  6
CONTINUOUS
 10
120.6485748697
 20
119.4820974028
  0
VERTEX
  8
0
 62
7
  6
CONTINUOUS
 10
120.3166687756
 20
120.598539719
  0
VERTEX
  8
0
 62
7
  6
CONTINUOUS
 10
119.9837210514
 20
121.70888322
  0
VERTEX
  8
0
 62
7
  6
CONTINUOUS
 10
119.6496746613
 20
122.8130915508
  0
VERTEX
  8
0
 62
7
  6
CONTINUOUS
 10
119.3285239831
 20
123.8649317283
  0
VERTEX
  8
0
 62
7
  6
CONTINUOUS
 10
118.97812957
 20
125.0027103357
  0
VERTEX
  8
0
 62
7
  6
CONTINUOUS
 10
118.5397053145
 20
126.4103365171
  0
VERTEX
  8
0
 62
7
  6
CONTINUOUS
 10
118.0690868733
 20
127.9004672579
  0
VERTEX
  8
0
 62
7
  6
CONTINUOUS
 10
117.6104259921
 20
129.3329966822
  0
VERTEX
  8
0
 62
7
  6
CONTINUOUS
 10
117.1487250811
 20
130.7547638147
  0
VERTEX
  8
0
 62
7
  6
CONTINUOUS
 10
116.6837818875
 20
132.165877206
  0
VERTEX
  8
0
 62
7
  6
CONTINUOUS
 10
116.2154016389
 20
133.5664433873
  0
VERTEX
  8
0
 62
7
  6
CONTINUOUS
 10
115.7501778086
 20
134.9365270767
  0
VERTEX
  8
0
 62
7
  6
CONTINUOUS
 10
115.2675799444
 20
136.3363816783
  0
VERTEX
  8
0
 62
7
  6
CONTINUOUS
 10
114.7384583926
 20
137.8457621386
  0
VERTEX
  8
0
 62
7
  6
CONTINUOUS
 10
114.1895813001
 20
139.3832094265
  0
VERTEX
  8
0
 62
7
  6
CONTINUOUS
 10
113.6425239229
 20
140.8879064061
  0
VERTEX
  8
0
 62
7
  6
CONTINUOUS
 10
113.0896243915
 20
142.3808216147
  0
VERTEX
  8
0
 62
7
  6
CONTINUOUS
 10
112.530570674
 20
143.8624530589
  0
VERTEX
  8
0
 62
7
  6
CONTINUOUS
 10
111.9651708606
 20
145.3335452305
  0
VERTEX
  8
0
 62
7
  6
CONTINUOUS
 10
111.4009590661
 20
146.7751413003
  0
VERTEX
  8
0
 62
7
  6
CONTINUOUS
 10
110.814763174
 20
148.2470122146
  0
VERTEX
  8
0
 62
7
  6
CONTINUOUS
 10
110.1735690242
 20
149.8275777215
  0
VERTEX
  8
0
 62
7
  6
CONTINUOUS
 10
109.5074198645
 20
151.4382066874
  0
VERTEX
  8
0
 62
7
  6
CONTINUOUS
 10
108.8405541048
 20
153.0207869182
  0
VERTEX
  8
0
 62
7
  6
CONTINUOUS
 10
108.1645112542
 20
154.5959741425
  0
VERTEX
  8
0
 62
7
  6
CONTINUOUS
 10
107.4790104941
 20
156.1646363166
  0
VERTEX
  8
0
 62
7
  6
CONTINUOUS
 10
106.7836402502
 20
157.7279656099
  0
VERTEX
  8
0
 62
7
  6
CONTINUOUS
 10
106.0891929424
 20
159.262144921
  0
VERTEX
  8
0
 62
7
  6
CONTINUOUS
 10
105.3616436852
 20
160.8429998479
  0
VERTEX
  8
0
 62
7
  6
CONTINUOUS
 10
104.5533187486
 20
162.568364233
  0
VERTEX
  8
0
 62
7
  6
CONTINUOUS
 10
103.706077926
 20
164.3431478148
  0
VERTEX
  8
0
 62
7
  6
CONTINUOUS
 10
102.8532924941
 20
166.0989731286
  0
VERTEX
  8
0
 62
7
  6
CONTINUOUS
 10
101.9844107922
 20
167.8597282569
  0
VERTEX
  8
0
 62
7
  6
CONTINUOUS
 10
101.0997737212
 20
169.6265963084
  0
VERTEX
  8
0
 62
7
  6
CONTINUOUS
 10
100.2003908575
 20
171.3994826056
  0
VERTEX
  8
0
 62
7
  6
CONTINUOUS
 10
99.2889419765
 20
173.1751518123
  0
VERTEX
  8
0
 62
7
  6
CONTINUOUS
 10
98.3610397982
 20
174.9643590479
  0
VERTEX
  8
0
 62
7
  6
CONTINUOUS
 10
97.4102535825
 20
176.7813070084
  0
VERTEX
  8
0
 62
7
  6
CONTINUOUS
 10
96.4446535336
 20
178.6120245128
  0
VERTEX
  8
0
 62
7
  6
CONTINUOUS
 10
95.4705494832
 20
180.4464868233
  0
VERTEX
  8
0
 62
7
  6
CONTINUOUS
 10
94.4872625716
 20
182.2873074349
  0
VERTEX
  8
0
 62
7
  6
CONTINUOUS
 10
93.4958421635
 20
184.1339317034
  0
VERTEX
  8
0
 62
7
  6
CONTINUOUS
 10
92.4973536605
 20
185.9858075706
  0
VERTEX
  8
0
 62
7
  6
CONTINUOUS
 10
91.5010353456
 20
187.8270408794
  0
VERTEX
  8
0
 62
7
  6
CONTINUOUS
 10
90.4834752606
 20
189.7031337399
  0
VERTEX
  8
0
 62
7
  6
CONTINUOUS
 10
88.3211836251
 20
193.6792094612
  0
SEQEND
  0
LINE
  8
0
 62
7
  6
CONTINUOUS
 10
124.5043587407
 20
105.8450444538
 11
123.9045308539
 21
108.0419245916
  0
LINE
  8
0
 62
7
  6
CONTINUOUS
 10
125.0593291183
 20
103.791013396
 11
124.5043587407
 21
105.8450444538
  0
LINE
  8
0
 62
7
  6
CONTINUOUS
 10
125.6163062035
 20
101.7101920235
 11
125.0593291183
 21
103.791013396
  0
LINE
  8
0
 62
7
  6
CONTINUOUS
 10
126.1779615748
 20
99.5940888651
 11
125.6163062035
 21
101.7101920235
  0
LINE
  8
0
 62
7
  6
CONTINUOUS
 10
126.8856881306
 20
96.9042909533
 11
126.1779615748
 21
99.5940888651
  0
LINE
  8
0
 62
7
  6
CONTINUOUS
 10
127.5393589357
 20
94.3957153454
 11
126.8856881306
 21
96.9042909533
  0
LINE
  8
0
 62
7
  6
CONTINUOUS
 10
128.1873280861
 20
91.8840325039
 11
127.5393589357
 21
94.3957153454
  0
POLYLINE
  8
0
 62
7
  6
CONTINUOUS
 66
1
 70
0
  0
VERTEX
  8
0
 62
7
  6
CONTINUOUS
 10
79.812420584
 20
283.8980342907
  0
VERTEX
  8
0
 62
7
  6
CONTINUOUS
 10
80.7660260991
 20
280.1783373176
  0
VERTEX
  8
0
 62
7
  6
CONTINUOUS
 10
81.6999646294
 20
276.4234120455
  0
SEQEND
  0
LINE
  8
0
 62
7
  6
CONTINUOUS
 10
128.82297813
 20
89.3939542677
 11
128.1873280861
 21
91.8840325039
  0
LINE
  8
0
 62
7
  6
CONTINUOUS
 10
129.4510197751
 20
86.9062404404
 11
128.82297813
 21
89.3939542677
  0
LINE
  8
0
 62
7
  6
CONTINUOUS
 10
130.0722956265
 20
84.416430219
 11
129.4510197751
 21
86.9062404404
  0
LINE
  8
0
 62
7
  6
CONTINUOUS
 10
130.688581757
 20
81.9160769606
 11
130.0722956265
 21
84.416430219
  0
POLYLINE
  8
0
 62
7
  6
CONTINUOUS
 66
1
 70
0
  0
VERTEX
  8
0
 62
7
  6
CONTINUOUS
 10
131.4934702164
 20
78.6009277442
  0
VERTEX
  8
0
 62
7
  6
CONTINUOUS
 10
131.2940936164
 20
79.4276020589
  0
VERTEX
  8
0
 62
7
  6
CONTINUOUS
 10
130.688581757
 20
81.9160769606
  0
SEQEND
  0
POLYLINE
  8
0
 62
7
  6
CONTINUOUS
 66
1
 70
0
  0
VERTEX
  8
0
 62
7
  6
CONTINUOUS
 10
81.6999646294
 20
276.4234120455
  0
VERTEX
  8
0
 62
7
  6
CONTINUOUS
 10
83.5086341186
 20
268.809892419
  0
VERTEX
  8
0
 62
7
  6
CONTINUOUS
 10
84.4605432341
 20
264.8907059811
  0
VERTEX
  8
0
 62
7
  6
CONTINUOUS
 10
85.4789859914
 20
260.9397242186
  0
VERTEX
  8
0
 62
7
  6
CONTINUOUS
 10
86.6096769056
 20
256.9853516366
  0
VERTEX
  8
0
 62
7
  6
CONTINUOUS
 10
87.8199921184
 20
253.0714662489
  0
VERTEX
  8
0
 62
7
  6
CONTINUOUS
 10
89.1007222492
 20
249.2737567655
  0
VERTEX
  8
0
 62
7
  6
CONTINUOUS
 10
90.4273853107
 20
245.524585559
  0
VERTEX
  8
0
 62
7
  6
CONTINUOUS
 10
91.7722506867
 20
241.7750411204
  0
VERTEX
  8
0
 62
7
  6
CONTINUOUS
 10
93.1360096061
 20
238.0423436951
  0
VERTEX
  8
0
 62
7
  6
CONTINUOUS
 10
94.5022549645
 20
234.3243174083
  0
VERTEX
  8
0
 62
7
  6
CONTINUOUS
 10
95.8945933555
 20
230.6296266411
  0
VERTEX
  8
0
 62
7
  6
CONTINUOUS
 10
97.3368357157
 20
226.9502331736
  0
VERTEX
  8
0
 62
7
  6
CONTINUOUS
 10
98.8120141531
 20
223.3333589041
  0
VERTEX
  8
0
 62
7
  6
CONTINUOUS
 10
100.3070980655
 20
219.8463168439
  0
VERTEX
  8
0
 62
7
  6
CONTINUOUS
 10
101.8339830532
 20
216.4222543319
  0
VERTEX
  8
0
 62
7
  6
CONTINUOUS
 10
103.4045953501
 20
213.0154825788
  0
VERTEX
  8
0
 62
7
  6
CONTINUOUS
 10
105.0058726257
 20
209.6289817555
  0
VERTEX
  8
0
 62
7
  6
CONTINUOUS
 10
106.6315563468
 20
206.2491432974
  0
VERTEX
  8
0
 62
7
  6
CONTINUOUS
 10
108.2731203625
 20
202.8806090369
  0
VERTEX
  8
0
 62
7
  6
CONTINUOUS
 10
109.9199334319
 20
199.5272013159
  0
SEQEND
  0
POLYLINE
  8
0
 62
7
  6
CONTINUOUS
 66
1
 70
0
  0
VERTEX
  8
0
 62
7
  6
CONTINUOUS
 10
61.5054144819
 20
209.1117669175
  0
VERTEX
  8
0
 62
7
  6
CONTINUOUS
 10
65.1114211778
 20
204.9058013834
  0
VERTEX
  8
0
 62
7
  6
CONTINUOUS
 10
68.5641420512
 20
200.8433076008
  0
VERTEX
  8
0
 62
7
  6
CONTINUOUS
 10
71.9652886159
 20
196.7871637699
  0
VERTEX
  8
0
 62
7
  6
CONTINUOUS
 10
75.3513370322
 20
192.6689036405
  0
VERTEX
  8
0
 62
7
  6
CONTINUOUS
 10
78.7717098859
 20
188.3960615907
  0
VERTEX
  8
0
 62
7
  6
CONTINUOUS
 10
82.2570254365
 20
183.8872055845
  0
VERTEX
  8
0
 62
7
  6
CONTINUOUS
 10
85.8571604115
 20
179.0179176261
  0
VERTEX
  8
0
 62
7
  6
CONTINUOUS
 10
89.6427319596
 20
173.5972165105
  0
VERTEX
  8
0
 62
7
  6
CONTINUOUS
 10
93.4836292186
 20
167.6910259434
  0
VERTEX
  8
0
 62
7
  6
CONTINUOUS
 10
97.2827752735
 20
161.344732002
  0
VERTEX
  8
0
 62
7
  6
CONTINUOUS
 10
101.0400660066
 20
154.44404449
  0
VERTEX
  8
0
 62
7
  6
CONTINUOUS
 10
104.762751442
 20
146.8704011672
  0
VERTEX
  8
0
 62
7
  6
CONTINUOUS
 10
108.3722749852
 20
138.7035627245
  0
VERTEX
  8
0
 62
7
  6
CONTINUOUS
 10
111.8372890434
 20
129.985067289
  0
VERTEX
  8
0
 62
7
  6
CONTINUOUS
 10
115.1526781828
 20
120.7796965085
  0
VERTEX
  8
0
 62
7
  6
CONTINUOUS
 10
118.343421325
 20
111.1230035605
  0
VERTEX
  8
0
 62
7
  6
CONTINUOUS
 10
121.3896600914
 20
101.1982698373
  0
VERTEX
  8
0
 62
7
  6
CONTINUOUS
 10
124.2982469554
 20
91.1251527533
  0
VERTEX
  8
0
 62
7
  6
CONTINUOUS
 10
126.9982129946
 20
81.1216963453
  0
VERTEX
  8
0
 62
7
  6
CONTINUOUS
 10
129.3874232273
 20
71.4819509514
  0
VERTEX
  8
0
 62
7
  6
CONTINUOUS
 10
131.4988877817
 20
62.0617174801
  0
VERTEX
  8
0
 62
7
  6
CONTINUOUS
 10
133.3551448351
 20
52.7956944478
  0
VERTEX
  8
0
 62
7
  6
CONTINUOUS
 10
134.9796509562
 20
43.791680721
  0
VERTEX
  8
0
 62
7
  6
CONTINUOUS
 10
136.3918951891
 20
35.2630862428
  0
VERTEX
  8
0
 62
7
  6
CONTINUOUS
 10
137.693948022
 20
26.8610713983
  0
VERTEX
  8
0
 62
7
  6
CONTINUOUS
 10
138.9604779323
 20
18.2498722729
  0
VERTEX
  8
0
 62
7
  6
CONTINUOUS
 10
140.1758394339
 20
9.5523157771
  0
SEQEND
  0
POLYLINE
  8
0
 62
7
  6
CONTINUOUS
 66
1
 70
0
  0
VERTEX
  8
0
 62
7
  6
CONTINUOUS
 10
145.322678104
 20
10.5141076153
  0
VERTEX
  8
0
 62
7
  6
CONTINUOUS
 10
144.1076502395
 20
18.0414563541
  0
VERTEX
  8
0
 62
7
  6
CONTINUOUS
 10
142.9586669424
 20
24.6418184045
  0
VERTEX
  8
0
 62
7
  6
CONTINUOUS
 10
141.9525781549
 20
30.0949438505
  0
VERTEX
  8
0
 62
7
  6
CONTINUOUS
 10
140.9896656034
 20
35.1003729
  0
VERTEX
  8
0
 62
7
  6
CONTINUOUS
 10
139.9532829501
 20
40.3034809835
  0
VERTEX
  8
0
 62
7
  6
CONTINUOUS
 10
138.8641881243
 20
45.6093858969
  0
VERTEX
  8
0
 62
7
  6
CONTINUOUS
 10
137.6671440323
 20
51.2928310109
  0
VERTEX
  8
0
 62
7
  6
CONTINUOUS
 10
136.458851419
 20
56.8819721085
  0
VERTEX
  8
0
 62
7
  6
CONTINUOUS
 10
135.3903572528
 20
61.7244603719
  0
VERTEX
  8
0
 62
7
  6
CONTINUOUS
 10
134.2830228369
 20
66.6557967712
  0
VERTEX
  8
0
 62
7
  6
CONTINUOUS
 10
132.9708957317
 20
72.3600822806
  0
VERTEX
  8
0
 62
7
  6
CONTINUOUS
 10
131.4934702164
 20
78.6009277442
  0
SEQEND
  0
POLYLINE
  8
0
 62
7
  6
CONTINUOUS
 66
1
 70
0
  0
VERTEX
  8
0
 62
7
  6
CONTINUOUS
 10
109.9199334319
 20
199.5272013159
  0
VERTEX
  8
0
 62
7
  6
CONTINUOUS
 10
113.2303565946
 20
192.8160809756
  0
VERTEX
  8
0
 62
7
  6
CONTINUOUS
 10
114.8817093805
 20
189.4617221267
  0
VERTEX
  8
0
 62
7
  6
CONTINUOUS
 10
116.5135428315
 20
186.1321654831
  0
VERTEX
  8
0
 62
7
  6
CONTINUOUS
 10
118.1248587906
 20
182.8198998923
  0
VERTEX
  8
0
 62
7
  6
CONTINUOUS
 10
119.7111342491
 20
179.5260609707
  0
VERTEX
  8
0
 62
7
  6
CONTINUOUS
 10
121.270300126
 20
176.2432381365
  0
VERTEX
  8
0
 62
7
  6
CONTINUOUS
 10
122.799845739
 20
172.9669945312
  0
VERTEX
  8
0
 62
7
  6
CONTINUOUS
 10
124.2965268299
 20
169.6901868837
  0
VERTEX
  8
0
 62
7
  6
CONTINUOUS
 10
125.7552538608
 20
166.4081626945
  0
VERTEX
  8
0
 62
7
  6
CONTINUOUS
 10
127.1790088188
 20
163.1096149681
  0
VERTEX
  8
0
 62
7
  6
CONTINUOUS
 10
128.5679602477
 20
159.7840546547
  0
VERTEX
  8
0
 62
7
  6
CONTINUOUS
 10
129.9254593212
 20
156.4243700758
  0
VERTEX
  8
0
 62
7
  6
CONTINUOUS
 10
131.2539196568
 20
153.0217186826
  0
VERTEX
  8
0
 62
7
  6
CONTINUOUS
 10
132.556327476
 20
149.5707341004
  0
VERTEX
  8
0
 62
7
  6
CONTINUOUS
 10
133.8407210415
 20
146.0482353964
  0
VERTEX
  8
0
 62
7
  6
CONTINUOUS
 10
135.0943463734
 20
142.4989834367
  0
VERTEX
  8
0
 62
7
  6
CONTINUOUS
 10
136.298568096
 20
138.9810351669
  0
VERTEX
  8
0
 62
7
  6
CONTINUOUS
 10
137.4788240329
 20
135.4347307128
  0
VERTEX
  8
0
 62
7
  6
CONTINUOUS
 10
138.6551764752
 20
131.8137238143
  0
VERTEX
  8
0
 62
7
  6
CONTINUOUS
 10
139.8253105157
 20
128.1334271315
  0
VERTEX
  8
0
 62
7
  6
CONTINUOUS
 10
140.9935121578
 20
124.3938150868
  0
VERTEX
  8
0
 62
7
  6
CONTINUOUS
 10
142.1600094765
 20
120.5952953283
  0
VERTEX
  8
0
 62
7
  6
CONTINUOUS
 10
143.333426916
 20
116.7155296511
  0
VERTEX
  8
0
 62
7
  6
CONTINUOUS
 10
144.4928441876
 20
112.8229769269
  0
VERTEX
  8
0
 62
7
  6
CONTINUOUS
 10
145.6142331163
 20
108.9987400765
  0
VERTEX
  8
0
 62
7
  6
CONTINUOUS
 10
146.715483188
 20
105.1833661618
  0
VERTEX
  8
0
 62
7
  6
CONTINUOUS
 10
147.809466752
 20
101.3350149125
  0
VERTEX
  8
0
 62
7
  6
CONTINUOUS
 10
148.8873453855
 20
97.480021621
  0
VERTEX
  8
0
 62
7
  6
CONTINUOUS
 10
149.9459884568
 20
93.6291838847
  0
VERTEX
  8
0
 62
7
  6
CONTINUOUS
 10
150.9812850326
 20
89.7853058203
  0
VERTEX
  8
0
 62
7
  6
CONTINUOUS
 10
151.987441146
 20
85.9555246642
  0
VERTEX
  8
0
 62
7
  6
CONTINUOUS
 10
152.9664428362
 20
82.136689959
  0
SEQEND
  0
POLYLINE
  8
0
 62
7
  6
CONTINUOUS
 66
1
 70
0
  0
VERTEX
  8
0
 62
7
  6
CONTINUOUS
 10
152.9664428362
 20
82.136689959
  0
VERTEX
  8
0
 62
7
  6
CONTINUOUS
 10
154.2503059499
 20
76.9276439621
  0
VERTEX
  8
0
 62
7
  6
CONTINUOUS
 10
155.4910438339
 20
71.7362302032
  0
VERTEX
  8
0
 62
7
  6
CONTINUOUS
 10
156.6744912288
 20
66.611971139
  0
VERTEX
  8
0
 62
7
  6
CONTINUOUS
 10
157.8434346437
 20
61.4023240344
  0
VERTEX
  8
0
 62
7
  6
CONTINUOUS
 10
159.0505324482
 20
55.9096849947
  0
VERTEX
  8
0
 62
7
  6
CONTINUOUS
 10
160.2524205654
 20
50.3130302298
  0
VERTEX
  8
0
 62
7
  6
CONTINUOUS
 10
161.4108982136
 20
44.7998437983
  0
VERTEX
  8
0
 62
7
  6
CONTINUOUS
 10
162.5624742627
 20
39.1559989206
  0
VERTEX
  8
0
 62
7
  6
CONTINUOUS
 10
163.748220783
 20
33.1714915122
  0
VERTEX
  8
0
 62
7
  6
CONTINUOUS
 10
164.9159345218
 20
27.0250082951
  0
VERTEX
  8
0
 62
7
  6
CONTINUOUS
 10
166.0222701056
 20
20.8392108219
  0
VERTEX
  8
0
 62
7
  6
CONTINUOUS
 10
167.0809441477
 20
14.5812107852
  0
SEQEND
  0
POLYLINE
  8
0
 62
7
  6
CONTINUOUS
 66
1
 70
0
  0
VERTEX
  8
0
 62
7
  6
CONTINUOUS
 10
201.8122229736
 20
291.3632615189
  0
VERTEX
  8
0
 62
7
  6
CONTINUOUS
 10
201.8014005411
 20
291.3162781419
  0
VERTEX
  8
0
 62
7
  6
CONTINUOUS
 10
201.7915175694
 20
291.1557417282
  0
VERTEX
  8
0
 62
7
  6
CONTINUOUS
 10
201.7845493524
 20
290.9016613526
  0
VERTEX
  8
0
 62
7
  6
CONTINUOUS
 10
201.7802042923
 20
290.5601743265
  0
VERTEX
  8
0
 62
7
  6
CONTINUOUS
 10
201.7785232903
 20
290.1219464501
  0
VERTEX
  8
0
 62
7
  6
CONTINUOUS
 10
201.7798387539
 20
289.5999122075
  0
VERTEX
  8
0
 62
7
  6
CONTINUOUS
 10
201.7843112853
 20
289.0067047824
  0
VERTEX
  8
0
 62
7
  6
CONTINUOUS
 10
201.7919655038
 20
288.361334959
  0
VERTEX
  8
0
 62
7
  6
CONTINUOUS
 10
201.8025134307
 20
287.6955982291
  0
VERTEX
  8
0
 62
7
  6
CONTINUOUS
 10
201.8159213639
 20
287.0189526315
  0
VERTEX
  8
0
 62
7
  6
CONTINUOUS
 10
201.8321324588
 20
286.3483779467
  0
VERTEX
  8
0
 62
7
  6
CONTINUOUS
 10
201.8497882772
 20
285.7460049891
  0
SEQEND
  0
LINE
  8
0
 62
7
  6
CONTINUOUS
 10
353.6196746668
 20
295.7088801254
 11
349.4583447317
 21
295.4506984002
  0
LINE
  8
0
 62
7
  6
CONTINUOUS
 10
353.9135436953
 20
295.7270616749
 11
353.6196746668
 21
295.7088801254
  0
LINE
  8
0
 62
7
  6
CONTINUOUS
 10
231.381255637
 20
292.6386726714
 11
221.5721440002
 21
292.1029746852
  0
LINE
  8
0
 62
7
  6
CONTINUOUS
 10
240.5417878599
 20
293.1306004557
 11
231.2784815407
 21
292.6331536216
  0
POLYLINE
  8
0
 62
7
  6
CONTINUOUS
 66
1
 70
0
  0
VERTEX
  8
0
 62
7
  6
CONTINUOUS
 10
32.291170297
 20
282.4914442838
  0
VERTEX
  8
0
 62
7
  6
CONTINUOUS
 10
27.920918487
 20
282.2627710492
  0
VERTEX
  8
0
 62
7
  6
CONTINUOUS
 10
25.9935022852
 20
282.1538183447
  0
VERTEX
  8
0
 62
7
  6
CONTINUOUS
 10
24.1394543466
 20
282.0356490288
  0
VERTEX
  8
0
 62
7
  6
CONTINUOUS
 10
20.4549978366
 20
281.7857575625
  0
SEQEND
  0
POLYLINE
  8
0
 62
7
  6
CONTINUOUS
 66
1
 70
0
  0
VERTEX
  8
0
 62
7
  6
CONTINUOUS
 10
221.5721440002
 20
292.1029746852
  0
VERTEX
  8
0
 62
7
  6
CONTINUOUS
 10
211.4185778401
 20
291.6352954705
  0
VERTEX
  8
0
 62
7
  6
CONTINUOUS
 10
201.8122229736
 20
291.3632615189
  0
SEQEND
  0
LINE
  8
0
 62
7
  6
CONTINUOUS
 10
249.3667773042
 20
293.5226771014
 11
240.5419538863
 21
293.1306093714
  0
POLYLINE
  8
0
 62
7
  6
CONTINUOUS
 66
1
 70
0
  0
VERTEX
  8
0
 62
7
  6
CONTINUOUS
 10
256.9953454304
 20
288.0661674654
  0
VERTEX
  8
0
 62
7
  6
CONTINUOUS
 10
248.2942948799
 20
287.7885730913
  0
VERTEX
  8
0
 62
7
  6
CONTINUOUS
 10
239.3992677538
 20
287.4246176863
  0
VERTEX
  8
0
 62
7
  6
CONTINUOUS
 10
230.3115413657
 20
286.9420368958
  0
VERTEX
  8
0
 62
7
  6
CONTINUOUS
 10
221.0262563607
 20
286.4518634657
  0
VERTEX
  8
0
 62
7
  6
CONTINUOUS
 10
211.5386130664
 20
286.0642604582
  0
VERTEX
  8
0
 62
7
  6
CONTINUOUS
 10
201.8498086782
 20
285.7481242603
  0
SEQEND
  0
POLYLINE
  8
0
 62
7
  6
CONTINUOUS
 66
1
 70
0
  0
VERTEX
  8
0
 62
7
  6
CONTINUOUS
 10
52.205512003
 20
283.279368623
  0
VERTEX
  8
0
 62
7
  6
CONTINUOUS
 10
49.4507155496
 20
283.1959691996
  0
VERTEX
  8
0
 62
7
  6
CONTINUOUS
 10
46.8027065512
 20
283.1063273664
  0
VERTEX
  8
0
 62
7
  6
CONTINUOUS
 10
44.3151482089
 20
283.0196569424
  0
VERTEX
  8
0
 62
7
  6
CONTINUOUS
 10
41.8437589133
 20
282.9168761015
  0
VERTEX
  8
0
 62
7
  6
CONTINUOUS
 10
39.238246649
 20
282.8005827487
  0
VERTEX
  8
0
 62
7
  6
CONTINUOUS
 10
36.7336660428
 20
282.7007163555
  0
VERTEX
  8
0
 62
7
  6
CONTINUOUS
 10
34.473081735
 20
282.6005221699
  0
VERTEX
  8
0
 62
7
  6
CONTINUOUS
 10
32.291170297
 20
282.4914442838
  0
SEQEND
  0
POLYLINE
  8
0
 62
7
  6
CONTINUOUS
 66
1
 70
0
  0
VERTEX
  8
0
 62
7
  6
CONTINUOUS
 10
79.8123755776
 20
283.8979947121
  0
VERTEX
  8
0
 62
7
  6
CONTINUOUS
 10
76.0341059329
 20
283.8116246208
  0
VERTEX
  8
0
 62
7
  6
CONTINUOUS
 10
72.3084133778
 20
283.7320156731
  0
VERTEX
  8
0
 62
7
  6
CONTINUOUS
 10
58.3548954036
 20
283.4188942583
  0
SEQEND
  0
POLYLINE
  8
0
 62
7
  6
CONTINUOUS
 66
1
 70
0
  0
VERTEX
  8
0
 62
7
  6
CONTINUOUS
 10
58.3548954036
 20
283.4188942583
  0
VERTEX
  8
0
 62
7
  6
CONTINUOUS
 10
55.1941843825
 20
283.3488123522
  0
VERTEX
  8
0
 62
7
  6
CONTINUOUS
 10
52.2010617138
 20
283.274686629
  0
SEQEND
  0
POLYLINE
  8
0
 62
7
  6
CONTINUOUS
 66
1
 70
0
  0
VERTEX
  8
0
 62
7
  6
CONTINUOUS
 10
201.8498086782
 20
285.7481242603
  0
VERTEX
  8
0
 62
7
  6
CONTINUOUS
 10
184.2646570481
 20
285.4092589678
  0
VERTEX
  8
0
 62
7
  6
CONTINUOUS
 10
167.3394502274
 20
285.1560536878
  0
VERTEX
  8
0
 62
7
  6
CONTINUOUS
 10
151.0774486155
 20
284.9367230421
  0
VERTEX
  8
0
 62
7
  6
CONTINUOUS
 10
135.4841675532
 20
284.6939197025
  0
VERTEX
  8
0
 62
7
  6
CONTINUOUS
 10
120.554618601
 20
284.487839836
  0
VERTEX
  8
0
 62
7
  6
CONTINUOUS
 10
106.2955981417
 20
284.3025994159
  0
VERTEX
  8
0
 62
7
  6
CONTINUOUS
 10
92.7168764939
 20
284.08744211
  0
VERTEX
  8
0
 62
7
  6
CONTINUOUS
 10
79.812420584
 20
283.8980342907
  0
SEQEND
  0
POLYLINE
  8
0
 62
7
  6
CONTINUOUS
 66
1
 70
0
  0
VERTEX
  8
0
 62
7
  6
CONTINUOUS
 10
353.9135423792
 20
289.8585533095
  0
VERTEX
  8
0
 62
7
  6
CONTINUOUS
 10
338.5845074302
 20
289.6000364151
  0
VERTEX
  8
0
 62
7
  6
CONTINUOUS
 10
322.9242006536
 20
289.3318969421
  0
VERTEX
  8
0
 62
7
  6
CONTINUOUS
 10
306.9349238802
 20
289.056845759
  0
VERTEX
  8
0
 62
7
  6
CONTINUOUS
 10
290.6177754039
 20
288.7537954257
  0
VERTEX
  8
0
 62
7
  6
CONTINUOUS
 10
273.9716735373
 20
288.41589684
  0
VERTEX
  8
0
 62
7
  6
CONTINUOUS
 10
256.9953454304
 20
288.0661674654
  0
SEQEND
  0
LINE
  8
0
 62
7
  6
CONTINUOUS
 10
12.1786591787
 20
286.3801226137
 11
10.2762461573
 21
286.1577269354
  0
POLYLINE
  8
0
 62
7
  6
CONTINUOUS
 66
1
 70
0
  0
VERTEX
  8
0
 62
7
  6
CONTINUOUS
 10
20.4549978366
 20
281.7857575625
  0
VERTEX
  8
0
 62
7
  6
CONTINUOUS
 10
18.8224475637
 20
281.669869328
  0
VERTEX
  8
0
 62
7
  6
CONTINUOUS
 10
17.2551169604
 20
281.5489300486
  0
VERTEX
  8
0
 62
7
  6
CONTINUOUS
 10
15.6684272337
 20
281.4190713306
  0
VERTEX
  8
0
 62
7
  6
CONTINUOUS
 10
14.1493170266
 20
281.2888799623
  0
VERTEX
  8
0
 62
7
  6
CONTINUOUS
 10
12.7704774935
 20
281.1638672191
  0
VERTEX
  8
0
 62
7
  6
CONTINUOUS
 10
11.4636454027
 20
281.0352787187
  0
VERTEX
  8
0
 62
7
  6
CONTINUOUS
 10
10.1770187209
 20
280.9013770728
  0
VERTEX
  8
0
 62
7
  6
CONTINUOUS
 10
8.9796001485
 20
280.770876959
  0
VERTEX
  8
0
 62
7
  6
CONTINUOUS
 10
7.9228113858
 20
280.6450702333
  0
VERTEX
  8
0
 62
7
  6
CONTINUOUS
 10
6.9569421703
 20
280.5176211669
  0
VERTEX
  8
0
 62
7
  6
CONTINUOUS
 10
6.0415474482
 20
280.3845615876
  0
VERTEX
  8
0
 62
7
  6
CONTINUOUS
 10
5.2132095514
 20
280.2470958667
  0
VERTEX
  8
0
 62
7
  6
CONTINUOUS
 10
4.505805493
 20
280.1092038016
  0
VERTEX
  8
0
 62
7
  6
CONTINUOUS
 10
3.9220370881
 20
279.9769377654
  0
SEQEND
  0
POLYLINE
  8
0
 62
7
  6
CONTINUOUS
 66
1
 70
0
  0
VERTEX
  8
0
 62
7
  6
CONTINUOUS
 10
28.1074510575
 20
287.607223489
  0
VERTEX
  8
0
 62
7
  6
CONTINUOUS
 10
24.154971673
 20
287.3647625527
  0
VERTEX
  8
0
 62
7
  6
CONTINUOUS
 10
20.1184723224
 20
287.0828198881
  0
VERTEX
  8
0
 62
7
  6
CONTINUOUS
 10
15.9616403967
 20
286.7469745992
  0
VERTEX
  8
0
 62
7
  6
CONTINUOUS
 10
11.9988264685
 20
286.3604982768
  0
VERTEX
  8
0
 62
7
  6
CONTINUOUS
 10
8.5126100446
 20
285.912213127
  0
VERTEX
  8
0
 62
7
  6
CONTINUOUS
 10
5.8650644581
 20
285.4114116432
  0
SEQEND
  0
POLYLINE
  8
0
 62
7
  6
CONTINUOUS
 66
1
 70
0
  0
VERTEX
  8
0
 62
7
  6
CONTINUOUS
 10
28.0813559649
 20
287.6057232555
  0
VERTEX
  8
0
 62
7
  6
CONTINUOUS
 10
24.876106466
 20
287.4113016448
  0
VERTEX
  8
0
 62
7
  6
CONTINUOUS
 10
21.9213045291
 20
287.2135763875
  0
VERTEX
  8
0
 62
7
  6
CONTINUOUS
 10
19.1927115119
 20
287.0125303695
  0
VERTEX
  8
0
 62
7
  6
CONTINUOUS
 10
16.6526293723
 20
286.8066687462
  0
VERTEX
  8
0
 62
7
  6
CONTINUOUS
 10
14.3109714512
 20
286.5962024609
  0
VERTEX
  8
0
 62
7
  6
CONTINUOUS
 10
12.1786591787
 20
286.3801226137
  0
SEQEND
  0
LINE
  8
0
 62
7
  6
CONTINUOUS
 10
53.9980542903
 20
288.6834983701
 11
53.9441266013
 21
288.6803845924
  0
POLYLINE
  8
0
 62
7
  6
CONTINUOUS
 66
1
 70
0
  0
VERTEX
  8
0
 62
7
  6
CONTINUOUS
 10
39.7326873779
 20
288.1742250032
  0
VERTEX
  8
0
 62
7
  6
CONTINUOUS
 10
35.4578433176
 20
287.9868611661
  0
VERTEX
  8
0
 62
7
  6
CONTINUOUS
 10
31.5820284634
 20
287.7969999389
  0
SEQEND
  0
POLYLINE
  8
0
 62
7
  6
CONTINUOUS
 66
1
 70
0
  0
VERTEX
  8
0
 62
7
  6
CONTINUOUS
 10
40.4775235605
 20
288.2048253723
  0
VERTEX
  8
0
 62
7
  6
CONTINUOUS
 10
36.2672658814
 20
288.0239772287
  0
VERTEX
  8
0
 62
7
  6
CONTINUOUS
 10
32.1562119829
 20
287.8264863165
  0
VERTEX
  8
0
 62
7
  6
CONTINUOUS
 10
28.0813559649
 20
287.6057232555
  0
SEQEND
  0
LINE
  8
0
 62
7
  6
CONTINUOUS
 10
44.8653900232
 20
288.3747278495
 11
39.7326873779
 21
288.1742250032
  0
POLYLINE
  8
0
 62
7
  6
CONTINUOUS
 66
1
 70
0
  0
VERTEX
  8
0
 62
7
  6
CONTINUOUS
 10
53.9458192104
 20
288.6827993227
  0
VERTEX
  8
0
 62
7
  6
CONTINUOUS
 10
49.6370593004
 20
288.5427562675
  0
VERTEX
  8
0
 62
7
  6
CONTINUOUS
 10
44.3853418939
 20
288.3569087954
  0
SEQEND
  0
POLYLINE
  8
0
 62
7
  6
CONTINUOUS
 66
1
 70
0
  0
VERTEX
  8
0
 62
7
  6
CONTINUOUS
 10
53.9980862904
 20
288.6834993202
  0
VERTEX
  8
0
 62
7
  6
CONTINUOUS
 10
56.8321383105
 20
288.7694758852
  0
VERTEX
  8
0
 62
7
  6
CONTINUOUS
 10
59.8066085886
 20
288.8537261456
  0
VERTEX
  8
0
 62
7
  6
CONTINUOUS
 10
62.9303695574
 20
288.9364776836
  0
VERTEX
  8
0
 62
7
  6
CONTINUOUS
 10
66.176803919
 20
289.0170477525
  0
VERTEX
  8
0
 62
7
  6
CONTINUOUS
 10
69.5287666243
 20
289.0949666026
  0
VERTEX
  8
0
 62
7
  6
CONTINUOUS
 10
72.96671336
 20
289.1698228249
  0
VERTEX
  8
0
 62
7
  6
CONTINUOUS
 10
76.4622273804
 20
289.2409774281
  0
VERTEX
  8
0
 62
7
  6
CONTINUOUS
 10
80.0247809341
 20
289.3086434093
  0
SEQEND
  0
LINE
  8
0
 62
7
  6
CONTINUOUS
 10
256.8199043717
 20
293.7382949325
 11
249.3669243097
 21
293.5226736006
  0
LINE
  8
0
 62
7
  6
CONTINUOUS
 10
53.2155596552
 20
288.6498575681
 11
53.9983786762
 21
288.672062245
  0
POLYLINE
  8
0
 62
7
  6
CONTINUOUS
 66
1
 70
0
  0
VERTEX
  8
0
 62
7
  6
CONTINUOUS
 10
289.418087558
 20
294.4283716862
  0
VERTEX
  8
0
 62
7
  6
CONTINUOUS
 10
272.6867550859
 20
294.072947345
  0
VERTEX
  8
0
 62
7
  6
CONTINUOUS
 10
256.819935232
 20
293.7385839404
  0
SEQEND
  0
LINE
  8
0
 62
7
  6
CONTINUOUS
 10
306.087613069
 20
294.7427540719
 11
289.418087558
 21
294.4283716862
  0
POLYLINE
  8
0
 62
7
  6
CONTINUOUS
 66
1
 70
0
  0
VERTEX
  8
0
 62
7
  6
CONTINUOUS
 10
80.0191194627
 20
289.2752178988
  0
VERTEX
  8
0
 62
7
  6
CONTINUOUS
 10
85.193624736
 20
289.3710196141
  0
VERTEX
  8
0
 62
7
  6
CONTINUOUS
 10
91.4314862188
 20
289.4803869755
  0
VERTEX
  8
0
 62
7
  6
CONTINUOUS
 10
97.9509212009
 20
289.5905865628
  0
SEQEND
  0
LINE
  8
0
 62
7
  6
CONTINUOUS
 10
353.9135436953
 20
295.5315135748
 11
338.7076211213
 21
295.2556854248
  0
POLYLINE
  8
0
 62
7
  6
CONTINUOUS
 66
1
 70
0
  0
VERTEX
  8
0
 62
7
  6
CONTINUOUS
 10
201.8122662312
 20
291.3632628853
  0
VERTEX
  8
0
 62
7
  6
CONTINUOUS
 10
157.7123647803
 20
290.6152421363
  0
VERTEX
  8
0
 62
7
  6
CONTINUOUS
 10
136.5910313703
 20
290.2664573042
  0
VERTEX
  8
0
 62
7
  6
CONTINUOUS
 10
116.4314824521
 20
289.937389194
  0
VERTEX
  8
0
 62
7
  6
CONTINUOUS
 10
97.2624803085
 20
289.6150934583
  0
VERTEX
  8
0
 62
7
  6
CONTINUOUS
 10
80.0184924533
 20
289.3090843449
  0
SEQEND
  0
LINE
  8
0
 62
7
  6
CONTINUOUS
 10
171.2008224597
 20
290.8015175895
 11
201.8135436953
 21
291.3110856662
  0
LINE
  8
0
 62
7
  6
CONTINUOUS
 10
97.9509212009
 20
289.5905865628
 11
171.2008224597
 21
290.8015175895
  0
LINE
  8
0
 62
7
  6
CONTINUOUS
 10
325.0270287793
 20
295.044865579
 11
305.9987965684
 21
294.7412196678
  0
LINE
  8
0
 62
7
  6
CONTINUOUS
 10
338.7373861508
 20
295.2562253482
 11
322.4309899731
 21
295.0048602571
  0
POLYLINE
  8
0
 62
7
  6
CONTINUOUS
 66
1
 70
0
  0
VERTEX
  8
0
 62
7
  6
CONTINUOUS
 10
256.819935232
 20
293.7385839404
  0
VERTEX
  8
0
 62
7
  6
CONTINUOUS
 10
256.8264089108
 20
293.728243745
  0
VERTEX
  8
0
 62
7
  6
CONTINUOUS
 10
256.8409757669
 20
293.6406157306
  0
VERTEX
  8
0
 62
7
  6
CONTINUOUS
 10
256.8562265183
 20
293.4730562917
  0
VERTEX
  8
0
 62
7
  6
CONTINUOUS
 10
256.8721422625
 20
293.2301568069
  0
VERTEX
  8
0
 62
7
  6
CONTINUOUS
 10
256.888871971
 20
292.9079008152
  0
VERTEX
  8
0
 62
7
  6
CONTINUOUS
 10
256.9058092823
 20
292.5143310427
  0
VERTEX
  8
0
 62
7
  6
CONTINUOUS
 10
256.9224138489
 20
292.0601971321
  0
VERTEX
  8
0
 62
7
  6
CONTINUOUS
 10
256.9384947757
 20
291.5477882219
  0
VERTEX
  8
0
 62
7
  6
CONTINUOUS
 10
256.9537937281
 20
290.9782683547
  0
VERTEX
  8
0
 62
7
  6
CONTINUOUS
 10
256.9674534246
 20
290.3758258055
  0
VERTEX
  8
0
 62
7
  6
CONTINUOUS
 10
256.9786952944
 20
289.772667641
  0
VERTEX
  8
0
 62
7
  6
CONTINUOUS
 10
256.9873967135
 20
289.1729441759
  0
VERTEX
  8
0
 62
7
  6
CONTINUOUS
 10
256.9931961197
 20
288.5880765625
  0
VERTEX
  8
0
 62
7
  6
CONTINUOUS
 10
256.9955575167
 20
288.0628478431
  0
SEQEND
  0
POLYLINE
  8
0
 62
7
  6
CONTINUOUS
 66
1
 70
0
  0
VERTEX
  8
0
 62
7
  6
CONTINUOUS
 10
10.4477222387
 20
285.5921300191
  0
VERTEX
  8
0
 62
7
  6
CONTINUOUS
 10
11.4204930767
 20
285.8125514259
  0
VERTEX
  8
0
 62
7
  6
CONTINUOUS
 10
12.6361983406
 20
286.0273606644
  0
VERTEX
  8
0
 62
7
  6
CONTINUOUS
 10
14.1256734826
 20
286.2368776376
  0
VERTEX
  8
0
 62
7
  6
CONTINUOUS
 10
15.7964121462
 20
286.4401426361
  0
VERTEX
  8
0
 62
7
  6
CONTINUOUS
 10
17.5605544542
 20
286.6362268094
  0
VERTEX
  8
0
 62
7
  6
CONTINUOUS
 10
19.4349964207
 20
286.825357483
  0
VERTEX
  8
0
 62
7
  6
CONTINUOUS
 10
21.3992925228
 20
287.0072315996
  0
VERTEX
  8
0
 62
7
  6
CONTINUOUS
 10
23.4776074943
 20
287.1825114574
  0
VERTEX
  8
0
 62
7
  6
CONTINUOUS
 10
25.6932460161
 20
287.3518830621
  0
VERTEX
  8
0
 62
7
  6
CONTINUOUS
 10
28.028342723
 20
287.5149722336
  0
VERTEX
  8
0
 62
7
  6
CONTINUOUS
 10
30.4645009625
 20
287.6713803671
  0
VERTEX
  8
0
 62
7
  6
CONTINUOUS
 10
33.0266192765
 20
287.8218667417
  0
VERTEX
  8
0
 62
7
  6
CONTINUOUS
 10
35.7055422862
 20
287.9664003595
  0
VERTEX
  8
0
 62
7
  6
CONTINUOUS
 10
38.585035102
 20
288.1069534464
  0
VERTEX
  8
0
 62
7
  6
CONTINUOUS
 10
41.732122995
 20
288.2455556293
  0
VERTEX
  8
0
 62
7
  6
CONTINUOUS
 10
45.1878701038
 20
288.3820037067
  0
VERTEX
  8
0
 62
7
  6
CONTINUOUS
 10
49.019893337
 20
288.517077879
  0
VERTEX
  8
0
 62
7
  6
CONTINUOUS
 10
53.2155596552
 20
288.6498575681
  0
SEQEND
  0
POLYLINE
  8
0
 62
7
  6
CONTINUOUS
 66
1
 70
0
  0
VERTEX
  8
0
 62
7
  6
CONTINUOUS
 10
53.9441266013
 20
288.6803845924
  0
VERTEX
  8
0
 62
7
  6
CONTINUOUS
 10
53.5798751381
 20
288.6253825568
  0
VERTEX
  8
0
 62
7
  6
CONTINUOUS
 10
53.1864956114
 20
288.4499084407
  0
VERTEX
  8
0
 62
7
  6
CONTINUOUS
 10
52.8309479644
 20
288.1761681731
  0
VERTEX
  8
0
 62
7
  6
CONTINUOUS
 10
52.5182354667
 20
287.8124967986
  0
VERTEX
  8
0
 62
7
  6
CONTINUOUS
 10
52.2533886312
 20
287.3683897901
  0
VERTEX
  8
0
 62
7
  6
CONTINUOUS
 10
52.0444325036
 20
286.858820624
  0
VERTEX
  8
0
 62
7
  6
CONTINUOUS
 10
51.8971417572
 20
286.2984517993
  0
VERTEX
  8
0
 62
7
  6
CONTINUOUS
 10
51.8155210175
 20
285.7025334755
  0
VERTEX
  8
0
 62
7
  6
CONTINUOUS
 10
51.8027331415
 20
285.0898267607
  0
VERTEX
  8
0
 62
7
  6
CONTINUOUS
 10
51.8610831475
 20
284.4711630312
  0
VERTEX
  8
0
 62
7
  6
CONTINUOUS
 10
51.9927567345
 20
283.8565131082
  0
VERTEX
  8
0
 62
7
  6
CONTINUOUS
 10
52.2016551772
 20
283.2755474516
  0
SEQEND
  0
POLYLINE
  8
0
 62
7
  6
CONTINUOUS
 66
1
 70
0
  0
VERTEX
  8
0
 62
7
  6
CONTINUOUS
 10
10.2762461573
 20
286.1577269354
  0
VERTEX
  8
0
 62
7
  6
CONTINUOUS
 10
8.5922523653
 20
285.9248783848
  0
VERTEX
  8
0
 62
7
  6
CONTINUOUS
 10
8.485056321
 20
285.9070011504
  0
SEQEND
  0
LINE
  8
0
 62
7
  6
CONTINUOUS
 10
353.9135436953
 20
49.5032886859
 11
353.9135436953
 21
295.5303634105
  0
POLYLINE
  8
0
 62
7
  6
CONTINUOUS
 66
1
 70
0
  0
VERTEX
  8
0
 62
7
  6
CONTINUOUS
 10
5.8651073682
 20
285.4107976777
  0
VERTEX
  8
0
 62
7
  6
CONTINUOUS
 10
5.7910680924
 20
285.3905876302
  0
VERTEX
  8
0
 62
7
  6
CONTINUOUS
 10
5.6735160999
 20
285.3548639355
  0
VERTEX
  8
0
 62
7
  6
CONTINUOUS
 10
5.5746853883
 20
285.3212833231
  0
VERTEX
  8
0
 62
7
  6
CONTINUOUS
 10
5.488373409
 20
285.289223448
  0
VERTEX
  8
0
 62
7
  6
CONTINUOUS
 10
5.4176881931
 20
285.2610147921
  0
VERTEX
  8
0
 62
7
  6
CONTINUOUS
 10
5.3505611505
 20
285.2325525958
  0
VERTEX
  8
0
 62
7
  6
CONTINUOUS
 10
5.2746574117
 20
285.1983487325
  0
VERTEX
  8
0
 62
7
  6
CONTINUOUS
 10
5.1956563289
 20
285.160398653
  0
VERTEX
  8
0
 62
7
  6
CONTINUOUS
 10
5.1152575521
 20
285.1192253026
  0
VERTEX
  8
0
 62
7
  6
CONTINUOUS
 10
5.0329212133
 20
285.0742828519
  0
VERTEX
  8
0
 62
7
  6
CONTINUOUS
 10
4.9490298076
 20
285.0254712896
  0
VERTEX
  8
0
 62
7
  6
CONTINUOUS
 10
4.8626667565
 20
284.971877407
  0
VERTEX
  8
0
 62
7
  6
CONTINUOUS
 10
4.8298058745
 20
284.9505558464
  0
SEQEND
  0
ENDSEC
  0
EOF
