999
DXF file: K:\Client\125_Heirloom\001\00\Final_Data\Drawings\BASINS\annex-361200_3.dxf
999
Pro/ENGINEER 2017110 by Parametric Technology Corporation
  0
SECTION
  2
HEADER
  9
$EXTMAX
 10
420.0
 20
297.0
 30
0.0
  9
$EXTMIN
 10
0.0
 20
0.0
 30
0.0
  9
$LIMMIN
 10
0.0
 20
0.0
  9
$LIMMAX
 10
420.0
 20
297.0
  9
$VIEWCTR
 10
210.0
 20
148.5
  9
$VIEWSIZE
 40
297.0
  9
$CLAYER
  8
0
  9
$LTSCALE
 40
23.1
  9
$CELTYPE
  6
BYLAYER
  9
$DIMSCALE
 40
1.0
  9
$DIMASZ
 40
3.0
  9
$DIMEXO
 40
1.0
  9
$DIMDLI
 40
15.96
  9
$DIMEXE
 40
1.0
  9
$DIMCEN
 40
3.78
  9
$DIMLFAC
 40
1.0
  9
$DIMBLK
  1
_FILLED
  9
$DIMALT
 70
0
  9
$DIMALTF
 40
0.0393700787
  9
$DIMTXT
 40
3.0
  9
$AUNITS
 70
0
  9
$PDMODE
 70
3
  9
$PDSIZE
 40
5.0
  9
$TILEMODE
 70
1
  0
ENDSEC
  0
SECTION
  2
TABLES
  0
TABLE
  2
LTYPE
 70
6
  0
LTYPE
  2
BYBLOCK
 70
0
  3

 72
65
 73
0
 40
0.0
  0
LTYPE
  2
BYLAYER
 70
0
  3

 72
65
 73
0
 40
0.0
  0
LTYPE
  2
CONTINUOUS
 70
64
  3
Solid line
 72
65
 73
0
 40
0.0
  0
LTYPE
  2
CENTER
 70
64
  3
____ _ ____ _ ____ _ ____ _ ____ _ ____ _ ____
 72
65
 73
4
 40
0.6
 49
0.375
 49
-0.075
 49
0.075
 49
-0.075
  0
LTYPE
  2
HIDDEN
 70
64
  3
- - - - - - - - - - - - - - - - - - - -
 72
65
 73
2
 40
0.2
 49
0.1
 49
-0.1
  0
LTYPE
  2
PHANTOM
 70
64
  3
_____ _ _ _____ _ _ _____ _ _ _____
 72
65
 73
6
 40
0.8
 49
0.45
 49
-0.05
 49
0.1
 49
-0.05
 49
0.1
 49
-0.05
  0
LTYPE
  2
DOT
 70
64
  3
. . . . . . . . . . . . . . . . . . . .
 72
65
 73
2
 40
0.2
 49
0.1
 49
-0.1
  0
LTYPE
  2
DASHED
 70
64
  3
- - - - - - - - - - - - - - - - - - - -
 72
65
 73
2
 40
0.2
 49
0.1
 49
-0.1
  0
ENDTAB
  0
TABLE
  2
LAYER
 70
36
  0
LAYER
  2
0
 70
0
 62
7
  6
CONTINUOUS
  0
LAYER
  2
DEFAULT_1
 70
0
 62
7
  6
CENTER
  0
LAYER
  2
DEFAULT_2
 70
0
 62
8
  6
HIDDEN
  0
LAYER
  2
DEFAULT_3
 70
0
 62
7
  6
PHANTOM
  0
LAYER
  2
0000_BOM
 70
0
 62
7
  6
CONTINUOUS
  0
LAYER
  2
0000_REV_TABLE
 70
0
 62
7
  6
CONTINUOUS
  0
LAYER
  2
0000_STEVENS_NOTE
 70
0
 62
7
  6
CONTINUOUS
  0
LAYER
  2
01_DATUM_PLANES
 70
0
 62
7
  6
CONTINUOUS
  0
LAYER
  2
01_DEF_PLANES
 70
0
 62
7
  6
CONTINUOUS
  0
LAYER
  2
02_DATUM_COS
 70
0
 62
7
  6
CONTINUOUS
  0
LAYER
  2
90_IMP_FEAT
 70
0
 62
7
  6
CONTINUOUS
  0
LAYER
  2
95_STL
 70
0
 62
7
  6
CONTINUOUS
  0
LAYER
  2
99_SOLID
 70
0
 62
7
  6
CONTINUOUS
  0
LAYER
  2
CAD-MASTER_ZINC-PL
 70
0
 62
7
  6
CONTINUOUS
  0
LAYER
  2
CURVE
 70
0
 62
7
  6
CONTINUOUS
  0
LAYER
  2
SKEL
 70
0
 62
7
  6
CONTINUOUS
  0
LAYER
  2
SKETCH
 70
0
 62
7
  6
CONTINUOUS
  0
LAYER
  2
SURFACE
 70
0
 62
7
  6
CONTINUOUS
  0
ENDTAB
  0
TABLE
  2
STYLE
 70
1
  0
STYLE
  2
STANDARD
 70
0
 40
0.0
 41
0.75
 50
0.0
 71
0
 42
0.2
  3
txt
  4

  0
STYLE
  2
TEXTSTYLE_1
 70
0
 40
0.0
 41
0.8
 50
0.0
 71
0
 42
0.2
  3
gdt
  4

  0
ENDTAB
  0
ENDSEC
  0
SECTION
  2
BLOCKS
  0
ENDSEC
  0
SECTION
  2
ENTITIES
  0
POLYLINE
  8
0
 62
7
  6
CONTINUOUS
 66
1
 70
0
  0
VERTEX
  8
0
 62
7
  6
CONTINUOUS
 10
24.0717715507
 20
25.305341595
  0
VERTEX
  8
0
 62
7
  6
CONTINUOUS
 10
28.2636919667
 20
20.6841243673
  0
VERTEX
  8
0
 62
7
  6
CONTINUOUS
 10
33.7179587706
 20
15.5647073964
  0
VERTEX
  8
0
 62
7
  6
CONTINUOUS
 10
39.7781318337
 20
10.8055345095
  0
VERTEX
  8
0
 62
7
  6
CONTINUOUS
 10
46.4457232621
 20
6.4318631523
  0
VERTEX
  8
0
 62
7
  6
CONTINUOUS
 10
53.6299782862
 20
2.4610181109
  0
VERTEX
  8
0
 62
7
  6
CONTINUOUS
 10
61.2395927683
 20
-1.1225523611
  0
VERTEX
  8
0
 62
7
  6
CONTINUOUS
 10
69.3023627924
 20
-4.3988987216
  0
VERTEX
  8
0
 62
7
  6
CONTINUOUS
 10
77.7802338835
 20
-7.4126410588
  0
VERTEX
  8
0
 62
7
  6
CONTINUOUS
 10
86.6538910952
 20
-10.1908047918
  0
VERTEX
  8
0
 62
7
  6
CONTINUOUS
 10
95.9589619016
 20
-12.7690387578
  0
VERTEX
  8
0
 62
7
  6
CONTINUOUS
 10
105.6761832524
 20
-15.136938515
  0
VERTEX
  8
0
 62
7
  6
CONTINUOUS
 10
115.8446307009
 20
-17.2798486221
  0
VERTEX
  8
0
 62
7
  6
CONTINUOUS
 10
126.50517408
 20
-19.1771008608
  0
VERTEX
  8
0
 62
7
  6
CONTINUOUS
 10
137.6585914977
 20
-20.8113134188
  0
VERTEX
  8
0
 62
7
  6
CONTINUOUS
 10
149.359763356
 20
-22.2060187337
  0
VERTEX
  8
0
 62
7
  6
CONTINUOUS
 10
160.7106386452
 20
-23.2358724757
  0
SEQEND
  0
POLYLINE
  8
0
 62
7
  6
CONTINUOUS
 66
1
 70
0
  0
VERTEX
  8
0
 62
7
  6
CONTINUOUS
 10
26.8172925198
 20
27.4955007963
  0
VERTEX
  8
0
 62
7
  6
CONTINUOUS
 10
29.1254535729
 20
24.871659413
  0
VERTEX
  8
0
 62
7
  6
CONTINUOUS
 10
31.5380439072
 20
22.3539262251
  0
VERTEX
  8
0
 62
7
  6
CONTINUOUS
 10
34.0475049772
 20
19.9478610196
  0
VERTEX
  8
0
 62
7
  6
CONTINUOUS
 10
36.6765124193
 20
17.6367844353
  0
VERTEX
  8
0
 62
7
  6
CONTINUOUS
 10
39.4251924671
 20
15.416774335
  0
VERTEX
  8
0
 62
7
  6
CONTINUOUS
 10
42.3536347846
 20
13.2551188326
  0
VERTEX
  8
0
 62
7
  6
CONTINUOUS
 10
45.504816834
 20
11.1213518747
  0
VERTEX
  8
0
 62
7
  6
CONTINUOUS
 10
48.9302014548
 20
9.004813825
  0
VERTEX
  8
0
 62
7
  6
CONTINUOUS
 10
52.6921440293
 20
6.8791986797
  0
VERTEX
  8
0
 62
7
  6
CONTINUOUS
 10
56.8009443919
 20
4.7609794881
  0
VERTEX
  8
0
 62
7
  6
CONTINUOUS
 10
61.2845265458
 20
2.6560234447
  0
VERTEX
  8
0
 62
7
  6
CONTINUOUS
 10
66.1523733666
 20
0.5698421109
  0
VERTEX
  8
0
 62
7
  6
CONTINUOUS
 10
71.4171760593
 20
-1.490993097
  0
VERTEX
  8
0
 62
7
  6
CONTINUOUS
 10
77.0972336393
 20
-3.5237945486
  0
VERTEX
  8
0
 62
7
  6
CONTINUOUS
 10
83.2048050619
 20
-5.5256632332
  0
VERTEX
  8
0
 62
7
  6
CONTINUOUS
 10
89.770701712
 20
-7.490661875
  0
VERTEX
  8
0
 62
7
  6
CONTINUOUS
 10
96.8122213746
 20
-9.4196109988
  0
VERTEX
  8
0
 62
7
  6
CONTINUOUS
 10
104.3821638053
 20
-11.2893381929
  0
VERTEX
  8
0
 62
7
  6
CONTINUOUS
 10
112.5246087889
 20
-13.0884190779
  0
VERTEX
  8
0
 62
7
  6
CONTINUOUS
 10
121.2830140219
 20
-14.7824300817
  0
VERTEX
  8
0
 62
7
  6
CONTINUOUS
 10
130.8457642419
 20
-16.3508995965
  0
VERTEX
  8
0
 62
7
  6
CONTINUOUS
 10
140.8221581097
 20
-17.7405473501
  0
VERTEX
  8
0
 62
7
  6
CONTINUOUS
 10
150.8433008952
 20
-18.8837561832
  0
VERTEX
  8
0
 62
7
  6
CONTINUOUS
 10
161.0321575082
 20
-19.803065149
  0
SEQEND
  0
POLYLINE
  8
0
 62
7
  6
CONTINUOUS
 66
1
 70
0
  0
VERTEX
  8
0
 62
7
  6
CONTINUOUS
 10
12.1703611568
 20
53.2237887951
  0
VERTEX
  8
0
 62
7
  6
CONTINUOUS
 10
12.8615240729
 20
48.6302951274
  0
VERTEX
  8
0
 62
7
  6
CONTINUOUS
 10
14.2107593427
 20
43.295107766
  0
VERTEX
  8
0
 62
7
  6
CONTINUOUS
 10
16.1150247348
 20
38.1535901653
  0
VERTEX
  8
0
 62
7
  6
CONTINUOUS
 10
18.5308025053
 20
33.2853173265
  0
VERTEX
  8
0
 62
7
  6
CONTINUOUS
 10
21.4192753352
 20
28.7323599816
  0
VERTEX
  8
0
 62
7
  6
CONTINUOUS
 10
24.0716578054
 20
25.3053348332
  0
SEQEND
  0
POLYLINE
  8
0
 62
7
  6
CONTINUOUS
 66
1
 70
0
  0
VERTEX
  8
0
 62
7
  6
CONTINUOUS
 10
15.7140092149
 20
53.5236610193
  0
VERTEX
  8
0
 62
7
  6
CONTINUOUS
 10
16.2231924852
 20
49.9650347379
  0
VERTEX
  8
0
 62
7
  6
CONTINUOUS
 10
16.9914896045
 20
46.4719143797
  0
VERTEX
  8
0
 62
7
  6
CONTINUOUS
 10
18.0221914144
 20
43.0344404504
  0
VERTEX
  8
0
 62
7
  6
CONTINUOUS
 10
19.3054253897
 20
39.6821914328
  0
VERTEX
  8
0
 62
7
  6
CONTINUOUS
 10
20.835532144
 20
36.4364065313
  0
VERTEX
  8
0
 62
7
  6
CONTINUOUS
 10
22.6031631024
 20
33.3122440868
  0
VERTEX
  8
0
 62
7
  6
CONTINUOUS
 10
24.595678848
 20
30.3347219346
  0
VERTEX
  8
0
 62
7
  6
CONTINUOUS
 10
26.8172925198
 20
27.4955007963
  0
SEQEND
  0
LINE
  8
0
 62
7
  6
CONTINUOUS
 10
12.170487768
 20
53.2238461291
 11
12.1704945285
 21
53.2237956978
  0
POLYLINE
  8
0
 62
7
  6
CONTINUOUS
 66
1
 70
0
  0
VERTEX
  8
0
 62
7
  6
CONTINUOUS
 10
12.8973890239
 20
175.3186974349
  0
VERTEX
  8
0
 62
7
  6
CONTINUOUS
 10
13.2304374527
 20
164.0731816356
  0
VERTEX
  8
0
 62
7
  6
CONTINUOUS
 10
13.5535901536
 20
152.8274335684
  0
VERTEX
  8
0
 62
7
  6
CONTINUOUS
 10
13.8995669805
 20
141.4448827105
  0
VERTEX
  8
0
 62
7
  6
CONTINUOUS
 10
14.1702083712
 20
130.3352406299
  0
VERTEX
  8
0
 62
7
  6
CONTINUOUS
 10
14.2448025981
 20
120.0450069245
  0
VERTEX
  8
0
 62
7
  6
CONTINUOUS
 10
14.2237260109
 20
110.0272469814
  0
VERTEX
  8
0
 62
7
  6
CONTINUOUS
 10
14.1308861376
 20
99.7333869957
  0
VERTEX
  8
0
 62
7
  6
CONTINUOUS
 10
14.0749777152
 20
89.7148441413
  0
VERTEX
  8
0
 62
7
  6
CONTINUOUS
 10
14.1595366795
 20
80.5229485721
  0
VERTEX
  8
0
 62
7
  6
CONTINUOUS
 10
14.4239469623
 20
71.6093875425
  0
VERTEX
  8
0
 62
7
  6
CONTINUOUS
 10
14.9513414629
 20
62.5640580215
  0
VERTEX
  8
0
 62
7
  6
CONTINUOUS
 10
15.7140092149
 20
53.5236610193
  0
SEQEND
  0
POLYLINE
  8
0
 62
7
  6
CONTINUOUS
 66
1
 70
0
  0
VERTEX
  8
0
 62
7
  6
CONTINUOUS
 10
9.3360479067
 20
175.3047538485
  0
VERTEX
  8
0
 62
7
  6
CONTINUOUS
 10
9.9830715036
 20
153.0793477824
  0
VERTEX
  8
0
 62
7
  6
CONTINUOUS
 10
10.5979936401
 20
130.992831503
  0
VERTEX
  8
0
 62
7
  6
CONTINUOUS
 10
10.6595931129
 20
109.8713929807
  0
VERTEX
  8
0
 62
7
  6
CONTINUOUS
 10
10.5117119973
 20
89.6384616249
  0
VERTEX
  8
0
 62
7
  6
CONTINUOUS
 10
10.9135876261
 20
70.4035827812
  0
VERTEX
  8
0
 62
7
  6
CONTINUOUS
 10
12.170487768
 20
53.2238461291
  0
SEQEND
  0
LINE
  8
0
 62
7
  6
CONTINUOUS
 10
15.709808762
 20
180.4832909916
 11
15.7458101447
 21
178.7517511173
  0
LINE
  8
0
 62
7
  6
CONTINUOUS
 10
15.7458101447
 20
178.7517511173
 11
15.778784684
 21
177.0301988588
  0
LINE
  8
0
 62
7
  6
CONTINUOUS
 10
15.778784684
 20
177.0301988588
 11
15.8087654192
 21
175.3186974347
  0
POLYLINE
  8
0
 62
7
  6
CONTINUOUS
 66
1
 70
0
  0
VERTEX
  8
0
 62
7
  6
CONTINUOUS
 10
16.1363547602
 20
144.7059761993
  0
VERTEX
  8
0
 62
7
  6
CONTINUOUS
 10
16.0682517289
 20
154.555914156
  0
VERTEX
  8
0
 62
7
  6
CONTINUOUS
 10
15.956551227
 20
164.760625811
  0
VERTEX
  8
0
 62
7
  6
CONTINUOUS
 10
15.808765431
 20
175.3186974349
  0
SEQEND
  0
POLYLINE
  8
0
 62
7
  6
CONTINUOUS
 66
1
 70
0
  0
VERTEX
  8
0
 62
7
  6
CONTINUOUS
 10
14.1372898596
 20
327.4187082041
  0
VERTEX
  8
0
 62
7
  6
CONTINUOUS
 10
14.1295764272
 20
323.2158492267
  0
VERTEX
  8
0
 62
7
  6
CONTINUOUS
 10
14.1242631125
 20
321.1302845683
  0
VERTEX
  8
0
 62
7
  6
CONTINUOUS
 10
14.1170264035
 20
319.0537828351
  0
VERTEX
  8
0
 62
7
  6
CONTINUOUS
 10
14.1068188083
 20
316.9834786979
  0
VERTEX
  8
0
 62
7
  6
CONTINUOUS
 10
14.0939327033
 20
314.9231360968
  0
SEQEND
  0
POLYLINE
  8
0
 62
7
  6
CONTINUOUS
 66
1
 70
0
  0
VERTEX
  8
0
 62
7
  6
CONTINUOUS
 10
10.5401226777
 20
327.4186974349
  0
VERTEX
  8
0
 62
7
  6
CONTINUOUS
 10
10.4307215341
 20
312.0048316392
  0
VERTEX
  8
0
 62
7
  6
CONTINUOUS
 10
10.2070245209
 20
295.5066258302
  0
VERTEX
  8
0
 62
7
  6
CONTINUOUS
 10
9.9138197312
 20
279.0070326244
  0
VERTEX
  8
0
 62
7
  6
CONTINUOUS
 10
9.5464903561
 20
262.5217709112
  0
VERTEX
  8
0
 62
7
  6
CONTINUOUS
 10
9.1419444923
 20
246.0329760587
  0
VERTEX
  8
0
 62
7
  6
CONTINUOUS
 10
8.7660883308
 20
230.4753740743
  0
SEQEND
  0
POLYLINE
  8
0
 62
7
  6
CONTINUOUS
 66
1
 70
0
  0
VERTEX
  8
0
 62
7
  6
CONTINUOUS
 10
14.0939326141
 20
314.9231361527
  0
VERTEX
  8
0
 62
7
  6
CONTINUOUS
 10
13.9735345102
 20
300.8480728527
  0
VERTEX
  8
0
 62
7
  6
CONTINUOUS
 10
13.7908125171
 20
286.7590005269
  0
VERTEX
  8
0
 62
7
  6
CONTINUOUS
 10
13.5378854773
 20
272.6623918579
  0
VERTEX
  8
0
 62
7
  6
CONTINUOUS
 10
13.2370521797
 20
258.5578818685
  0
VERTEX
  8
0
 62
7
  6
CONTINUOUS
 10
12.9107249674
 20
244.4430803383
  0
VERTEX
  8
0
 62
7
  6
CONTINUOUS
 10
12.5513789467
 20
230.3186441353
  0
SEQEND
  0
POLYLINE
  8
0
 62
7
  6
CONTINUOUS
 66
1
 70
0
  0
VERTEX
  8
0
 62
7
  6
CONTINUOUS
 10
12.5516163242
 20
230.3187031683
  0
VERTEX
  8
0
 62
7
  6
CONTINUOUS
 10
12.4245300192
 20
221.4356814551
  0
VERTEX
  8
0
 62
7
  6
CONTINUOUS
 10
12.3802152693
 20
212.4411177271
  0
VERTEX
  8
0
 62
7
  6
CONTINUOUS
 10
12.4160427296
 20
203.335471839
  0
VERTEX
  8
0
 62
7
  6
CONTINUOUS
 10
12.5207307061
 20
194.115003726
  0
VERTEX
  8
0
 62
7
  6
CONTINUOUS
 10
12.6825221958
 20
184.7759507391
  0
VERTEX
  8
0
 62
7
  6
CONTINUOUS
 10
12.8973890239
 20
175.3186974349
  0
SEQEND
  0
POLYLINE
  8
0
 62
7
  6
CONTINUOUS
 66
1
 70
0
  0
VERTEX
  8
0
 62
7
  6
CONTINUOUS
 10
8.7663077799
 20
230.4753623966
  0
VERTEX
  8
0
 62
7
  6
CONTINUOUS
 10
8.6570198386
 20
222.9882491579
  0
VERTEX
  8
0
 62
7
  6
CONTINUOUS
 10
8.648457003
 20
214.1413080341
  0
VERTEX
  8
0
 62
7
  6
CONTINUOUS
 10
8.7242771398
 20
204.8577346709
  0
VERTEX
  8
0
 62
7
  6
CONTINUOUS
 10
8.8838123352
 20
195.1174257534
  0
VERTEX
  8
0
 62
7
  6
CONTINUOUS
 10
9.1137720463
 20
184.9273872923
  0
VERTEX
  8
0
 62
7
  6
CONTINUOUS
 10
9.3360476718
 20
175.304767382
  0
SEQEND
  0
POLYLINE
  8
0
 62
7
  6
CONTINUOUS
 66
1
 70
0
  0
VERTEX
  8
0
 62
7
  6
CONTINUOUS
 10
15.7098087744
 20
180.483290991
  0
VERTEX
  8
0
 62
7
  6
CONTINUOUS
 10
15.7846178948
 20
182.6311515867
  0
VERTEX
  8
0
 62
7
  6
CONTINUOUS
 10
16.1073719535
 20
184.7803277818
  0
VERTEX
  8
0
 62
7
  6
CONTINUOUS
 10
16.6772824754
 20
186.9396585302
  0
VERTEX
  8
0
 62
7
  6
CONTINUOUS
 10
17.4967237193
 20
189.0826578438
  0
VERTEX
  8
0
 62
7
  6
CONTINUOUS
 10
18.5667009204
 20
191.1899802331
  0
VERTEX
  8
0
 62
7
  6
CONTINUOUS
 10
19.8905641779
 20
193.2491047854
  0
VERTEX
  8
0
 62
7
  6
CONTINUOUS
 10
21.4690228527
 20
195.2479224869
  0
VERTEX
  8
0
 62
7
  6
CONTINUOUS
 10
23.3110743785
 20
197.1658293503
  0
VERTEX
  8
0
 62
7
  6
CONTINUOUS
 10
25.4255225848
 20
198.989842059
  0
VERTEX
  8
0
 62
7
  6
CONTINUOUS
 10
27.8137986689
 20
200.6849125416
  0
VERTEX
  8
0
 62
7
  6
CONTINUOUS
 10
30.4808297697
 20
202.206731057
  0
VERTEX
  8
0
 62
7
  6
CONTINUOUS
 10
33.4251369447
 20
203.5700482627
  0
SEQEND
  0
POLYLINE
  8
0
 62
7
  6
CONTINUOUS
 66
1
 70
0
  0
VERTEX
  8
0
 62
7
  6
CONTINUOUS
 10
211.2883964404
 20
-23.2407729434
  0
VERTEX
  8
0
 62
7
  6
CONTINUOUS
 10
231.9985606917
 20
-21.1233890334
  0
VERTEX
  8
0
 62
7
  6
CONTINUOUS
 10
251.9153954054
 20
-18.0882183684
  0
VERTEX
  8
0
 62
7
  6
CONTINUOUS
 10
270.3183078957
 20
-14.2188268716
  0
VERTEX
  8
0
 62
7
  6
CONTINUOUS
 10
286.4054862563
 20
-9.8952253628
  0
VERTEX
  8
0
 62
7
  6
CONTINUOUS
 10
299.1544223947
 20
-5.728686697
  0
VERTEX
  8
0
 62
7
  6
CONTINUOUS
 10
309.6802657254
 20
-1.6169948798
  0
VERTEX
  8
0
 62
7
  6
CONTINUOUS
 10
318.6748569701
 20
2.5830893018
  0
VERTEX
  8
0
 62
7
  6
CONTINUOUS
 10
326.3092971676
 20
6.849855144
  0
VERTEX
  8
0
 62
7
  6
CONTINUOUS
 10
332.8719743484
 20
11.228809774
  0
VERTEX
  8
0
 62
7
  6
CONTINUOUS
 10
338.6254461744
 20
15.8024789028
  0
VERTEX
  8
0
 62
7
  6
CONTINUOUS
 10
343.9113120605
 20
20.7940935202
  0
VERTEX
  8
0
 62
7
  6
CONTINUOUS
 10
347.9936334628
 20
25.3053395308
  0
SEQEND
  0
POLYLINE
  8
0
 62
7
  6
CONTINUOUS
 66
1
 70
0
  0
VERTEX
  8
0
 62
7
  6
CONTINUOUS
 10
211.0332491604
 20
-19.8030651503
  0
VERTEX
  8
0
 62
7
  6
CONTINUOUS
 10
221.2278812739
 20
-18.883163899
  0
VERTEX
  8
0
 62
7
  6
CONTINUOUS
 10
231.2503222095
 20
-17.7398760748
  0
VERTEX
  8
0
 62
7
  6
CONTINUOUS
 10
241.2219688329
 20
-16.3507848147
  0
VERTEX
  8
0
 62
7
  6
CONTINUOUS
 10
250.7786305478
 20
-14.7831407083
  0
VERTEX
  8
0
 62
7
  6
CONTINUOUS
 10
259.5345485318
 20
-13.0899546719
  0
VERTEX
  8
0
 62
7
  6
CONTINUOUS
 10
267.6758243287
 20
-11.2915288632
  0
VERTEX
  8
0
 62
7
  6
CONTINUOUS
 10
275.2454168696
 20
-9.4219817602
  0
VERTEX
  8
0
 62
7
  6
CONTINUOUS
 10
282.286995169
 20
-7.4928753179
  0
VERTEX
  8
0
 62
7
  6
CONTINUOUS
 10
288.8523816496
 20
-5.5272275684
  0
VERTEX
  8
0
 62
7
  6
CONTINUOUS
 10
294.9600750179
 20
-3.524788758
  0
VERTEX
  8
0
 62
7
  6
CONTINUOUS
 10
300.6420559892
 20
-1.4924659285
  0
VERTEX
  8
0
 62
7
  6
CONTINUOUS
 10
305.9097009587
 20
0.568193274
  0
VERTEX
  8
0
 62
7
  6
CONTINUOUS
 10
310.7804784616
 20
2.6556567142
  0
VERTEX
  8
0
 62
7
  6
CONTINUOUS
 10
315.2680927925
 20
4.7629708179
  0
VERTEX
  8
0
 62
7
  6
CONTINUOUS
 10
319.381665087
 20
6.8834862553
  0
VERTEX
  8
0
 62
7
  6
CONTINUOUS
 10
323.1524133573
 20
9.0147581577
  0
VERTEX
  8
0
 62
7
  6
CONTINUOUS
 10
326.5973382266
 20
11.1458898109
  0
VERTEX
  8
0
 62
7
  6
CONTINUOUS
 10
329.7682129971
 20
13.2955874207
  0
VERTEX
  8
0
 62
7
  6
CONTINUOUS
 10
332.7079993911
 20
15.4693167322
  0
VERTEX
  8
0
 62
7
  6
CONTINUOUS
 10
335.4601327711
 20
17.6959024134
  0
VERTEX
  8
0
 62
7
  6
CONTINUOUS
 10
338.0806335439
 20
20.0037836232
  0
VERTEX
  8
0
 62
7
  6
CONTINUOUS
 10
340.5747082981
 20
22.3995826335
  0
VERTEX
  8
0
 62
7
  6
CONTINUOUS
 10
342.9692220982
 20
24.9014141847
  0
VERTEX
  8
0
 62
7
  6
CONTINUOUS
 10
345.2552199227
 20
27.50324003
  0
SEQEND
  0
LINE
  8
0
 62
7
  6
CONTINUOUS
 10
210.779554025
 20
-19.8137535102
 11
210.653222028
 21
-19.8214733794
  0
LINE
  8
0
 62
7
  6
CONTINUOUS
 10
210.9922216285
 20
-23.2573101582
 11
211.2883482771
 21
-23.2396608997
  0
POLYLINE
  8
0
 62
7
  6
CONTINUOUS
 66
1
 70
0
  0
VERTEX
  8
0
 62
7
  6
CONTINUOUS
 10
211.0327646366
 20
-19.8031162621
  0
VERTEX
  8
0
 62
7
  6
CONTINUOUS
 10
210.9692867952
 20
-19.803948966
  0
VERTEX
  8
0
 62
7
  6
CONTINUOUS
 10
210.9059257838
 20
-19.8059993918
  0
VERTEX
  8
0
 62
7
  6
CONTINUOUS
 10
210.8427082334
 20
-19.8095741514
  0
VERTEX
  8
0
 62
7
  6
CONTINUOUS
 10
210.779554025
 20
-19.8137535102
  0
SEQEND
  0
LINE
  8
0
 62
7
  6
CONTINUOUS
 10
211.0321562857
 20
-16.0582221241
 11
211.3941125978
 21
-16.0582018314
  0
LINE
  8
0
 62
7
  6
CONTINUOUS
 10
160.6712937312
 20
-16.058201821
 11
161.033250383
 21
-16.0582221442
  0
POLYLINE
  8
0
 62
7
  6
CONTINUOUS
 66
1
 70
0
  0
VERTEX
  8
0
 62
7
  6
CONTINUOUS
 10
161.0326187962
 20
-16.0622056784
  0
VERTEX
  8
0
 62
7
  6
CONTINUOUS
 10
169.2981287021
 20
-16.4048340841
  0
VERTEX
  8
0
 62
7
  6
CONTINUOUS
 10
177.5935846094
 20
-16.6111020925
  0
VERTEX
  8
0
 62
7
  6
CONTINUOUS
 10
185.9123028521
 20
-16.6811862523
  0
VERTEX
  8
0
 62
7
  6
CONTINUOUS
 10
194.2579397762
 20
-16.6146096001
  0
VERTEX
  8
0
 62
7
  6
CONTINUOUS
 10
202.6324160292
 20
-16.4092421233
  0
VERTEX
  8
0
 62
7
  6
CONTINUOUS
 10
211.032397845
 20
-16.0622107074
  0
SEQEND
  0
POLYLINE
  8
0
 62
7
  6
CONTINUOUS
 66
1
 70
0
  0
VERTEX
  8
0
 62
7
  6
CONTINUOUS
 10
161.072826244
 20
-23.2571250955
  0
VERTEX
  8
0
 62
7
  6
CONTINUOUS
 10
168.7821235587
 20
-23.642743873
  0
VERTEX
  8
0
 62
7
  6
CONTINUOUS
 10
177.4248980896
 20
-23.9069412229
  0
VERTEX
  8
0
 62
7
  6
CONTINUOUS
 10
186.0734091868
 20
-23.9944056289
  0
VERTEX
  8
0
 62
7
  6
CONTINUOUS
 10
194.7221452677
 20
-23.9052475394
  0
VERTEX
  8
0
 62
7
  6
CONTINUOUS
 10
203.3655852272
 20
-23.6393449779
  0
VERTEX
  8
0
 62
7
  6
CONTINUOUS
 10
210.9925862419
 20
-23.2571237793
  0
SEQEND
  0
POLYLINE
  8
0
 62
7
  6
CONTINUOUS
 66
1
 70
0
  0
VERTEX
  8
0
 62
7
  6
CONTINUOUS
 10
161.4121868351
 20
-19.8206957903
  0
VERTEX
  8
0
 62
7
  6
CONTINUOUS
 10
169.6115156413
 20
-20.2367872521
  0
VERTEX
  8
0
 62
7
  6
CONTINUOUS
 10
177.8195456695
 20
-20.4867111163
  0
VERTEX
  8
0
 62
7
  6
CONTINUOUS
 10
186.032703342
 20
-20.5700721585
  0
VERTEX
  8
0
 62
7
  6
CONTINUOUS
 10
194.2458610129
 20
-20.4867111157
  0
VERTEX
  8
0
 62
7
  6
CONTINUOUS
 10
202.4538910365
 20
-20.2367872512
  0
VERTEX
  8
0
 62
7
  6
CONTINUOUS
 10
210.653219835
 20
-19.8206957897
  0
SEQEND
  0
LINE
  8
0
 62
7
  6
CONTINUOUS
 10
161.0732079169
 20
-23.2573115482
 11
160.7107381493
 21
-23.2357025062
  0
POLYLINE
  8
0
 62
7
  6
CONTINUOUS
 66
1
 70
0
  0
VERTEX
  8
0
 62
7
  6
CONTINUOUS
 10
161.4121717115
 20
-19.8214725922
  0
VERTEX
  8
0
 62
7
  6
CONTINUOUS
 10
161.2858491439
 20
-19.8137549412
  0
VERTEX
  8
0
 62
7
  6
CONTINUOUS
 10
161.2226891452
 20
-19.8095765758
  0
VERTEX
  8
0
 62
7
  6
CONTINUOUS
 10
161.1594730171
 20
-19.8060026813
  0
VERTEX
  8
0
 62
7
  6
CONTINUOUS
 10
161.096136633
 20
-19.8039529353
  0
VERTEX
  8
0
 62
7
  6
CONTINUOUS
 10
161.0327012931
 20
-19.8031207448
  0
SEQEND
  0
POLYLINE
  8
0
 62
7
  6
CONTINUOUS
 66
1
 70
0
  0
VERTEX
  8
0
 62
7
  6
CONTINUOUS
 10
160.6719742757
 20
-16.0471240217
  0
VERTEX
  8
0
 62
7
  6
CONTINUOUS
 10
149.149244431
 20
-15.0743531837
  0
VERTEX
  8
0
 62
7
  6
CONTINUOUS
 10
138.1682183868
 20
-13.8586479197
  0
VERTEX
  8
0
 62
7
  6
CONTINUOUS
 10
127.7394665042
 20
-12.3691727777
  0
VERTEX
  8
0
 62
7
  6
CONTINUOUS
 10
117.8312776998
 20
-10.6984341142
  0
VERTEX
  8
0
 62
7
  6
CONTINUOUS
 10
108.4145114753
 20
-8.9342918062
  0
VERTEX
  8
0
 62
7
  6
CONTINUOUS
 10
99.4920264374
 20
-7.0598498397
  0
VERTEX
  8
0
 62
7
  6
CONTINUOUS
 10
91.061940405
 20
-5.0955537375
  0
VERTEX
  8
0
 62
7
  6
CONTINUOUS
 10
83.1093352437
 20
-3.0172387661
  0
VERTEX
  8
0
 62
7
  6
CONTINUOUS
 10
75.6171586363
 20
-0.8016002442
  0
VERTEX
  8
0
 62
7
  6
CONTINUOUS
 10
68.5899309503
 20
1.5334964626
  0
VERTEX
  8
0
 62
7
  6
CONTINUOUS
 10
62.0330565225
 20
3.9696547021
  0
VERTEX
  8
0
 62
7
  6
CONTINUOUS
 10
55.9268311277
 20
6.5317730162
  0
VERTEX
  8
0
 62
7
  6
CONTINUOUS
 10
50.2645095026
 20
9.2106960259
  0
VERTEX
  8
0
 62
7
  6
CONTINUOUS
 10
45.0126190983
 20
12.0901888416
  0
VERTEX
  8
0
 62
7
  6
CONTINUOUS
 10
40.1189236798
 20
15.2372767347
  0
VERTEX
  8
0
 62
7
  6
CONTINUOUS
 10
35.6329690419
 20
18.6930238435
  0
VERTEX
  8
0
 62
7
  6
CONTINUOUS
 10
31.5734975107
 20
22.5250470767
  0
VERTEX
  8
0
 62
7
  6
CONTINUOUS
 10
27.9806832576
 20
26.7207133949
  0
VERTEX
  8
0
 62
7
  6
CONTINUOUS
 10
24.9027465182
 20
31.3056228002
  0
VERTEX
  8
0
 62
7
  6
CONTINUOUS
 10
22.3342914267
 20
36.2326930769
  0
VERTEX
  8
0
 62
7
  6
CONTINUOUS
 10
20.303534478
 20
41.4783607638
  0
VERTEX
  8
0
 62
7
  6
CONTINUOUS
 10
18.7578588258
 20
46.9976695999
  0
VERTEX
  8
0
 62
7
  6
CONTINUOUS
 10
17.6854079533
 20
52.7237040414
  0
VERTEX
  8
0
 62
7
  6
CONTINUOUS
 10
16.9921173665
 20
58.6987784757
  0
VERTEX
  8
0
 62
7
  6
CONTINUOUS
 10
16.613403513
 20
64.9366399585
  0
VERTEX
  8
0
 62
7
  6
CONTINUOUS
 10
16.4489670501
 20
71.4560749405
  0
VERTEX
  8
0
 62
7
  6
CONTINUOUS
 10
16.3911230384
 20
78.2772969735
  0
VERTEX
  8
0
 62
7
  6
CONTINUOUS
 10
16.3974447151
 20
85.4097718103
  0
VERTEX
  8
0
 62
7
  6
CONTINUOUS
 10
16.3851386825
 20
92.8686025088
  0
VERTEX
  8
0
 62
7
  6
CONTINUOUS
 10
16.3676199059
 20
100.6570907049
  0
VERTEX
  8
0
 62
7
  6
CONTINUOUS
 10
16.3248311346
 20
108.7831188609
  0
VERTEX
  8
0
 62
7
  6
CONTINUOUS
 10
16.2743956185
 20
117.2480475549
  0
VERTEX
  8
0
 62
7
  6
CONTINUOUS
 10
16.1363547602
 20
144.7059761993
  0
SEQEND
  0
LINE
  8
0
 62
7
  6
CONTINUOUS
 10
22.7427640497
 20
180.7745927991
 11
22.7870880403
 21
179.0235183548
  0
LINE
  8
0
 62
7
  6
CONTINUOUS
 10
22.7870880403
 20
179.0235183548
 11
22.8262791851
 21
177.2655847309
  0
LINE
  8
0
 62
7
  6
CONTINUOUS
 10
22.8262791851
 20
177.2655847309
 11
22.8603152304
 21
175.5008281038
  0
POLYLINE
  8
0
 62
7
  6
CONTINUOUS
 66
1
 70
0
  0
VERTEX
  8
0
 62
7
  6
CONTINUOUS
 10
22.8603152304
 20
175.5008281038
  0
VERTEX
  8
0
 62
7
  6
CONTINUOUS
 10
23.0052149618
 20
166.2354179763
  0
VERTEX
  8
0
 62
7
  6
CONTINUOUS
 10
23.119952825
 20
157.2834499269
  0
VERTEX
  8
0
 62
7
  6
CONTINUOUS
 10
23.2014814004
 20
148.6532300746
  0
VERTEX
  8
0
 62
7
  6
CONTINUOUS
 10
23.2638412358
 20
140.3333604403
  0
VERTEX
  8
0
 62
7
  6
CONTINUOUS
 10
23.3787478638
 20
124.6076880156
  0
SEQEND
  0
POLYLINE
  8
0
 62
7
  6
CONTINUOUS
 66
1
 70
0
  0
VERTEX
  8
0
 62
7
  6
CONTINUOUS
 10
23.3787478638
 20
124.6076880156
  0
VERTEX
  8
0
 62
7
  6
CONTINUOUS
 10
23.4412559545
 20
117.189792976
  0
VERTEX
  8
0
 62
7
  6
CONTINUOUS
 10
23.4984595656
 20
110.0624513684
  0
VERTEX
  8
0
 62
7
  6
CONTINUOUS
 10
23.5405686142
 20
103.2186256182
  0
VERTEX
  8
0
 62
7
  6
CONTINUOUS
 10
23.5631668082
 20
96.6519217604
  0
VERTEX
  8
0
 62
7
  6
CONTINUOUS
 10
23.5573248624
 20
90.3629973635
  0
VERTEX
  8
0
 62
7
  6
CONTINUOUS
 10
23.5344984857
 20
84.3340268769
  0
VERTEX
  8
0
 62
7
  6
CONTINUOUS
 10
23.4977825226
 20
78.5647719743
  0
VERTEX
  8
0
 62
7
  6
CONTINUOUS
 10
23.4852941991
 20
73.0316054548
  0
VERTEX
  8
0
 62
7
  6
CONTINUOUS
 10
23.5271334418
 20
67.7348824171
  0
VERTEX
  8
0
 62
7
  6
CONTINUOUS
 10
23.6837427354
 20
62.6455577583
  0
VERTEX
  8
0
 62
7
  6
CONTINUOUS
 10
24.0106342444
 20
57.7507617046
  0
VERTEX
  8
0
 62
7
  6
CONTINUOUS
 10
24.5656295654
 20
53.0193373371
  0
VERTEX
  8
0
 62
7
  6
CONTINUOUS
 10
25.4108929581
 20
48.3934248708
  0
VERTEX
  8
0
 62
7
  6
CONTINUOUS
 10
26.5854660138
 20
43.9350560127
  0
VERTEX
  8
0
 62
7
  6
CONTINUOUS
 10
28.1365638562
 20
39.6692140235
  0
VERTEX
  8
0
 62
7
  6
CONTINUOUS
 10
30.08114531
 20
35.6240407238
  0
VERTEX
  8
0
 62
7
  6
CONTINUOUS
 10
32.4578244013
 20
31.8162679004
  0
VERTEX
  8
0
 62
7
  6
CONTINUOUS
 10
35.2337904386
 20
28.284333288
  0
VERTEX
  8
0
 62
7
  6
CONTINUOUS
 10
38.3921435373
 20
25.065430792
  0
VERTEX
  8
0
 62
7
  6
CONTINUOUS
 10
41.8904724829
 20
22.1351120722
  0
VERTEX
  8
0
 62
7
  6
CONTINUOUS
 10
45.6710368525
 20
19.4935814021
  0
VERTEX
  8
0
 62
7
  6
CONTINUOUS
 10
49.7367753088
 20
17.0720514777
  0
VERTEX
  8
0
 62
7
  6
CONTINUOUS
 10
54.0640902406
 20
14.8197288313
  0
VERTEX
  8
0
 62
7
  6
CONTINUOUS
 10
58.6823391533
 20
12.6935012819
  0
VERTEX
  8
0
 62
7
  6
CONTINUOUS
 10
63.6173646141
 20
10.6463853134
  0
VERTEX
  8
0
 62
7
  6
CONTINUOUS
 10
68.8831498883
 20
8.6736244478
  0
VERTEX
  8
0
 62
7
  6
CONTINUOUS
 10
74.508850989
 20
6.7530835075
  0
VERTEX
  8
0
 62
7
  6
CONTINUOUS
 10
80.4849328276
 20
4.9024642139
  0
VERTEX
  8
0
 62
7
  6
CONTINUOUS
 10
86.8086442152
 20
3.1379693557
  0
VERTEX
  8
0
 62
7
  6
CONTINUOUS
 10
93.4966448915
 20
1.4521165249
  0
VERTEX
  8
0
 62
7
  6
CONTINUOUS
 10
100.5593157069
 20
-0.1589444794
  0
VERTEX
  8
0
 62
7
  6
CONTINUOUS
 10
107.9977897328
 20
-1.7097518168
  0
VERTEX
  8
0
 62
7
  6
CONTINUOUS
 10
115.8185370628
 20
-3.2187035067
  0
VERTEX
  8
0
 62
7
  6
CONTINUOUS
 10
124.0271534102
 20
-4.6628872125
  0
VERTEX
  8
0
 62
7
  6
CONTINUOUS
 10
132.6356044994
 20
-6.0333628443
  0
VERTEX
  8
0
 62
7
  6
CONTINUOUS
 10
141.6591370656
 20
-7.2708407982
  0
VERTEX
  8
0
 62
7
  6
CONTINUOUS
 10
151.1192849037
 20
-8.3058275202
  0
VERTEX
  8
0
 62
7
  6
CONTINUOUS
 10
161.0327717979
 20
-9.1311454926
  0
SEQEND
  0
POLYLINE
  8
0
 62
7
  6
CONTINUOUS
 66
1
 70
0
  0
VERTEX
  8
0
 62
7
  6
CONTINUOUS
 10
211.032628931
 20
-9.1311459947
  0
VERTEX
  8
0
 62
7
  6
CONTINUOUS
 10
221.9753288199
 20
-8.197266414
  0
VERTEX
  8
0
 62
7
  6
CONTINUOUS
 10
232.387858325
 20
-7.0163494011
  0
VERTEX
  8
0
 62
7
  6
CONTINUOUS
 10
242.292772653
 20
-5.5994107242
  0
VERTEX
  8
0
 62
7
  6
CONTINUOUS
 10
251.7150348333
 20
-4.0309294988
  0
VERTEX
  8
0
 62
7
  6
CONTINUOUS
 10
260.6679491029
 20
-2.3858960047
  0
VERTEX
  8
0
 62
7
  6
CONTINUOUS
 10
269.1724224722
 20
-0.6591051892
  0
VERTEX
  8
0
 62
7
  6
CONTINUOUS
 10
277.2381215925
 20
1.1385169535
  0
VERTEX
  8
0
 62
7
  6
CONTINUOUS
 10
284.8710136745
 20
3.0340230739
  0
VERTEX
  8
0
 62
7
  6
CONTINUOUS
 10
292.079816796
 20
5.0524831631
  0
VERTEX
  8
0
 62
7
  6
CONTINUOUS
 10
298.8691450359
 20
7.1853454653
  0
VERTEX
  8
0
 62
7
  6
CONTINUOUS
 10
305.2464088197
 20
9.4208860872
  0
VERTEX
  8
0
 62
7
  6
CONTINUOUS
 10
311.2257811975
 20
11.7747302743
  0
VERTEX
  8
0
 62
7
  6
CONTINUOUS
 10
316.8192902547
 20
14.2507806822
  0
VERTEX
  8
0
 62
7
  6
CONTINUOUS
 10
322.0186245043
 20
16.9006751635
  0
VERTEX
  8
0
 62
7
  6
CONTINUOUS
 10
326.8307165704
 20
19.7828941638
  0
VERTEX
  8
0
 62
7
  6
CONTINUOUS
 10
331.1859478924
 20
22.925907369
  0
VERTEX
  8
0
 62
7
  6
CONTINUOUS
 10
335.0314026788
 20
26.3778396915
  0
VERTEX
  8
0
 62
7
  6
CONTINUOUS
 10
338.3481503204
 20
30.1089921408
  0
VERTEX
  8
0
 62
7
  6
CONTINUOUS
 10
341.1038459697
 20
34.1080086252
  0
VERTEX
  8
0
 62
7
  6
CONTINUOUS
 10
343.3347171946
 20
38.3065831617
  0
VERTEX
  8
0
 62
7
  6
CONTINUOUS
 10
345.0516785796
 20
42.622380269
  0
VERTEX
  8
0
 62
7
  6
CONTINUOUS
 10
346.3379918516
 20
47.0308275144
  0
VERTEX
  8
0
 62
7
  6
CONTINUOUS
 10
347.2572407638
 20
51.4605128844
  0
VERTEX
  8
0
 62
7
  6
CONTINUOUS
 10
347.878545531
 20
55.9705547326
  0
VERTEX
  8
0
 62
7
  6
CONTINUOUS
 10
348.2694553727
 20
60.5972003423
  0
VERTEX
  8
0
 62
7
  6
CONTINUOUS
 10
348.4807779371
 20
65.3617179163
  0
VERTEX
  8
0
 62
7
  6
CONTINUOUS
 10
348.5699739561
 20
70.2899694266
  0
VERTEX
  8
0
 62
7
  6
CONTINUOUS
 10
348.5782272092
 20
75.4123336056
  0
VERTEX
  8
0
 62
7
  6
CONTINUOUS
 10
348.5548410566
 20
80.7704548868
  0
VERTEX
  8
0
 62
7
  6
CONTINUOUS
 10
348.5202137094
 20
86.3729895331
  0
VERTEX
  8
0
 62
7
  6
CONTINUOUS
 10
348.5036804268
 20
92.2552353397
  0
VERTEX
  8
0
 62
7
  6
CONTINUOUS
 10
348.505614442
 20
98.4075583894
  0
VERTEX
  8
0
 62
7
  6
CONTINUOUS
 10
348.5335036479
 20
104.8400321434
  0
VERTEX
  8
0
 62
7
  6
CONTINUOUS
 10
348.5787209637
 20
111.5503709171
  0
SEQEND
  0
LINE
  8
0
 62
7
  6
CONTINUOUS
 10
211.0327034608
 20
-9.1320047329
 11
210.8394390602
 21
-9.1454040836
  0
POLYLINE
  8
0
 62
7
  6
CONTINUOUS
 66
1
 70
0
  0
VERTEX
  8
0
 62
7
  6
CONTINUOUS
 10
210.8394374285
 20
-9.1453379662
  0
VERTEX
  8
0
 62
7
  6
CONTINUOUS
 10
202.5070624868
 20
-9.4836273914
  0
VERTEX
  8
0
 62
7
  6
CONTINUOUS
 10
194.2022114984
 20
-9.6842392905
  0
VERTEX
  8
0
 62
7
  6
CONTINUOUS
 10
185.9314382889
 20
-9.7495623364
  0
VERTEX
  8
0
 62
7
  6
CONTINUOUS
 10
177.683916306
 20
-9.6813489623
  0
VERTEX
  8
0
 62
7
  6
CONTINUOUS
 10
169.4454478757
 20
-9.4799399532
  0
VERTEX
  8
0
 62
7
  6
CONTINUOUS
 10
161.2258818378
 20
-9.1453682729
  0
SEQEND
  0
LINE
  8
0
 62
7
  6
CONTINUOUS
 10
161.2259335697
 20
-9.1442431869
 11
161.0326992766
 21
-9.1321125263
  0
POLYLINE
  8
0
 62
7
  6
CONTINUOUS
 66
1
 70
0
  0
VERTEX
  8
0
 62
7
  6
CONTINUOUS
 10
12.1704945285
 20
53.2237956978
  0
VERTEX
  8
0
 62
7
  6
CONTINUOUS
 10
12.1924610597
 20
53.2190839394
  0
VERTEX
  8
0
 62
7
  6
CONTINUOUS
 10
12.3111242804
 20
53.220644254
  0
VERTEX
  8
0
 62
7
  6
CONTINUOUS
 10
12.5349084516
 20
53.2335164037
  0
VERTEX
  8
0
 62
7
  6
CONTINUOUS
 10
12.8636578086
 20
53.2580401856
  0
VERTEX
  8
0
 62
7
  6
CONTINUOUS
 10
13.291025254
 20
53.2939748076
  0
VERTEX
  8
0
 62
7
  6
CONTINUOUS
 10
13.7986836951
 20
53.3398703715
  0
VERTEX
  8
0
 62
7
  6
CONTINUOUS
 10
14.3832495961
 20
53.3955268104
  0
VERTEX
  8
0
 62
7
  6
CONTINUOUS
 10
15.039056974
 20
53.4606492056
  0
VERTEX
  8
0
 62
7
  6
CONTINUOUS
 10
15.7136381405
 20
53.5301482532
  0
SEQEND
  0
POLYLINE
  8
0
 62
7
  6
CONTINUOUS
 66
1
 70
0
  0
VERTEX
  8
0
 62
7
  6
CONTINUOUS
 10
36.2189988692
 20
195.8966238032
  0
VERTEX
  8
0
 62
7
  6
CONTINUOUS
 10
36.1879720513
 20
196.0585756686
  0
VERTEX
  8
0
 62
7
  6
CONTINUOUS
 10
36.0904643686
 20
196.3878766118
  0
VERTEX
  8
0
 62
7
  6
CONTINUOUS
 10
35.933684046
 20
196.8624828767
  0
VERTEX
  8
0
 62
7
  6
CONTINUOUS
 10
35.7200445502
 20
197.4766236471
  0
VERTEX
  8
0
 62
7
  6
CONTINUOUS
 10
35.4484583434
 20
198.2329570226
  0
VERTEX
  8
0
 62
7
  6
CONTINUOUS
 10
35.1237469054
 20
199.1172219096
  0
VERTEX
  8
0
 62
7
  6
CONTINUOUS
 10
34.751079354
 20
200.1147370633
  0
VERTEX
  8
0
 62
7
  6
CONTINUOUS
 10
34.3372891373
 20
201.2066627894
  0
VERTEX
  8
0
 62
7
  6
CONTINUOUS
 10
33.8890504781
 20
202.3748096053
  0
VERTEX
  8
0
 62
7
  6
CONTINUOUS
 10
33.4251347069
 20
203.5700525426
  0
SEQEND
  0
POLYLINE
  8
0
 62
7
  6
CONTINUOUS
 66
1
 70
0
  0
VERTEX
  8
0
 62
7
  6
CONTINUOUS
 10
36.2176920819
 20
195.8968262185
  0
VERTEX
  8
0
 62
7
  6
CONTINUOUS
 10
34.159811224
 20
195.0356304252
  0
VERTEX
  8
0
 62
7
  6
CONTINUOUS
 10
32.2381402478
 20
194.0508206195
  0
VERTEX
  8
0
 62
7
  6
CONTINUOUS
 10
30.4712888601
 20
192.9622176896
  0
VERTEX
  8
0
 62
7
  6
CONTINUOUS
 10
28.8659828296
 20
191.7798194484
  0
VERTEX
  8
0
 62
7
  6
CONTINUOUS
 10
27.4288286007
 20
190.5114685184
  0
VERTEX
  8
0
 62
7
  6
CONTINUOUS
 10
26.1729428234
 20
189.174343338
  0
VERTEX
  8
0
 62
7
  6
CONTINUOUS
 10
25.1080388471
 20
187.7821631132
  0
VERTEX
  8
0
 62
7
  6
CONTINUOUS
 10
24.2406978186
 20
186.3562095445
  0
VERTEX
  8
0
 62
7
  6
CONTINUOUS
 10
23.575061904
 20
184.9128476073
  0
VERTEX
  8
0
 62
7
  6
CONTINUOUS
 10
23.1094225941
 20
183.483995949
  0
VERTEX
  8
0
 62
7
  6
CONTINUOUS
 10
22.8355981504
 20
182.1000742587
  0
VERTEX
  8
0
 62
7
  6
CONTINUOUS
 10
22.7431087617
 20
180.7744607965
  0
SEQEND
  0
POLYLINE
  8
0
 62
7
  6
CONTINUOUS
 66
1
 70
0
  0
VERTEX
  8
0
 62
7
  6
CONTINUOUS
 10
33.4251369447
 20
203.5700482627
  0
VERTEX
  8
0
 62
7
  6
CONTINUOUS
 10
41.0339905067
 20
206.5384055356
  0
VERTEX
  8
0
 62
7
  6
CONTINUOUS
 10
48.6748260734
 20
209.3588672017
  0
VERTEX
  8
0
 62
7
  6
CONTINUOUS
 10
56.3405401022
 20
212.0304698857
  0
VERTEX
  8
0
 62
7
  6
CONTINUOUS
 10
64.0564576378
 20
214.5556426792
  0
VERTEX
  8
0
 62
7
  6
CONTINUOUS
 10
71.8503013076
 20
216.9424053437
  0
VERTEX
  8
0
 62
7
  6
CONTINUOUS
 10
79.7066128599
 20
219.1732253135
  0
VERTEX
  8
0
 62
7
  6
CONTINUOUS
 10
87.6190684755
 20
221.2433404113
  0
VERTEX
  8
0
 62
7
  6
CONTINUOUS
 10
95.5834515183
 20
223.1225019601
  0
VERTEX
  8
0
 62
7
  6
CONTINUOUS
 10
103.592123345
 20
224.7860630467
  0
VERTEX
  8
0
 62
7
  6
CONTINUOUS
 10
111.6492518973
 20
226.2126432483
  0
VERTEX
  8
0
 62
7
  6
CONTINUOUS
 10
119.7587656047
 20
227.3600177914
  0
VERTEX
  8
0
 62
7
  6
CONTINUOUS
 10
127.9152726894
 20
228.2661746208
  0
VERTEX
  8
0
 62
7
  6
CONTINUOUS
 10
136.1237149509
 20
228.9406283759
  0
VERTEX
  8
0
 62
7
  6
CONTINUOUS
 10
144.3572504736
 20
229.4265097884
  0
VERTEX
  8
0
 62
7
  6
CONTINUOUS
 10
152.5876056478
 20
229.775873833
  0
SEQEND
  0
POLYLINE
  8
0
 62
7
  6
CONTINUOUS
 66
1
 70
0
  0
VERTEX
  8
0
 62
7
  6
CONTINUOUS
 10
39.6070700242
 20
196.9331351906
  0
VERTEX
  8
0
 62
7
  6
CONTINUOUS
 10
46.5467972407
 20
199.0601013497
  0
VERTEX
  8
0
 62
7
  6
CONTINUOUS
 10
50.0842397637
 20
200.1406511732
  0
VERTEX
  8
0
 62
7
  6
CONTINUOUS
 10
53.6325766523
 20
201.219782496
  0
VERTEX
  8
0
 62
7
  6
CONTINUOUS
 10
57.2498265937
 20
202.3121803486
  0
VERTEX
  8
0
 62
7
  6
CONTINUOUS
 10
61.0008308359
 20
203.431508291
  0
VERTEX
  8
0
 62
7
  6
CONTINUOUS
 10
64.8375054916
 20
204.5554713441
  0
VERTEX
  8
0
 62
7
  6
CONTINUOUS
 10
68.713971733
 20
205.6604541763
  0
VERTEX
  8
0
 62
7
  6
CONTINUOUS
 10
72.6967529475
 20
206.753514561
  0
VERTEX
  8
0
 62
7
  6
CONTINUOUS
 10
76.8528937561
 20
207.8393597955
  0
VERTEX
  8
0
 62
7
  6
CONTINUOUS
 10
81.1361247444
 20
208.8920549759
  0
VERTEX
  8
0
 62
7
  6
CONTINUOUS
 10
85.5051860261
 20
209.8913100467
  0
VERTEX
  8
0
 62
7
  6
CONTINUOUS
 10
90.0086184227
 20
210.8397817399
  0
VERTEX
  8
0
 62
7
  6
CONTINUOUS
 10
94.6978360405
 20
211.7392834161
  0
VERTEX
  8
0
 62
7
  6
CONTINUOUS
 10
99.5228355044
 20
212.5734790775
  0
VERTEX
  8
0
 62
7
  6
CONTINUOUS
 10
104.4497465445
 20
213.3349425468
  0
VERTEX
  8
0
 62
7
  6
CONTINUOUS
 10
109.4805399169
 20
214.0231068911
  0
VERTEX
  8
0
 62
7
  6
CONTINUOUS
 10
114.6201203495
 20
214.6404645201
  0
VERTEX
  8
0
 62
7
  6
CONTINUOUS
 10
119.8245862118
 20
215.1849908363
  0
VERTEX
  8
0
 62
7
  6
CONTINUOUS
 10
125.0455459288
 20
215.6573072279
  0
VERTEX
  8
0
 62
7
  6
CONTINUOUS
 10
130.3003563218
 20
216.0662543234
  0
VERTEX
  8
0
 62
7
  6
CONTINUOUS
 10
135.5906802715
 20
216.418166449
  0
VERTEX
  8
0
 62
7
  6
CONTINUOUS
 10
140.9152473302
 20
216.7213670526
  0
SEQEND
  0
LINE
  8
0
 62
7
  6
CONTINUOUS
 10
36.21909994
 20
195.8966642974
 11
39.6070700242
 21
196.9331351906
  0
POLYLINE
  8
0
 62
7
  6
CONTINUOUS
 66
1
 70
0
  0
VERTEX
  8
0
 62
7
  6
CONTINUOUS
 10
170.5989216899
 20
222.0278003192
  0
VERTEX
  8
0
 62
7
  6
CONTINUOUS
 10
170.7013257085
 20
222.0727041998
  0
VERTEX
  8
0
 62
7
  6
CONTINUOUS
 10
171.0221696525
 20
222.117169027
  0
VERTEX
  8
0
 62
7
  6
CONTINUOUS
 10
171.5588611495
 20
222.1612922254
  0
VERTEX
  8
0
 62
7
  6
CONTINUOUS
 10
172.3048617995
 20
222.2036462512
  0
VERTEX
  8
0
 62
7
  6
CONTINUOUS
 10
173.2498325897
 20
222.2429324908
  0
VERTEX
  8
0
 62
7
  6
CONTINUOUS
 10
174.3798405141
 20
222.2786930694
  0
VERTEX
  8
0
 62
7
  6
CONTINUOUS
 10
175.6772172106
 20
222.3100844964
  0
VERTEX
  8
0
 62
7
  6
CONTINUOUS
 10
177.1235014456
 20
222.336911286
  0
SEQEND
  0
POLYLINE
  8
0
 62
7
  6
CONTINUOUS
 66
1
 70
0
  0
VERTEX
  8
0
 62
7
  6
CONTINUOUS
 10
356.3517498956
 20
53.5301500813
  0
VERTEX
  8
0
 62
7
  6
CONTINUOUS
 10
356.9632588004
 20
53.4670450648
  0
VERTEX
  8
0
 62
7
  6
CONTINUOUS
 10
357.5587231754
 20
53.40758497
  0
VERTEX
  8
0
 62
7
  6
CONTINUOUS
 10
358.0938991032
 20
53.3560548199
  0
VERTEX
  8
0
 62
7
  6
CONTINUOUS
 10
358.5772552493
 20
53.3114676521
  0
VERTEX
  8
0
 62
7
  6
CONTINUOUS
 10
359.0139328908
 20
53.2734317496
  0
VERTEX
  8
0
 62
7
  6
CONTINUOUS
 10
359.3798385471
 20
53.2442585652
  0
VERTEX
  8
0
 62
7
  6
CONTINUOUS
 10
359.6586447223
 20
53.2254631648
  0
VERTEX
  8
0
 62
7
  6
CONTINUOUS
 10
359.8342451535
 20
53.2184057002
  0
VERTEX
  8
0
 62
7
  6
CONTINUOUS
 10
359.8949076883
 20
53.2237639979
  0
SEQEND
  0
POLYLINE
  8
0
 62
7
  6
CONTINUOUS
 66
1
 70
0
  0
VERTEX
  8
0
 62
7
  6
CONTINUOUS
 10
162.7434399608
 20
217.5707085319
  0
VERTEX
  8
0
 62
7
  6
CONTINUOUS
 10
162.4573359637
 20
217.2721130703
  0
VERTEX
  8
0
 62
7
  6
CONTINUOUS
 10
162.1866286648
 20
216.7400636946
  0
VERTEX
  8
0
 62
7
  6
CONTINUOUS
 10
161.9406971389
 20
216.0016704831
  0
VERTEX
  8
0
 62
7
  6
CONTINUOUS
 10
161.7182814178
 20
215.0630915648
  0
VERTEX
  8
0
 62
7
  6
CONTINUOUS
 10
161.5198622544
 20
213.9215434405
  0
VERTEX
  8
0
 62
7
  6
CONTINUOUS
 10
161.3505475289
 20
212.5947356296
  0
VERTEX
  8
0
 62
7
  6
CONTINUOUS
 10
161.2140783652
 20
211.1004251198
  0
VERTEX
  8
0
 62
7
  6
CONTINUOUS
 10
161.1138233615
 20
209.4606403723
  0
VERTEX
  8
0
 62
7
  6
CONTINUOUS
 10
161.0524971102
 20
207.6956424693
  0
VERTEX
  8
0
 62
7
  6
CONTINUOUS
 10
161.0326877942
 20
205.8626011797
  0
SEQEND
  0
POLYLINE
  8
0
 62
7
  6
CONTINUOUS
 66
1
 70
0
  0
VERTEX
  8
0
 62
7
  6
CONTINUOUS
 10
161.0327033388
 20
217.5220529178
  0
VERTEX
  8
0
 62
7
  6
CONTINUOUS
 10
160.7330361695
 20
217.2237096976
  0
VERTEX
  8
0
 62
7
  6
CONTINUOUS
 10
160.4498118841
 20
216.6922678666
  0
VERTEX
  8
0
 62
7
  6
CONTINUOUS
 10
160.1928263167
 20
215.9549437785
  0
VERTEX
  8
0
 62
7
  6
CONTINUOUS
 10
159.9607048437
 20
215.0178812361
  0
VERTEX
  8
0
 62
7
  6
CONTINUOUS
 10
159.7539119467
 20
213.8781656362
  0
VERTEX
  8
0
 62
7
  6
CONTINUOUS
 10
159.5777862551
 20
212.5534943278
  0
VERTEX
  8
0
 62
7
  6
CONTINUOUS
 10
159.4362181996
 20
211.0615062038
  0
VERTEX
  8
0
 62
7
  6
CONTINUOUS
 10
159.3327217941
 20
209.4243166803
  0
VERTEX
  8
0
 62
7
  6
CONTINUOUS
 10
159.2701105858
 20
207.6622980002
  0
VERTEX
  8
0
 62
7
  6
CONTINUOUS
 10
159.2510163986
 20
205.8323368366
  0
SEQEND
  0
POLYLINE
  8
0
 62
7
  6
CONTINUOUS
 66
1
 70
0
  0
VERTEX
  8
0
 62
7
  6
CONTINUOUS
 10
200.8115511943
 20
220.4079776748
  0
VERTEX
  8
0
 62
7
  6
CONTINUOUS
 10
200.9473662718
 20
220.5285717443
  0
VERTEX
  8
0
 62
7
  6
CONTINUOUS
 10
201.1313187649
 20
220.7139711241
  0
VERTEX
  8
0
 62
7
  6
CONTINUOUS
 10
201.3482221774
 20
220.9736569112
  0
VERTEX
  8
0
 62
7
  6
CONTINUOUS
 10
201.5771672244
 20
221.3166024567
  0
VERTEX
  8
0
 62
7
  6
CONTINUOUS
 10
201.7994766129
 20
221.7677449835
  0
VERTEX
  8
0
 62
7
  6
CONTINUOUS
 10
201.8898554767
 20
222.016790882
  0
SEQEND
  0
POLYLINE
  8
0
 62
7
  6
CONTINUOUS
 66
1
 70
0
  0
VERTEX
  8
0
 62
7
  6
CONTINUOUS
 10
167.1015032109
 20
276.3571745706
  0
VERTEX
  8
0
 62
7
  6
CONTINUOUS
 10
167.0669206335
 20
277.6605927585
  0
VERTEX
  8
0
 62
7
  6
CONTINUOUS
 10
167.2222953569
 20
279.9377502507
  0
VERTEX
  8
0
 62
7
  6
CONTINUOUS
 10
167.6499154358
 20
282.1783223588
  0
VERTEX
  8
0
 62
7
  6
CONTINUOUS
 10
168.3431153024
 20
284.3500653327
  0
VERTEX
  8
0
 62
7
  6
CONTINUOUS
 10
169.292385035
 20
286.423551791
  0
VERTEX
  8
0
 62
7
  6
CONTINUOUS
 10
170.4826015294
 20
288.3663464944
  0
VERTEX
  8
0
 62
7
  6
CONTINUOUS
 10
171.8923356909
 20
290.1467676595
  0
VERTEX
  8
0
 62
7
  6
CONTINUOUS
 10
173.5065641344
 20
291.7473624167
  0
VERTEX
  8
0
 62
7
  6
CONTINUOUS
 10
175.3123803148
 20
293.1512253927
  0
VERTEX
  8
0
 62
7
  6
CONTINUOUS
 10
177.2763057394
 20
294.3285828395
  0
VERTEX
  8
0
 62
7
  6
CONTINUOUS
 10
179.3634829809
 20
295.2590104184
  0
VERTEX
  8
0
 62
7
  6
CONTINUOUS
 10
181.5412934652
 20
295.9301425051
  0
VERTEX
  8
0
 62
7
  6
CONTINUOUS
 10
183.7731010878
 20
296.3339215785
  0
VERTEX
  8
0
 62
7
  6
CONTINUOUS
 10
186.0277942558
 20
296.4683952998
  0
SEQEND
  0
LINE
  8
0
 62
7
  6
CONTINUOUS
 10
161.0326804498
 20
222.0756954828
 11
160.8241327412
 21
229.9714585982
  0
LINE
  8
0
 62
7
  6
CONTINUOUS
 10
161.2392708092
 20
222.081106648
 11
161.0326106135
 21
229.975831052
  0
LINE
  8
0
 62
7
  6
CONTINUOUS
 10
161.0323925189
 20
194.5550562543
 11
161.0324331956
 21
205.8638144048
  0
LINE
  8
0
 62
7
  6
CONTINUOUS
 10
161.0327717979
 20
-9.1311454926
 11
161.0323185145
 21
152.446107213
  0
LINE
  8
0
 62
7
  6
CONTINUOUS
 10
161.0326566125
 20
229.9758495921
 11
161.0327224917
 21
327.4181002462
  0
LINE
  8
0
 62
7
  6
CONTINUOUS
 10
161.033250383
 20
-16.0582221442
 11
161.0321575082
 21
-19.803065149
  0
LINE
  8
0
 62
7
  6
CONTINUOUS
 10
161.0329376101
 20
217.5213034214
 11
161.0326556672
 21
222.0754169831
  0
POLYLINE
  8
0
 62
7
  6
CONTINUOUS
 66
1
 70
0
  0
VERTEX
  8
0
 62
7
  6
CONTINUOUS
 10
161.0327032866
 20
-16.0603832045
  0
VERTEX
  8
0
 62
7
  6
CONTINUOUS
 10
161.0766200448
 20
-15.0639167978
  0
VERTEX
  8
0
 62
7
  6
CONTINUOUS
 10
161.1159865026
 20
-14.0793006954
  0
VERTEX
  8
0
 62
7
  6
CONTINUOUS
 10
161.1498807706
 20
-13.1201016602
  0
VERTEX
  8
0
 62
7
  6
CONTINUOUS
 10
161.1779834155
 20
-12.1995221773
  0
VERTEX
  8
0
 62
7
  6
CONTINUOUS
 10
161.1998769787
 20
-11.3303395235
  0
VERTEX
  8
0
 62
7
  6
CONTINUOUS
 10
161.2152968951
 20
-10.5242207965
  0
VERTEX
  8
0
 62
7
  6
CONTINUOUS
 10
161.2241849937
 20
-9.7920780431
  0
VERTEX
  8
0
 62
7
  6
CONTINUOUS
 10
161.2259335697
 20
-9.1442431869
  0
SEQEND
  0
POLYLINE
  8
0
 62
7
  6
CONTINUOUS
 66
1
 70
0
  0
VERTEX
  8
0
 62
7
  6
CONTINUOUS
 10
160.6716380878
 20
-16.0471033773
  0
VERTEX
  8
0
 62
7
  6
CONTINUOUS
 10
160.7318605567
 20
-15.0531137235
  0
VERTEX
  8
0
 62
7
  6
CONTINUOUS
 10
160.7890366145
 20
-14.0734001512
  0
VERTEX
  8
0
 62
7
  6
CONTINUOUS
 10
160.8423078585
 20
-13.1232947707
  0
VERTEX
  8
0
 62
7
  6
CONTINUOUS
 10
160.8913118265
 20
-12.2092903502
  0
VERTEX
  8
0
 62
7
  6
CONTINUOUS
 10
160.9356513805
 20
-11.3380151791
  0
VERTEX
  8
0
 62
7
  6
CONTINUOUS
 10
160.974424583
 20
-10.5261179022
  0
VERTEX
  8
0
 62
7
  6
CONTINUOUS
 10
161.0069401581
 20
-9.7872044039
  0
VERTEX
  8
0
 62
7
  6
CONTINUOUS
 10
161.0326992766
 20
-9.1321125263
  0
SEQEND
  0
POLYLINE
  8
0
 62
7
  6
CONTINUOUS
 66
1
 70
0
  0
VERTEX
  8
0
 62
7
  6
CONTINUOUS
 10
203.709007318
 20
271.3010867762
  0
VERTEX
  8
0
 62
7
  6
CONTINUOUS
 10
204.3922106868
 20
273.4807898099
  0
VERTEX
  8
0
 62
7
  6
CONTINUOUS
 10
204.8115343609
 20
275.7250601138
  0
VERTEX
  8
0
 62
7
  6
CONTINUOUS
 10
204.9548981785
 20
277.9987565557
  0
SEQEND
  0
POLYLINE
  8
0
 62
7
  6
CONTINUOUS
 66
1
 70
0
  0
VERTEX
  8
0
 62
7
  6
CONTINUOUS
 10
204.0069739746
 20
271.4862429912
  0
VERTEX
  8
0
 62
7
  6
CONTINUOUS
 10
203.8379299343
 20
271.0036614503
  0
VERTEX
  8
0
 62
7
  6
CONTINUOUS
 10
202.9165086181
 20
268.8909423904
  0
VERTEX
  8
0
 62
7
  6
CONTINUOUS
 10
201.7439635482
 20
266.9034350665
  0
VERTEX
  8
0
 62
7
  6
CONTINUOUS
 10
200.340368164
 20
265.0751410276
  0
VERTEX
  8
0
 62
7
  6
CONTINUOUS
 10
198.7212260034
 20
263.4270474434
  0
VERTEX
  8
0
 62
7
  6
CONTINUOUS
 10
196.9005768403
 20
261.9789769658
  0
VERTEX
  8
0
 62
7
  6
CONTINUOUS
 10
194.9133024134
 20
260.7631624064
  0
VERTEX
  8
0
 62
7
  6
CONTINUOUS
 10
192.7965338144
 20
259.8019712766
  0
VERTEX
  8
0
 62
7
  6
CONTINUOUS
 10
190.5850036005
 20
259.108726141
  0
VERTEX
  8
0
 62
7
  6
CONTINUOUS
 10
188.3181161096
 20
258.6919563285
  0
VERTEX
  8
0
 62
7
  6
CONTINUOUS
 10
186.0283365075
 20
258.5532483034
  0
SEQEND
  0
POLYLINE
  8
0
 62
7
  6
CONTINUOUS
 66
1
 70
0
  0
VERTEX
  8
0
 62
7
  6
CONTINUOUS
 10
161.344680162
 20
152.0350450381
  0
VERTEX
  8
0
 62
7
  6
CONTINUOUS
 10
163.8318574453
 20
149.4240593596
  0
VERTEX
  8
0
 62
7
  6
CONTINUOUS
 10
166.6021838602
 20
147.0929184319
  0
VERTEX
  8
0
 62
7
  6
CONTINUOUS
 10
168.7352973518
 20
145.6180054974
  0
SEQEND
  0
LINE
  8
0
 62
7
  6
CONTINUOUS
 10
159.1551497274
 20
154.9164267624
 11
161.344680162
 21
152.0350450381
  0
POLYLINE
  8
0
 62
7
  6
CONTINUOUS
 66
1
 70
0
  0
VERTEX
  8
0
 62
7
  6
CONTINUOUS
 10
157.5822560959
 20
163.7636960019
  0
VERTEX
  8
0
 62
7
  6
CONTINUOUS
 10
158.5074263388
 20
161.3337604279
  0
VERTEX
  8
0
 62
7
  6
CONTINUOUS
 10
159.6370487872
 20
158.990933124
  0
VERTEX
  8
0
 62
7
  6
CONTINUOUS
 10
160.9620169481
 20
156.7530196411
  0
VERTEX
  8
0
 62
7
  6
CONTINUOUS
 10
162.4735073733
 20
154.636458815
  0
VERTEX
  8
0
 62
7
  6
CONTINUOUS
 10
164.1612367568
 20
152.6575241846
  0
VERTEX
  8
0
 62
7
  6
CONTINUOUS
 10
166.0120020501
 20
150.8302241788
  0
VERTEX
  8
0
 62
7
  6
CONTINUOUS
 10
168.0121257064
 20
149.1673022164
  0
VERTEX
  8
0
 62
7
  6
CONTINUOUS
 10
170.1463670128
 20
147.6817935921
  0
SEQEND
  0
POLYLINE
  8
0
 62
7
  6
CONTINUOUS
 66
1
 70
0
  0
VERTEX
  8
0
 62
7
  6
CONTINUOUS
 10
154.3741728461
 20
165.8543990606
  0
VERTEX
  8
0
 62
7
  6
CONTINUOUS
 10
154.6585853341
 20
164.7265108412
  0
VERTEX
  8
0
 62
7
  6
CONTINUOUS
 10
155.7946214256
 20
161.2942851464
  0
VERTEX
  8
0
 62
7
  6
CONTINUOUS
 10
157.291375897
 20
158.0268324678
  0
VERTEX
  8
0
 62
7
  6
CONTINUOUS
 10
159.1551497274
 20
154.9164267624
  0
SEQEND
  0
LINE
  8
0
 62
7
  6
CONTINUOUS
 10
154.3008097711
 20
166.1691134163
 11
154.3732309666
 21
165.8582964499
  0
POLYLINE
  8
0
 62
7
  6
CONTINUOUS
 66
1
 70
0
  0
VERTEX
  8
0
 62
7
  6
CONTINUOUS
 10
154.3008062096
 20
166.1691287014
  0
VERTEX
  8
0
 62
7
  6
CONTINUOUS
 10
154.0661171373
 20
167.2603298437
  0
VERTEX
  8
0
 62
7
  6
CONTINUOUS
 10
153.5947279523
 20
170.4931620957
  0
VERTEX
  8
0
 62
7
  6
CONTINUOUS
 10
153.4483871492
 20
173.7690206674
  0
VERTEX
  8
0
 62
7
  6
CONTINUOUS
 10
153.6301887453
 20
177.0372511771
  0
VERTEX
  8
0
 62
7
  6
CONTINUOUS
 10
154.1330383535
 20
180.249423338
  0
VERTEX
  8
0
 62
7
  6
CONTINUOUS
 10
154.9473472366
 20
183.3815874703
  0
VERTEX
  8
0
 62
7
  6
CONTINUOUS
 10
156.0624548102
 20
186.4089531716
  0
VERTEX
  8
0
 62
7
  6
CONTINUOUS
 10
157.4596321495
 20
189.2943543274
  0
VERTEX
  8
0
 62
7
  6
CONTINUOUS
 10
159.1144972348
 20
192.0049729595
  0
VERTEX
  8
0
 62
7
  6
CONTINUOUS
 10
161.0059363592
 20
194.5224912494
  0
SEQEND
  0
POLYLINE
  8
0
 62
7
  6
CONTINUOUS
 66
1
 70
0
  0
VERTEX
  8
0
 62
7
  6
CONTINUOUS
 10
154.3719562969
 20
165.8637649937
  0
VERTEX
  8
0
 62
7
  6
CONTINUOUS
 10
153.8726769501
 20
168.483736018
  0
VERTEX
  8
0
 62
7
  6
CONTINUOUS
 10
153.541651295
 20
171.9926684767
  0
VERTEX
  8
0
 62
7
  6
CONTINUOUS
 10
153.5879704105
 20
175.5136981182
  0
VERTEX
  8
0
 62
7
  6
CONTINUOUS
 10
154.0105203482
 20
179.0097392313
  0
VERTEX
  8
0
 62
7
  6
CONTINUOUS
 10
154.8046844325
 20
182.4416423338
  0
VERTEX
  8
0
 62
7
  6
CONTINUOUS
 10
155.9635604202
 20
185.7746150074
  0
VERTEX
  8
0
 62
7
  6
CONTINUOUS
 10
157.4714889156
 20
188.9618821631
  0
VERTEX
  8
0
 62
7
  6
CONTINUOUS
 10
159.3036828478
 20
191.9573524263
  0
VERTEX
  8
0
 62
7
  6
CONTINUOUS
 10
161.4446654653
 20
194.7400500155
  0
VERTEX
  8
0
 62
7
  6
CONTINUOUS
 10
163.8806191389
 20
197.2881062667
  0
VERTEX
  8
0
 62
7
  6
CONTINUOUS
 10
166.5769520961
 20
199.5613683645
  0
VERTEX
  8
0
 62
7
  6
CONTINUOUS
 10
169.4955590371
 20
201.5285170144
  0
VERTEX
  8
0
 62
7
  6
CONTINUOUS
 10
172.6048265871
 20
203.1700130247
  0
VERTEX
  8
0
 62
7
  6
CONTINUOUS
 10
175.8666164474
 20
204.4671100035
  0
VERTEX
  8
0
 62
7
  6
CONTINUOUS
 10
179.2506457867
 20
205.4080956612
  0
VERTEX
  8
0
 62
7
  6
CONTINUOUS
 10
182.7263539554
 20
205.9820730608
  0
VERTEX
  8
0
 62
7
  6
CONTINUOUS
 10
186.2514060282
 20
206.1790011661
  0
SEQEND
  0
LINE
  8
0
 62
7
  6
CONTINUOUS
 10
167.0947456037
 20
276.6118689505
 11
167.1625219699
 21
275.8474495793
  0
LINE
  8
0
 62
7
  6
CONTINUOUS
 10
186.0382412237
 20
296.4692516614
 11
186.040187467
 21
299.90898318
  0
LINE
  8
0
 62
7
  6
CONTINUOUS
 10
186.0178991155
 20
258.5532508539
 11
186.0159552694
 21
254.9227679114
  0
POLYLINE
  8
0
 62
7
  6
CONTINUOUS
 66
1
 70
0
  0
VERTEX
  8
0
 62
7
  6
CONTINUOUS
 10
161.4121717115
 20
-19.8214725922
  0
VERTEX
  8
0
 62
7
  6
CONTINUOUS
 10
161.3726753594
 20
-20.4455974507
  0
VERTEX
  8
0
 62
7
  6
CONTINUOUS
 10
161.3312347288
 20
-21.0333487149
  0
VERTEX
  8
0
 62
7
  6
CONTINUOUS
 10
161.2897943727
 20
-21.5629638351
  0
VERTEX
  8
0
 62
7
  6
CONTINUOUS
 10
161.2481751638
 20
-22.0400845432
  0
SEQEND
  0
POLYLINE
  8
0
 62
7
  6
CONTINUOUS
 66
1
 70
0
  0
VERTEX
  8
0
 62
7
  6
CONTINUOUS
 10
161.0327012931
 20
-19.8031207448
  0
VERTEX
  8
0
 62
7
  6
CONTINUOUS
 10
160.984274216
 20
-20.4352428219
  0
VERTEX
  8
0
 62
7
  6
CONTINUOUS
 10
160.9356229401
 20
-21.0433570457
  0
VERTEX
  8
0
 62
7
  6
CONTINUOUS
 10
160.8881929277
 20
-21.6073987629
  0
VERTEX
  8
0
 62
7
  6
CONTINUOUS
 10
160.8434718436
 20
-22.1095028735
  0
VERTEX
  8
0
 62
7
  6
CONTINUOUS
 10
160.8030227897
 20
-22.5337006683
  0
VERTEX
  8
0
 62
7
  6
CONTINUOUS
 10
160.7680208565
 20
-22.866391069
  0
VERTEX
  8
0
 62
7
  6
CONTINUOUS
 10
160.7397155052
 20
-23.0968863409
  0
VERTEX
  8
0
 62
7
  6
CONTINUOUS
 10
160.7189140888
 20
-23.2176688122
  0
SEQEND
  0
POLYLINE
  8
0
 62
7
  6
CONTINUOUS
 66
1
 70
0
  0
VERTEX
  8
0
 62
7
  6
CONTINUOUS
 10
161.2481751638
 20
-22.0400845432
  0
VERTEX
  8
0
 62
7
  6
CONTINUOUS
 10
161.2061636577
 20
-22.4647550941
  0
VERTEX
  8
0
 62
7
  6
CONTINUOUS
 10
161.1655783936
 20
-22.8139723345
  0
VERTEX
  8
0
 62
7
  6
CONTINUOUS
 10
161.1277713661
 20
-23.071817042
  0
VERTEX
  8
0
 62
7
  6
CONTINUOUS
 10
161.0944975279
 20
-23.2219312054
  0
VERTEX
  8
0
 62
7
  6
CONTINUOUS
 10
161.0728111809
 20
-23.2572878963
  0
SEQEND
  0
LINE
  8
0
 62
7
  6
CONTINUOUS
 10
201.890158001
 20
222.0179567273
 11
201.88985946
 21
222.0168033056
  0
POLYLINE
  8
0
 62
7
  6
CONTINUOUS
 66
1
 70
0
  0
VERTEX
  8
0
 62
7
  6
CONTINUOUS
 10
202.6864734725
 20
199.1828335538
  0
VERTEX
  8
0
 62
7
  6
CONTINUOUS
 10
202.9255334612
 20
199.5703477686
  0
VERTEX
  8
0
 62
7
  6
CONTINUOUS
 10
203.1451677587
 20
199.9303305341
  0
VERTEX
  8
0
 62
7
  6
CONTINUOUS
 10
203.3365592078
 20
200.2482727966
  0
VERTEX
  8
0
 62
7
  6
CONTINUOUS
 10
203.4995755748
 20
200.5238619334
  0
VERTEX
  8
0
 62
7
  6
CONTINUOUS
 10
203.6321912077
 20
200.7538241579
  0
VERTEX
  8
0
 62
7
  6
CONTINUOUS
 10
203.729599597
 20
200.9300998016
  0
VERTEX
  8
0
 62
7
  6
CONTINUOUS
 10
203.7886838074
 20
201.0473944425
  0
VERTEX
  8
0
 62
7
  6
CONTINUOUS
 10
203.8066589777
 20
201.1003908766
  0
SEQEND
  0
POLYLINE
  8
0
 62
7
  6
CONTINUOUS
 66
1
 70
0
  0
VERTEX
  8
0
 62
7
  6
CONTINUOUS
 10
170.1463762743
 20
147.681807904
  0
VERTEX
  8
0
 62
7
  6
CONTINUOUS
 10
169.8594592827
 20
147.2391335222
  0
VERTEX
  8
0
 62
7
  6
CONTINUOUS
 10
169.5900838787
 20
146.8282384011
  0
VERTEX
  8
0
 62
7
  6
CONTINUOUS
 10
169.3520564547
 20
146.470101585
  0
VERTEX
  8
0
 62
7
  6
CONTINUOUS
 10
169.1456925863
 20
146.1650637246
  0
VERTEX
  8
0
 62
7
  6
CONTINUOUS
 10
168.9740741768
 20
145.9178932656
  0
VERTEX
  8
0
 62
7
  6
CONTINUOUS
 10
168.8448500287
 20
145.7399940285
  0
VERTEX
  8
0
 62
7
  6
CONTINUOUS
 10
168.7631601308
 20
145.6389257089
  0
VERTEX
  8
0
 62
7
  6
CONTINUOUS
 10
168.7352973518
 20
145.6180054974
  0
SEQEND
  0
POLYLINE
  8
0
 62
7
  6
CONTINUOUS
 66
1
 70
0
  0
VERTEX
  8
0
 62
7
  6
CONTINUOUS
 10
9.3360479067
 20
175.3047538485
  0
VERTEX
  8
0
 62
7
  6
CONTINUOUS
 10
9.3781750915
 20
175.2965333689
  0
VERTEX
  8
0
 62
7
  6
CONTINUOUS
 10
9.504496694
 20
175.2901785864
  0
VERTEX
  8
0
 62
7
  6
CONTINUOUS
 10
9.7081782679
 20
175.285969352
  0
VERTEX
  8
0
 62
7
  6
CONTINUOUS
 10
9.9871357947
 20
175.2838883664
  0
VERTEX
  8
0
 62
7
  6
CONTINUOUS
 10
10.340351389
 20
175.2840300969
  0
VERTEX
  8
0
 62
7
  6
CONTINUOUS
 10
10.7614040845
 20
175.2864958288
  0
VERTEX
  8
0
 62
7
  6
CONTINUOUS
 10
11.7672527366
 20
175.2984054962
  0
SEQEND
  0
POLYLINE
  8
0
 62
7
  6
CONTINUOUS
 66
1
 70
0
  0
VERTEX
  8
0
 62
7
  6
CONTINUOUS
 10
170.1463670128
 20
147.6817935921
  0
VERTEX
  8
0
 62
7
  6
CONTINUOUS
 10
172.6576443247
 20
146.2525450074
  0
VERTEX
  8
0
 62
7
  6
CONTINUOUS
 10
175.3015517498
 20
145.0656324448
  0
VERTEX
  8
0
 62
7
  6
CONTINUOUS
 10
178.0552632572
 20
144.1348887006
  0
VERTEX
  8
0
 62
7
  6
CONTINUOUS
 10
180.8897209303
 20
143.4712881269
  0
VERTEX
  8
0
 62
7
  6
CONTINUOUS
 10
183.7752523817
 20
143.0822208734
  0
VERTEX
  8
0
 62
7
  6
CONTINUOUS
 10
186.6844848598
 20
142.9715317716
  0
VERTEX
  8
0
 62
7
  6
CONTINUOUS
 10
189.5880380698
 20
143.1402053196
  0
VERTEX
  8
0
 62
7
  6
CONTINUOUS
 10
192.4610364468
 20
143.5858566885
  0
VERTEX
  8
0
 62
7
  6
CONTINUOUS
 10
195.2787316795
 20
144.3045546174
  0
VERTEX
  8
0
 62
7
  6
CONTINUOUS
 10
198.0138304213
 20
145.2887788703
  0
VERTEX
  8
0
 62
7
  6
CONTINUOUS
 10
200.6393356233
 20
146.5274488701
  0
VERTEX
  8
0
 62
7
  6
CONTINUOUS
 10
203.136046794
 20
148.0118035912
  0
VERTEX
  8
0
 62
7
  6
CONTINUOUS
 10
205.4840490984
 20
149.7321766952
  0
VERTEX
  8
0
 62
7
  6
CONTINUOUS
 10
207.6611571347
 20
151.6731142167
  0
VERTEX
  8
0
 62
7
  6
CONTINUOUS
 10
209.6498013289
 20
153.821185891
  0
VERTEX
  8
0
 62
7
  6
CONTINUOUS
 10
211.4242511823
 20
156.1505724729
  0
VERTEX
  8
0
 62
7
  6
CONTINUOUS
 10
212.9655631642
 20
158.6333075955
  0
VERTEX
  8
0
 62
7
  6
CONTINUOUS
 10
214.2591930481
 20
161.2451135936
  0
VERTEX
  8
0
 62
7
  6
CONTINUOUS
 10
215.2916381447
 20
163.9546416928
  0
VERTEX
  8
0
 62
7
  6
CONTINUOUS
 10
216.061166493
 20
166.7454770414
  0
VERTEX
  8
0
 62
7
  6
CONTINUOUS
 10
216.5643854569
 20
169.6004530095
  0
VERTEX
  8
0
 62
7
  6
CONTINUOUS
 10
216.7948860395
 20
172.493152099
  0
VERTEX
  8
0
 62
7
  6
CONTINUOUS
 10
216.7496000563
 20
175.3978706151
  0
VERTEX
  8
0
 62
7
  6
CONTINUOUS
 10
216.4270546912
 20
178.2927320316
  0
VERTEX
  8
0
 62
7
  6
CONTINUOUS
 10
215.8267884029
 20
181.1557722308
  0
VERTEX
  8
0
 62
7
  6
CONTINUOUS
 10
214.9502090202
 20
183.9592964897
  0
SEQEND
  0
POLYLINE
  8
0
 62
7
  6
CONTINUOUS
 66
1
 70
0
  0
VERTEX
  8
0
 62
7
  6
CONTINUOUS
 10
168.735297234
 20
145.6180055721
  0
VERTEX
  8
0
 62
7
  6
CONTINUOUS
 10
171.0376973295
 20
144.2874256221
  0
VERTEX
  8
0
 62
7
  6
CONTINUOUS
 10
174.3116002311
 20
142.7909821612
  0
VERTEX
  8
0
 62
7
  6
CONTINUOUS
 10
177.7151058087
 20
141.6667095942
  0
VERTEX
  8
0
 62
7
  6
CONTINUOUS
 10
181.2339427021
 20
140.9234872133
  0
VERTEX
  8
0
 62
7
  6
CONTINUOUS
 10
184.8190867716
 20
140.5688884185
  0
VERTEX
  8
0
 62
7
  6
CONTINUOUS
 10
188.3882203466
 20
140.6093394167
  0
VERTEX
  8
0
 62
7
  6
CONTINUOUS
 10
191.9494685591
 20
141.0417978399
  0
VERTEX
  8
0
 62
7
  6
CONTINUOUS
 10
195.4631802041
 20
141.8675003378
  0
VERTEX
  8
0
 62
7
  6
CONTINUOUS
 10
198.8523428205
 20
143.0699211513
  0
VERTEX
  8
0
 62
7
  6
CONTINUOUS
 10
202.0947357275
 20
144.6395792729
  0
VERTEX
  8
0
 62
7
  6
CONTINUOUS
 10
205.1659829143
 20
146.570386968
  0
VERTEX
  8
0
 62
7
  6
CONTINUOUS
 10
207.9877358797
 20
148.8100796152
  0
VERTEX
  8
0
 62
7
  6
CONTINUOUS
 10
210.5479403939
 20
151.3538142269
  0
SEQEND
  0
LINE
  8
0
 62
7
  6
CONTINUOUS
 10
170.5990843272
 20
222.0269819142
 11
170.5989216888
 21
222.0278003239
  0
POLYLINE
  8
0
 62
7
  6
CONTINUOUS
 66
1
 70
0
  0
VERTEX
  8
0
 62
7
  6
CONTINUOUS
 10
210.8172406895
 20
-22.0401093428
  0
VERTEX
  8
0
 62
7
  6
CONTINUOUS
 10
210.8592520678
 20
-22.4647751719
  0
VERTEX
  8
0
 62
7
  6
CONTINUOUS
 10
210.8998369737
 20
-22.813986108
  0
VERTEX
  8
0
 62
7
  6
CONTINUOUS
 10
210.9376434829
 20
-23.0718241695
  0
VERTEX
  8
0
 62
7
  6
CONTINUOUS
 10
210.9709168193
 20
-23.2219331691
  0
VERTEX
  8
0
 62
7
  6
CONTINUOUS
 10
210.9926022092
 20
-23.2572874754
  0
SEQEND
  0
POLYLINE
  8
0
 62
7
  6
CONTINUOUS
 66
1
 70
0
  0
VERTEX
  8
0
 62
7
  6
CONTINUOUS
 10
211.1719282335
 20
-22.426588823
  0
VERTEX
  8
0
 62
7
  6
CONTINUOUS
 10
211.1810097343
 20
-22.5350603461
  0
VERTEX
  8
0
 62
7
  6
CONTINUOUS
 10
211.190402168
 20
-22.6404706928
  0
VERTEX
  8
0
 62
7
  6
CONTINUOUS
 10
211.2000426707
 20
-22.7415257921
  0
VERTEX
  8
0
 62
7
  6
CONTINUOUS
 10
211.2098605258
 20
-22.8364738651
  0
VERTEX
  8
0
 62
7
  6
CONTINUOUS
 10
211.2197169008
 20
-22.9233005031
  0
VERTEX
  8
0
 62
7
  6
CONTINUOUS
 10
211.2297551537
 20
-23.0022859977
  0
VERTEX
  8
0
 62
7
  6
CONTINUOUS
 10
211.2399968878
 20
-23.0724340789
  0
VERTEX
  8
0
 62
7
  6
CONTINUOUS
 10
211.2505410326
 20
-23.1332627161
  0
VERTEX
  8
0
 62
7
  6
CONTINUOUS
 10
211.261521436
 20
-23.1835780761
  0
VERTEX
  8
0
 62
7
  6
CONTINUOUS
 10
211.2725463359
 20
-23.2193095293
  0
VERTEX
  8
0
 62
7
  6
CONTINUOUS
 10
211.2832214327
 20
-23.2375716105
  0
VERTEX
  8
0
 62
7
  6
CONTINUOUS
 10
211.2883419474
 20
-23.2396612732
  0
SEQEND
  0
LINE
  8
0
 62
7
  6
CONTINUOUS
 10
211.1549261167
 20
-22.2061017565
 11
211.1719282335
 21
-22.426588823
  0
LINE
  8
0
 62
7
  6
CONTINUOUS
 10
211.1406460555
 20
-22.0027009883
 11
211.1549261167
 21
-22.2061017565
  0
POLYLINE
  8
0
 62
7
  6
CONTINUOUS
 66
1
 70
0
  0
VERTEX
  8
0
 62
7
  6
CONTINUOUS
 10
210.653222028
 20
-19.8214733794
  0
VERTEX
  8
0
 62
7
  6
CONTINUOUS
 10
210.6927319959
 20
-20.4456134605
  0
VERTEX
  8
0
 62
7
  6
CONTINUOUS
 10
210.7341806599
 20
-21.0333737078
  0
VERTEX
  8
0
 62
7
  6
CONTINUOUS
 10
210.7756226423
 20
-21.5629909631
  0
VERTEX
  8
0
 62
7
  6
CONTINUOUS
 10
210.8172406895
 20
-22.0401093428
  0
SEQEND
  0
LINE
  8
0
 62
7
  6
CONTINUOUS
 10
211.1226097858
 20
-21.7220391124
 11
211.1406460555
 21
-22.0027009883
  0
POLYLINE
  8
0
 62
7
  6
CONTINUOUS
 66
1
 70
0
  0
VERTEX
  8
0
 62
7
  6
CONTINUOUS
 10
211.3937928755
 20
-16.0471018853
  0
VERTEX
  8
0
 62
7
  6
CONTINUOUS
 10
211.3335543842
 20
-15.0531186998
  0
VERTEX
  8
0
 62
7
  6
CONTINUOUS
 10
211.2763687135
 20
-14.0734093628
  0
VERTEX
  8
0
 62
7
  6
CONTINUOUS
 10
211.2230959066
 20
-13.1233057818
  0
VERTEX
  8
0
 62
7
  6
CONTINUOUS
 10
211.1740935442
 20
-12.2093012346
  0
VERTEX
  8
0
 62
7
  6
CONTINUOUS
 10
211.1297542344
 20
-11.3380340313
  0
VERTEX
  8
0
 62
7
  6
CONTINUOUS
 10
211.0909805336
 20
-10.526124734
  0
VERTEX
  8
0
 62
7
  6
CONTINUOUS
 10
211.0584635507
 20
-9.7871614398
  0
VERTEX
  8
0
 62
7
  6
CONTINUOUS
 10
211.0327034608
 20
-9.1320047329
  0
SEQEND
  0
LINE
  8
0
 62
7
  6
CONTINUOUS
 10
211.1072896209
 20
-21.4619250471
 11
211.1226097858
 21
-21.7220391124
  0
LINE
  8
0
 62
7
  6
CONTINUOUS
 10
211.0901775491
 20
-21.1442851099
 11
211.1072896209
 21
-21.4619250471
  0
LINE
  8
0
 62
7
  6
CONTINUOUS
 10
211.0686653733
 20
-20.703778168
 11
211.0901775491
 21
-21.1442851099
  0
LINE
  8
0
 62
7
  6
CONTINUOUS
 10
211.0463266513
 20
-20.2046209872
 11
211.0686653733
 21
-20.703778168
  0
LINE
  8
0
 62
7
  6
CONTINUOUS
 10
211.0353133377
 20
-19.92814163
 11
211.0463266513
 21
-20.2046209872
  0
POLYLINE
  8
0
 62
7
  6
CONTINUOUS
 66
1
 70
0
  0
VERTEX
  8
0
 62
7
  6
CONTINUOUS
 10
8.7660883308
 20
230.4753740743
  0
VERTEX
  8
0
 62
7
  6
CONTINUOUS
 10
8.7888213146
 20
230.4669425494
  0
VERTEX
  8
0
 62
7
  6
CONTINUOUS
 10
8.8962610201
 20
230.4536418247
  0
VERTEX
  8
0
 62
7
  6
CONTINUOUS
 10
9.0906579049
 20
230.4387412167
  0
VERTEX
  8
0
 62
7
  6
CONTINUOUS
 10
9.3736006216
 20
230.4223321323
  0
VERTEX
  8
0
 62
7
  6
CONTINUOUS
 10
9.7497610332
 20
230.4044855711
  0
VERTEX
  8
0
 62
7
  6
CONTINUOUS
 10
10.2081353323
 20
230.385991053
  0
VERTEX
  8
0
 62
7
  6
CONTINUOUS
 10
10.7253549395
 20
230.36784535
  0
VERTEX
  8
0
 62
7
  6
CONTINUOUS
 10
11.2990088114
 20
230.3501781272
  0
VERTEX
  8
0
 62
7
  6
CONTINUOUS
 10
11.9229226855
 20
230.3333546574
  0
VERTEX
  8
0
 62
7
  6
CONTINUOUS
 10
12.5514846304
 20
230.3186790101
  0
SEQEND
  0
POLYLINE
  8
0
 62
7
  6
CONTINUOUS
 66
1
 70
0
  0
VERTEX
  8
0
 62
7
  6
CONTINUOUS
 10
345.2551962097
 20
27.5032080299
  0
VERTEX
  8
0
 62
7
  6
CONTINUOUS
 10
345.7535905165
 20
27.0850288777
  0
VERTEX
  8
0
 62
7
  6
CONTINUOUS
 10
346.2269301832
 20
26.691649351
  0
VERTEX
  8
0
 62
7
  6
CONTINUOUS
 10
346.6590390935
 20
26.336101704
  0
VERTEX
  8
0
 62
7
  6
CONTINUOUS
 10
347.0436695394
 20
26.0233892064
  0
VERTEX
  8
0
 62
7
  6
CONTINUOUS
 10
347.3744982393
 20
25.7585423709
  0
VERTEX
  8
0
 62
7
  6
CONTINUOUS
 10
347.6414443265
 20
25.5495862433
  0
VERTEX
  8
0
 62
7
  6
CONTINUOUS
 10
347.8371089078
 20
25.4022954968
  0
VERTEX
  8
0
 62
7
  6
CONTINUOUS
 10
347.9561716004
 20
25.3206747571
  0
VERTEX
  8
0
 62
7
  6
CONTINUOUS
 10
347.9937224872
 20
25.3053025526
  0
SEQEND
  0
POLYLINE
  8
0
 62
7
  6
CONTINUOUS
 66
1
 70
0
  0
VERTEX
  8
0
 62
7
  6
CONTINUOUS
 10
170.5990791513
 20
222.0270033224
  0
VERTEX
  8
0
 62
7
  6
CONTINUOUS
 10
170.7154417093
 20
221.6433728448
  0
VERTEX
  8
0
 62
7
  6
CONTINUOUS
 10
170.890987348
 20
221.2439882422
  0
VERTEX
  8
0
 62
7
  6
CONTINUOUS
 10
171.1473602031
 20
220.8229219407
  0
VERTEX
  8
0
 62
7
  6
CONTINUOUS
 10
171.4542379337
 20
220.4484681325
  0
VERTEX
  8
0
 62
7
  6
CONTINUOUS
 10
171.7545197263
 20
220.1652664346
  0
VERTEX
  8
0
 62
7
  6
CONTINUOUS
 10
171.7984180046
 20
220.1291039615
  0
SEQEND
  0
POLYLINE
  8
0
 62
7
  6
CONTINUOUS
 66
1
 70
0
  0
VERTEX
  8
0
 62
7
  6
CONTINUOUS
 10
167.1625219699
 20
275.8474495793
  0
VERTEX
  8
0
 62
7
  6
CONTINUOUS
 10
167.5656320061
 20
273.6043063413
  0
VERTEX
  8
0
 62
7
  6
CONTINUOUS
 10
168.2330859007
 20
271.4235363608
  0
VERTEX
  8
0
 62
7
  6
CONTINUOUS
 10
169.1619720963
 20
269.3372457906
  0
SEQEND
  0
POLYLINE
  8
0
 62
7
  6
CONTINUOUS
 66
1
 70
0
  0
VERTEX
  8
0
 62
7
  6
CONTINUOUS
 10
204.9546275498
 20
278.6644690761
  0
VERTEX
  8
0
 62
7
  6
CONTINUOUS
 10
204.9882260365
 20
277.754475672
  0
VERTEX
  8
0
 62
7
  6
CONTINUOUS
 10
204.8795557158
 20
275.4690863332
  0
VERTEX
  8
0
 62
7
  6
CONTINUOUS
 10
204.4948390871
 20
273.2071780484
  0
VERTEX
  8
0
 62
7
  6
CONTINUOUS
 10
204.0069739746
 20
271.4862429912
  0
SEQEND
  0
POLYLINE
  8
0
 62
7
  6
CONTINUOUS
 66
1
 70
0
  0
VERTEX
  8
0
 62
7
  6
CONTINUOUS
 10
211.0323284922
 20
-16.0604019878
  0
VERTEX
  8
0
 62
7
  6
CONTINUOUS
 10
210.9964168489
 20
-15.0634308046
  0
VERTEX
  8
0
 62
7
  6
CONTINUOUS
 10
210.962798162
 20
-14.078464929
  0
VERTEX
  8
0
 62
7
  6
CONTINUOUS
 10
210.9324108242
 20
-13.1190752781
  0
VERTEX
  8
0
 62
7
  6
CONTINUOUS
 10
210.9055239983
 20
-12.1984466512
  0
VERTEX
  8
0
 62
7
  6
CONTINUOUS
 10
210.8824834719
 20
-11.3292428877
  0
VERTEX
  8
0
 62
7
  6
CONTINUOUS
 10
210.8636357983
 20
-10.52343268
  0
VERTEX
  8
0
 62
7
  6
CONTINUOUS
 10
210.8490956336
 20
-9.792119235
  0
VERTEX
  8
0
 62
7
  6
CONTINUOUS
 10
210.8394390602
 20
-9.1454040836
  0
SEQEND
  0
LINE
  8
0
 62
7
  6
CONTINUOUS
 10
204.9548981785
 20
277.9987565557
 11
204.928377134
 21
278.9336361383
  0
POLYLINE
  8
0
 62
7
  6
CONTINUOUS
 66
1
 70
0
  0
VERTEX
  8
0
 62
7
  6
CONTINUOUS
 10
211.0327646366
 20
-19.8031162621
  0
VERTEX
  8
0
 62
7
  6
CONTINUOUS
 10
211.0333137919
 20
-19.8493899885
  0
VERTEX
  8
0
 62
7
  6
CONTINUOUS
 10
211.0341685182
 20
-19.8919792287
  0
VERTEX
  8
0
 62
7
  6
CONTINUOUS
 10
211.0353133377
 20
-19.92814163
  0
SEQEND
  0
POLYLINE
  8
0
 62
7
  6
CONTINUOUS
 66
1
 70
0
  0
VERTEX
  8
0
 62
7
  6
CONTINUOUS
 10
211.0325176649
 20
205.8626039528
  0
VERTEX
  8
0
 62
7
  6
CONTINUOUS
 10
211.0137538111
 20
207.6476314258
  0
VERTEX
  8
0
 62
7
  6
CONTINUOUS
 10
210.9551835983
 20
209.3791018116
  0
VERTEX
  8
0
 62
7
  6
CONTINUOUS
 10
210.8584509074
 20
211.0018115377
  0
VERTEX
  8
0
 62
7
  6
CONTINUOUS
 10
210.7251708521
 20
212.4962024824
  0
VERTEX
  8
0
 62
7
  6
CONTINUOUS
 10
210.5575471647
 20
213.8383812678
  0
VERTEX
  8
0
 62
7
  6
CONTINUOUS
 10
210.3584659964
 20
215.0052289596
  0
VERTEX
  8
0
 62
7
  6
CONTINUOUS
 10
210.1313341668
 20
215.97672947
  0
VERTEX
  8
0
 62
7
  6
CONTINUOUS
 10
209.8798376126
 20
216.7366713973
  0
VERTEX
  8
0
 62
7
  6
CONTINUOUS
 10
209.6070456039
 20
217.2731850619
  0
VERTEX
  8
0
 62
7
  6
CONTINUOUS
 10
209.321625219
 20
217.5707312796
  0
SEQEND
  0
LINE
  8
0
 62
7
  6
CONTINUOUS
 10
211.0332491604
 20
-19.8030651503
 11
211.0321562857
 21
-16.0582221241
  0
LINE
  8
0
 62
7
  6
CONTINUOUS
 10
211.0324425334
 20
217.5220533564
 11
211.0324425357
 21
217.6506572221
  0
LINE
  8
0
 62
7
  6
CONTINUOUS
 10
211.032684177
 20
327.4181002462
 11
211.0327500586
 21
229.9758415247
  0
LINE
  8
0
 62
7
  6
CONTINUOUS
 10
211.0330113296
 20
151.9550703161
 11
211.032628931
 21
-9.1311459947
  0
LINE
  8
0
 62
7
  6
CONTINUOUS
 10
211.0329734937
 20
205.8638144047
 11
211.0330186188
 21
194.9800427302
  0
LINE
  8
0
 62
7
  6
CONTINUOUS
 10
211.0324425357
 20
217.6506572221
 11
211.0327510014
 21
222.0754169831
  0
LINE
  8
0
 62
7
  6
CONTINUOUS
 10
210.8265395322
 20
222.0810958815
 11
211.0330813073
 21
229.9758263824
  0
LINE
  8
0
 62
7
  6
CONTINUOUS
 10
211.0327554055
 20
222.075694852
 11
211.2413082061
 21
229.9718379986
  0
POLYLINE
  8
0
 62
7
  6
CONTINUOUS
 66
1
 70
0
  0
VERTEX
  8
0
 62
7
  6
CONTINUOUS
 10
210.5479403939
 20
151.3538142269
  0
VERTEX
  8
0
 62
7
  6
CONTINUOUS
 10
212.8292835148
 20
154.181589181
  0
VERTEX
  8
0
 62
7
  6
CONTINUOUS
 10
214.7779422364
 20
157.2225220254
  0
VERTEX
  8
0
 62
7
  6
CONTINUOUS
 10
216.3728070101
 20
160.4493627324
  0
VERTEX
  8
0
 62
7
  6
CONTINUOUS
 10
217.6149847993
 20
163.8644202544
  0
VERTEX
  8
0
 62
7
  6
CONTINUOUS
 10
218.4720805523
 20
167.3821730141
  0
VERTEX
  8
0
 62
7
  6
CONTINUOUS
 10
218.9375547601
 20
170.9792322173
  0
VERTEX
  8
0
 62
7
  6
CONTINUOUS
 10
219.0035595519
 20
174.6325426035
  0
VERTEX
  8
0
 62
7
  6
CONTINUOUS
 10
218.672519396
 20
178.2207747787
  0
VERTEX
  8
0
 62
7
  6
CONTINUOUS
 10
218.1684658252
 20
180.8569464929
  0
SEQEND
  0
POLYLINE
  8
0
 62
7
  6
CONTINUOUS
 66
1
 70
0
  0
VERTEX
  8
0
 62
7
  6
CONTINUOUS
 10
15.8087654192
 20
175.3186974347
  0
VERTEX
  8
0
 62
7
  6
CONTINUOUS
 10
16.8523316615
 20
175.3371650322
  0
VERTEX
  8
0
 62
7
  6
CONTINUOUS
 10
17.8830981119
 20
175.357585266
  0
VERTEX
  8
0
 62
7
  6
CONTINUOUS
 10
18.8707279973
 20
175.3793438322
  0
VERTEX
  8
0
 62
7
  6
CONTINUOUS
 10
19.8116564584
 20
175.4023366765
  0
VERTEX
  8
0
 62
7
  6
CONTINUOUS
 10
20.6982914492
 20
175.4264205969
  0
VERTEX
  8
0
 62
7
  6
CONTINUOUS
 10
21.5118151047
 20
175.4511462411
  0
VERTEX
  8
0
 62
7
  6
CONTINUOUS
 10
22.2392269644
 20
175.4761772839
  0
VERTEX
  8
0
 62
7
  6
CONTINUOUS
 10
22.8600658136
 20
175.500826595
  0
SEQEND
  0
LINE
  8
0
 62
7
  6
CONTINUOUS
 10
11.7672527366
 20
175.2984054962
 11
12.8973895444
 21
175.3186974457
  0
LINE
  8
0
 62
7
  6
CONTINUOUS
 10
12.8973890239
 20
175.3186974349
 11
15.808765431
 21
175.3186974349
  0
LINE
  8
0
 62
7
  6
CONTINUOUS
 10
356.2566412376
 20
175.3186974349
 11
359.1680176448
 21
175.3186974349
  0
POLYLINE
  8
0
 62
7
  6
CONTINUOUS
 66
1
 70
0
  0
VERTEX
  8
0
 62
7
  6
CONTINUOUS
 10
356.2567023018
 20
175.3186964175
  0
VERTEX
  8
0
 62
7
  6
CONTINUOUS
 10
355.2130983045
 20
175.3371645955
  0
VERTEX
  8
0
 62
7
  6
CONTINUOUS
 10
354.1823085567
 20
175.357585266
  0
VERTEX
  8
0
 62
7
  6
CONTINUOUS
 10
353.1946749261
 20
175.3793439191
  0
VERTEX
  8
0
 62
7
  6
CONTINUOUS
 10
352.2537502103
 20
175.4023366765
  0
VERTEX
  8
0
 62
7
  6
CONTINUOUS
 10
351.3671132025
 20
175.4264206548
  0
VERTEX
  8
0
 62
7
  6
CONTINUOUS
 10
350.553591564
 20
175.4511462411
  0
VERTEX
  8
0
 62
7
  6
CONTINUOUS
 10
349.826188924
 20
175.4761769441
  0
VERTEX
  8
0
 62
7
  6
CONTINUOUS
 10
349.2053609226
 20
175.5008257303
  0
SEQEND
  0
POLYLINE
  8
0
 62
7
  6
CONTINUOUS
 66
1
 70
0
  0
VERTEX
  8
0
 62
7
  6
CONTINUOUS
 10
359.1680163786
 20
175.3186974612
  0
VERTEX
  8
0
 62
7
  6
CONTINUOUS
 10
359.8003895814
 20
175.3065542807
  0
VERTEX
  8
0
 62
7
  6
CONTINUOUS
 10
360.4160511666
 20
175.296671309
  0
VERTEX
  8
0
 62
7
  6
CONTINUOUS
 10
360.9660755143
 20
175.2897030921
  0
VERTEX
  8
0
 62
7
  6
CONTINUOUS
 10
361.4596796583
 20
175.285358032
  0
VERTEX
  8
0
 62
7
  6
CONTINUOUS
 10
361.90254343
 20
175.2836770299
  0
VERTEX
  8
0
 62
7
  6
CONTINUOUS
 10
362.267758978
 20
175.2849924935
  0
VERTEX
  8
0
 62
7
  6
CONTINUOUS
 10
362.5370725356
 20
175.2894650249
  0
VERTEX
  8
0
 62
7
  6
CONTINUOUS
 10
362.6936356578
 20
175.2971192434
  0
VERTEX
  8
0
 62
7
  6
CONTINUOUS
 10
362.7293587515
 20
175.3047534177
  0
SEQEND
  0
POLYLINE
  8
0
 62
7
  6
CONTINUOUS
 66
1
 70
0
  0
VERTEX
  8
0
 62
7
  6
CONTINUOUS
 10
356.3555979109
 20
180.4832909915
  0
VERTEX
  8
0
 62
7
  6
CONTINUOUS
 10
355.3148594466
 20
180.512317643
  0
VERTEX
  8
0
 62
7
  6
CONTINUOUS
 10
354.2870142987
 20
180.5445990673
  0
VERTEX
  8
0
 62
7
  6
CONTINUOUS
 10
353.3021637866
 20
180.579167883
  0
VERTEX
  8
0
 62
7
  6
CONTINUOUS
 10
352.3638453705
 20
180.6158578002
  0
VERTEX
  8
0
 62
7
  6
CONTINUOUS
 10
351.4795927469
 20
180.6544440962
  0
VERTEX
  8
0
 62
7
  6
CONTINUOUS
 10
350.668079105
 20
180.6942139126
  0
VERTEX
  8
0
 62
7
  6
CONTINUOUS
 10
349.9422020817
 20
180.7346321742
  0
VERTEX
  8
0
 62
7
  6
CONTINUOUS
 10
349.32227447
 20
180.7745958302
  0
SEQEND
  0
POLYLINE
  8
0
 62
7
  6
CONTINUOUS
 66
1
 70
0
  0
VERTEX
  8
0
 62
7
  6
CONTINUOUS
 10
169.0236581676
 20
269.1227607117
  0
VERTEX
  8
0
 62
7
  6
CONTINUOUS
 10
168.2517074123
 20
270.9135831137
  0
VERTEX
  8
0
 62
7
  6
CONTINUOUS
 10
167.5832552628
 20
273.1149331242
  0
VERTEX
  8
0
 62
7
  6
CONTINUOUS
 10
167.1869096335
 20
275.3767663366
  0
VERTEX
  8
0
 62
7
  6
CONTINUOUS
 10
167.1015032109
 20
276.3571745706
  0
SEQEND
  0
LINE
  8
0
 62
7
  6
CONTINUOUS
 10
160.7189140888
 20
-23.2176688122
 11
160.7107381493
 21
-23.2357025062
  0
POLYLINE
  8
0
 62
7
  6
CONTINUOUS
 66
1
 70
0
  0
VERTEX
  8
0
 62
7
  6
CONTINUOUS
 10
22.7431322135
 20
180.7745958313
  0
VERTEX
  8
0
 62
7
  6
CONTINUOUS
 10
22.13457081
 20
180.7353120973
  0
VERTEX
  8
0
 62
7
  6
CONTINUOUS
 10
21.4225954727
 20
180.695533971
  0
VERTEX
  8
0
 62
7
  6
CONTINUOUS
 10
20.6287321307
 20
180.6564323581
  0
VERTEX
  8
0
 62
7
  6
CONTINUOUS
 10
19.757125321
 20
180.6181591402
  0
VERTEX
  8
0
 62
7
  6
CONTINUOUS
 10
18.8126286143
 20
180.5810026479
  0
VERTEX
  8
0
 62
7
  6
CONTINUOUS
 10
17.8120566395
 20
180.5457198505
  0
VERTEX
  8
0
 62
7
  6
CONTINUOUS
 10
16.7683341538
 20
180.5128451797
  0
VERTEX
  8
0
 62
7
  6
CONTINUOUS
 10
15.709808762
 20
180.4832909916
  0
SEQEND
  0
POLYLINE
  8
0
 62
7
  6
CONTINUOUS
 66
1
 70
0
  0
VERTEX
  8
0
 62
7
  6
CONTINUOUS
 10
202.6864734756
 20
199.1828335535
  0
VERTEX
  8
0
 62
7
  6
CONTINUOUS
 10
199.9909458511
 20
200.7048923629
  0
VERTEX
  8
0
 62
7
  6
CONTINUOUS
 10
197.1507316024
 20
201.9450319163
  0
VERTEX
  8
0
 62
7
  6
CONTINUOUS
 10
194.1910074785
 20
202.8911709156
  0
VERTEX
  8
0
 62
7
  6
CONTINUOUS
 10
191.1511464746
 20
203.5288733194
  0
VERTEX
  8
0
 62
7
  6
CONTINUOUS
 10
188.0761248482
 20
203.8506777999
  0
VERTEX
  8
0
 62
7
  6
CONTINUOUS
 10
184.9840960946
 20
203.8578131719
  0
VERTEX
  8
0
 62
7
  6
CONTINUOUS
 10
181.8931795955
 20
203.549342501
  0
VERTEX
  8
0
 62
7
  6
CONTINUOUS
 10
178.8470706095
 20
202.9256515638
  0
VERTEX
  8
0
 62
7
  6
CONTINUOUS
 10
175.8864280078
 20
201.9943221884
  0
VERTEX
  8
0
 62
7
  6
CONTINUOUS
 10
173.0369864663
 20
200.7660455927
  0
VERTEX
  8
0
 62
7
  6
CONTINUOUS
 10
170.3273555694
 20
199.2548488857
  0
VERTEX
  8
0
 62
7
  6
CONTINUOUS
 10
167.782071747
 20
197.4732108359
  0
VERTEX
  8
0
 62
7
  6
CONTINUOUS
 10
165.4220870069
 20
195.4329552291
  0
VERTEX
  8
0
 62
7
  6
CONTINUOUS
 10
163.2824260161
 20
193.1607668805
  0
VERTEX
  8
0
 62
7
  6
CONTINUOUS
 10
161.3946657569
 20
190.6908579662
  0
VERTEX
  8
0
 62
7
  6
CONTINUOUS
 10
159.7669785315
 20
188.0405268813
  0
VERTEX
  8
0
 62
7
  6
CONTINUOUS
 10
158.4088607449
 20
185.2260345587
  0
VERTEX
  8
0
 62
7
  6
CONTINUOUS
 10
157.3441995197
 20
182.2839198757
  0
VERTEX
  8
0
 62
7
  6
CONTINUOUS
 10
156.5897739702
 20
179.2537702762
  0
VERTEX
  8
0
 62
7
  6
CONTINUOUS
 10
156.1489325431
 20
176.1607102915
  0
VERTEX
  8
0
 62
7
  6
CONTINUOUS
 10
156.0254009839
 20
173.032476475
  0
VERTEX
  8
0
 62
7
  6
CONTINUOUS
 10
156.2233430447
 20
169.9019258957
  0
VERTEX
  8
0
 62
7
  6
CONTINUOUS
 10
156.7440589926
 20
166.8007075439
  0
VERTEX
  8
0
 62
7
  6
CONTINUOUS
 10
157.5822751464
 20
163.7637027877
  0
SEQEND
  0
POLYLINE
  8
0
 62
7
  6
CONTINUOUS
 66
1
 70
0
  0
VERTEX
  8
0
 62
7
  6
CONTINUOUS
 10
203.8066590011
 20
201.1003908618
  0
VERTEX
  8
0
 62
7
  6
CONTINUOUS
 10
204.7682501823
 20
200.4668174272
  0
VERTEX
  8
0
 62
7
  6
CONTINUOUS
 10
205.7070112565
 20
199.7997224735
  0
VERTEX
  8
0
 62
7
  6
CONTINUOUS
 10
206.6217809234
 20
199.0999257636
  0
VERTEX
  8
0
 62
7
  6
CONTINUOUS
 10
207.5114234736
 20
198.3682916302
  0
VERTEX
  8
0
 62
7
  6
CONTINUOUS
 10
208.3748344261
 20
197.6057241251
  0
VERTEX
  8
0
 62
7
  6
CONTINUOUS
 10
209.2109455219
 20
196.8131613576
  0
SEQEND
  0
POLYLINE
  8
0
 62
7
  6
CONTINUOUS
 66
1
 70
0
  0
VERTEX
  8
0
 62
7
  6
CONTINUOUS
 10
171.7984123046
 20
220.1291085725
  0
VERTEX
  8
0
 62
7
  6
CONTINUOUS
 10
172.1635445129
 20
219.8700624491
  0
VERTEX
  8
0
 62
7
  6
CONTINUOUS
 10
172.4898965515
 20
219.6917251191
  0
VERTEX
  8
0
 62
7
  6
CONTINUOUS
 10
172.7577931109
 20
219.5766805372
  0
VERTEX
  8
0
 62
7
  6
CONTINUOUS
 10
172.9705701846
 20
219.5032674043
  0
VERTEX
  8
0
 62
7
  6
CONTINUOUS
 10
173.1169537543
 20
219.4613582841
  0
VERTEX
  8
0
 62
7
  6
CONTINUOUS
 10
173.2485691885
 20
219.4293720239
  0
VERTEX
  8
0
 62
7
  6
CONTINUOUS
 10
173.4435568484
 20
219.3914791898
  0
VERTEX
  8
0
 62
7
  6
CONTINUOUS
 10
173.6326564424
 20
219.3649340645
  0
VERTEX
  8
0
 62
7
  6
CONTINUOUS
 10
173.7576804718
 20
219.3524072819
  0
VERTEX
  8
0
 62
7
  6
CONTINUOUS
 10
173.8571662899
 20
219.3448738725
  0
VERTEX
  8
0
 62
7
  6
CONTINUOUS
 10
173.9482159646
 20
219.3394929042
  0
VERTEX
  8
0
 62
7
  6
CONTINUOUS
 10
174.0353544603
 20
219.3353694177
  0
VERTEX
  8
0
 62
7
  6
CONTINUOUS
 10
174.1279306466
 20
219.3317938012
  0
VERTEX
  8
0
 62
7
  6
CONTINUOUS
 10
174.227786241
 20
219.3286093332
  0
VERTEX
  8
0
 62
7
  6
CONTINUOUS
 10
174.4645747623
 20
219.3228675811
  0
SEQEND
  0
POLYLINE
  8
0
 62
7
  6
CONTINUOUS
 66
1
 70
0
  0
VERTEX
  8
0
 62
7
  6
CONTINUOUS
 10
207.7016297542
 20
195.203997596
  0
VERTEX
  8
0
 62
7
  6
CONTINUOUS
 10
206.9258920285
 20
195.9395474607
  0
VERTEX
  8
0
 62
7
  6
CONTINUOUS
 10
206.1247765755
 20
196.6472065491
  0
VERTEX
  8
0
 62
7
  6
CONTINUOUS
 10
205.2992477585
 20
197.3261239878
  0
VERTEX
  8
0
 62
7
  6
CONTINUOUS
 10
204.4503276364
 20
197.975527003
  0
VERTEX
  8
0
 62
7
  6
CONTINUOUS
 10
203.5790581607
 20
198.5946795173
  0
VERTEX
  8
0
 62
7
  6
CONTINUOUS
 10
202.6864734756
 20
199.1828335535
  0
SEQEND
  0
POLYLINE
  8
0
 62
7
  6
CONTINUOUS
 66
1
 70
0
  0
VERTEX
  8
0
 62
7
  6
CONTINUOUS
 10
211.05121886
 20
194.9582050351
  0
VERTEX
  8
0
 62
7
  6
CONTINUOUS
 10
209.0068670531
 20
197.1282566971
  0
VERTEX
  8
0
 62
7
  6
CONTINUOUS
 10
206.7868296564
 20
199.0939261909
  0
VERTEX
  8
0
 62
7
  6
CONTINUOUS
 10
204.4165690618
 20
200.8395923021
  0
VERTEX
  8
0
 62
7
  6
CONTINUOUS
 10
201.9044690437
 20
202.3632999638
  0
VERTEX
  8
0
 62
7
  6
CONTINUOUS
 10
199.2546515974
 20
203.6611585939
  0
VERTEX
  8
0
 62
7
  6
CONTINUOUS
 10
196.4983539728
 20
204.7156574826
  0
VERTEX
  8
0
 62
7
  6
CONTINUOUS
 10
193.6641920911
 20
205.5162473997
  0
VERTEX
  8
0
 62
7
  6
CONTINUOUS
 10
190.773249959
 20
206.0583041394
  0
SEQEND
  0
POLYLINE
  8
0
 62
7
  6
CONTINUOUS
 66
1
 70
0
  0
VERTEX
  8
0
 62
7
  6
CONTINUOUS
 10
209.2109455219
 20
196.8131613576
  0
VERTEX
  8
0
 62
7
  6
CONTINUOUS
 10
211.3965713111
 20
194.4447329427
  0
VERTEX
  8
0
 62
7
  6
CONTINUOUS
 10
213.3359578518
 20
191.8771818571
  0
VERTEX
  8
0
 62
7
  6
CONTINUOUS
 10
215.0100460109
 20
189.1393746723
  0
VERTEX
  8
0
 62
7
  6
CONTINUOUS
 10
216.4093679273
 20
186.2490294264
  0
VERTEX
  8
0
 62
7
  6
CONTINUOUS
 10
217.5243697791
 20
183.2201073358
  0
SEQEND
  0
POLYLINE
  8
0
 62
7
  6
CONTINUOUS
 66
1
 70
0
  0
VERTEX
  8
0
 62
7
  6
CONTINUOUS
 10
211.05121886
 20
194.9582050351
  0
VERTEX
  8
0
 62
7
  6
CONTINUOUS
 10
213.0473926658
 20
192.3903506003
  0
VERTEX
  8
0
 62
7
  6
CONTINUOUS
 10
214.789306943
 20
189.6212557872
  0
VERTEX
  8
0
 62
7
  6
CONTINUOUS
 10
216.2554952523
 20
186.673125319
  0
VERTEX
  8
0
 62
7
  6
CONTINUOUS
 10
217.4230216256
 20
183.5793072673
  0
VERTEX
  8
0
 62
7
  6
CONTINUOUS
 10
218.1333891458
 20
181.0090925018
  0
SEQEND
  0
POLYLINE
  8
0
 62
7
  6
CONTINUOUS
 66
1
 70
0
  0
VERTEX
  8
0
 62
7
  6
CONTINUOUS
 10
169.1619720963
 20
269.3372457906
  0
VERTEX
  8
0
 62
7
  6
CONTINUOUS
 10
170.3328600308
 20
267.3752032381
  0
VERTEX
  8
0
 62
7
  6
CONTINUOUS
 10
171.7311177686
 20
265.5718767188
  0
VERTEX
  8
0
 62
7
  6
CONTINUOUS
 10
173.339437872
 20
263.9452741622
  0
VERTEX
  8
0
 62
7
  6
CONTINUOUS
 10
175.1480806314
 20
262.5165459963
  0
VERTEX
  8
0
 62
7
  6
CONTINUOUS
 10
177.1197109272
 20
261.3107327416
  0
VERTEX
  8
0
 62
7
  6
CONTINUOUS
 10
179.2260097248
 20
260.3575852555
  0
VERTEX
  8
0
 62
7
  6
CONTINUOUS
 10
181.4301890596
 20
259.6641229541
  0
VERTEX
  8
0
 62
7
  6
CONTINUOUS
 10
183.6802428333
 20
259.2493992522
  0
VERTEX
  8
0
 62
7
  6
CONTINUOUS
 10
185.993506412
 20
259.1070630116
  0
SEQEND
  0
POLYLINE
  8
0
 62
7
  6
CONTINUOUS
 66
1
 70
0
  0
VERTEX
  8
0
 62
7
  6
CONTINUOUS
 10
214.9503964071
 20
183.9593616514
  0
VERTEX
  8
0
 62
7
  6
CONTINUOUS
 10
214.1056924215
 20
186.0284095589
  0
VERTEX
  8
0
 62
7
  6
CONTINUOUS
 10
213.1084207608
 20
188.0354876924
  0
VERTEX
  8
0
 62
7
  6
CONTINUOUS
 10
211.9613988732
 20
189.9708001288
  0
VERTEX
  8
0
 62
7
  6
CONTINUOUS
 10
210.6721061687
 20
191.8190382412
  0
VERTEX
  8
0
 62
7
  6
CONTINUOUS
 10
209.2500699435
 20
193.56609711
  0
VERTEX
  8
0
 62
7
  6
CONTINUOUS
 10
207.7016297542
 20
195.203997596
  0
SEQEND
  0
LINE
  8
0
 62
7
  6
CONTINUOUS
 10
217.5243697791
 20
183.2201073358
 11
218.1685144913
 21
180.8583403214
  0
LINE
  8
0
 62
7
  6
CONTINUOUS
 10
218.1333907262
 20
181.0090857192
 11
218.1690343878
 21
180.8561093688
  0
POLYLINE
  8
0
 62
7
  6
CONTINUOUS
 66
1
 70
0
  0
VERTEX
  8
0
 62
7
  6
CONTINUOUS
 10
24.071682407
 20
25.3053045928
  0
VERTEX
  8
0
 62
7
  6
CONTINUOUS
 10
24.109246252
 20
25.3206901412
  0
VERTEX
  8
0
 62
7
  6
CONTINUOUS
 10
24.2283320541
 20
25.4023297123
  0
VERTEX
  8
0
 62
7
  6
CONTINUOUS
 10
24.4240293623
 20
25.5496473287
  0
VERTEX
  8
0
 62
7
  6
CONTINUOUS
 10
24.6910214209
 20
25.7586415073
  0
VERTEX
  8
0
 62
7
  6
CONTINUOUS
 10
25.0218966327
 20
26.0235276151
  0
VERTEX
  8
0
 62
7
  6
CONTINUOUS
 10
25.4065049323
 20
26.3362237843
  0
VERTEX
  8
0
 62
7
  6
CONTINUOUS
 10
25.8386564804
 20
26.6918079565
  0
VERTEX
  8
0
 62
7
  6
CONTINUOUS
 10
26.312274158
 20
27.0854211443
  0
VERTEX
  8
0
 62
7
  6
CONTINUOUS
 10
26.8111357743
 20
27.5039962322
  0
SEQEND
  0
POLYLINE
  8
0
 62
7
  6
CONTINUOUS
 66
1
 70
0
  0
VERTEX
  8
0
 62
7
  6
CONTINUOUS
 10
181.6411700009
 20
206.0593608254
  0
VERTEX
  8
0
 62
7
  6
CONTINUOUS
 10
178.6631867263
 20
205.4972138654
  0
VERTEX
  8
0
 62
7
  6
CONTINUOUS
 10
175.7577643867
 20
204.6642877973
  0
VERTEX
  8
0
 62
7
  6
CONTINUOUS
 10
172.9518010655
 20
203.5709838382
  0
VERTEX
  8
0
 62
7
  6
CONTINUOUS
 10
170.2598369847
 20
202.2252358047
  0
VERTEX
  8
0
 62
7
  6
CONTINUOUS
 10
167.6973656675
 20
200.6343203171
  0
VERTEX
  8
0
 62
7
  6
CONTINUOUS
 10
165.2875309916
 20
198.8109925731
  0
VERTEX
  8
0
 62
7
  6
CONTINUOUS
 10
163.0500374544
 20
196.7682821785
  0
VERTEX
  8
0
 62
7
  6
CONTINUOUS
 10
161.0059363592
 20
194.5224912494
  0
SEQEND
  0
POLYLINE
  8
0
 62
7
  6
CONTINUOUS
 66
1
 70
0
  0
VERTEX
  8
0
 62
7
  6
CONTINUOUS
 10
181.6411700009
 20
206.0593608254
  0
VERTEX
  8
0
 62
7
  6
CONTINUOUS
 10
182.3961604266
 20
206.156881139
  0
VERTEX
  8
0
 62
7
  6
CONTINUOUS
 10
183.1539334024
 20
206.2368381624
  0
VERTEX
  8
0
 62
7
  6
CONTINUOUS
 10
183.9140863276
 20
206.2991258703
  0
VERTEX
  8
0
 62
7
  6
CONTINUOUS
 10
184.6762055131
 20
206.3437013624
  0
VERTEX
  8
0
 62
7
  6
CONTINUOUS
 10
185.4398743063
 20
206.3705308129
  0
VERTEX
  8
0
 62
7
  6
CONTINUOUS
 10
186.2046811739
 20
206.379536054
  0
SEQEND
  0
POLYLINE
  8
0
 62
7
  6
CONTINUOUS
 66
1
 70
0
  0
VERTEX
  8
0
 62
7
  6
CONTINUOUS
 10
140.9152473302
 20
216.7213670526
  0
VERTEX
  8
0
 62
7
  6
CONTINUOUS
 10
145.8855202016
 20
217.0674037325
  0
VERTEX
  8
0
 62
7
  6
CONTINUOUS
 10
150.895405599
 20
217.3773261093
  0
VERTEX
  8
0
 62
7
  6
CONTINUOUS
 10
155.944667337
 20
217.6545375037
  0
VERTEX
  8
0
 62
7
  6
CONTINUOUS
 10
161.0331385992
 20
217.9014538046
  0
SEQEND
  0
POLYLINE
  8
0
 62
7
  6
CONTINUOUS
 66
1
 70
0
  0
VERTEX
  8
0
 62
7
  6
CONTINUOUS
 10
198.4036220116
 20
219.5611983922
  0
VERTEX
  8
0
 62
7
  6
CONTINUOUS
 10
198.4943072079
 20
219.5658411937
  0
VERTEX
  8
0
 62
7
  6
CONTINUOUS
 10
198.5783753001
 20
219.5706539202
  0
VERTEX
  8
0
 62
7
  6
CONTINUOUS
 10
198.6575888468
 20
219.5757900651
  0
VERTEX
  8
0
 62
7
  6
CONTINUOUS
 10
198.7377036371
 20
219.5817736835
  0
VERTEX
  8
0
 62
7
  6
CONTINUOUS
 10
198.8220578588
 20
219.5891866511
  0
VERTEX
  8
0
 62
7
  6
CONTINUOUS
 10
198.9199232347
 20
219.599570533
  0
VERTEX
  8
0
 62
7
  6
CONTINUOUS
 10
199.0495084182
 20
219.616819825
  0
VERTEX
  8
0
 62
7
  6
CONTINUOUS
 10
199.1889347597
 20
219.6403611605
  0
VERTEX
  8
0
 62
7
  6
CONTINUOUS
 10
199.3238579483
 20
219.6684199888
  0
VERTEX
  8
0
 62
7
  6
CONTINUOUS
 10
199.4527802536
 20
219.7003145369
  0
VERTEX
  8
0
 62
7
  6
CONTINUOUS
 10
199.5542094458
 20
219.7290308981
  0
VERTEX
  8
0
 62
7
  6
CONTINUOUS
 10
199.6697507368
 20
219.7657667736
  0
VERTEX
  8
0
 62
7
  6
CONTINUOUS
 10
199.8149793231
 20
219.8182611407
  0
VERTEX
  8
0
 62
7
  6
CONTINUOUS
 10
200.0369474678
 20
219.9129002075
  0
VERTEX
  8
0
 62
7
  6
CONTINUOUS
 10
200.3847954115
 20
220.1000555282
  0
VERTEX
  8
0
 62
7
  6
CONTINUOUS
 10
200.8115470038
 20
220.4079741397
  0
SEQEND
  0
POLYLINE
  8
0
 62
7
  6
CONTINUOUS
 66
1
 70
0
  0
VERTEX
  8
0
 62
7
  6
CONTINUOUS
 10
140.9145356184
 20
216.7192762093
  0
VERTEX
  8
0
 62
7
  6
CONTINUOUS
 10
144.2324070427
 20
216.88638347
  0
VERTEX
  8
0
 62
7
  6
CONTINUOUS
 10
147.5643921115
 20
217.0382653176
  0
VERTEX
  8
0
 62
7
  6
CONTINUOUS
 10
150.9102884395
 20
217.1762693107
  0
VERTEX
  8
0
 62
7
  6
CONTINUOUS
 10
154.2702853886
 20
217.3018288855
  0
VERTEX
  8
0
 62
7
  6
CONTINUOUS
 10
157.6445708059
 20
217.4163838606
  0
SEQEND
  0
LINE
  8
0
 62
7
  6
CONTINUOUS
 10
198.190903494
 20
219.5518144977
 11
198.4036220116
 21
219.5611983922
  0
POLYLINE
  8
0
 62
7
  6
CONTINUOUS
 66
1
 70
0
  0
VERTEX
  8
0
 62
7
  6
CONTINUOUS
 10
197.6399822407
 20
219.5336937914
  0
VERTEX
  8
0
 62
7
  6
CONTINUOUS
 10
198.1673506578
 20
219.5527909193
  0
VERTEX
  8
0
 62
7
  6
CONTINUOUS
 10
198.4822940249
 20
219.5701855986
  0
VERTEX
  8
0
 62
7
  6
CONTINUOUS
 10
198.5906746208
 20
219.5860663264
  0
SEQEND
  0
LINE
  8
0
 62
7
  6
CONTINUOUS
 10
197.9226582311
 20
219.5418481575
 11
198.190903494
 21
219.5518144977
  0
POLYLINE
  8
0
 62
7
  6
CONTINUOUS
 66
1
 70
0
  0
VERTEX
  8
0
 62
7
  6
CONTINUOUS
 10
153.152493487
 20
205.6965171325
  0
VERTEX
  8
0
 62
7
  6
CONTINUOUS
 10
147.0998913414
 20
205.5047567094
  0
VERTEX
  8
0
 62
7
  6
CONTINUOUS
 10
141.0958453761
 20
205.2623748746
  0
VERTEX
  8
0
 62
7
  6
CONTINUOUS
 10
135.1330515952
 20
204.9541693947
  0
VERTEX
  8
0
 62
7
  6
CONTINUOUS
 10
129.2125862526
 20
204.5763021962
  0
VERTEX
  8
0
 62
7
  6
CONTINUOUS
 10
123.3264735537
 20
204.1188538241
  0
VERTEX
  8
0
 62
7
  6
CONTINUOUS
 10
117.4587209124
 20
203.5738515235
  0
VERTEX
  8
0
 62
7
  6
CONTINUOUS
 10
111.6434229721
 20
202.9429029985
  0
VERTEX
  8
0
 62
7
  6
CONTINUOUS
 10
105.8872292562
 20
202.2168830981
  0
VERTEX
  8
0
 62
7
  6
CONTINUOUS
 10
100.2489106062
 20
201.4117202534
  0
VERTEX
  8
0
 62
7
  6
CONTINUOUS
 10
94.7913203112
 20
200.5309364785
  0
VERTEX
  8
0
 62
7
  6
CONTINUOUS
 10
89.4879211403
 20
199.5763735447
  0
VERTEX
  8
0
 62
7
  6
CONTINUOUS
 10
84.3203518685
 20
198.5436517592
  0
VERTEX
  8
0
 62
7
  6
CONTINUOUS
 10
79.3264059707
 20
197.4511167933
  0
VERTEX
  8
0
 62
7
  6
CONTINUOUS
 10
74.5548303309
 20
196.3078720292
  0
VERTEX
  8
0
 62
7
  6
CONTINUOUS
 10
69.9333639049
 20
195.1094937242
  0
VERTEX
  8
0
 62
7
  6
CONTINUOUS
 10
65.3852920746
 20
193.8452398459
  0
VERTEX
  8
0
 62
7
  6
CONTINUOUS
 10
60.985642888
 20
192.5603973696
  0
VERTEX
  8
0
 62
7
  6
CONTINUOUS
 10
56.8073212841
 20
191.288052893
  0
VERTEX
  8
0
 62
7
  6
CONTINUOUS
 10
52.7500123359
 20
190.0158807791
  0
VERTEX
  8
0
 62
7
  6
CONTINUOUS
 10
48.7215957567
 20
188.739679465
  0
VERTEX
  8
0
 62
7
  6
CONTINUOUS
 10
44.7881186314
 20
187.4913321714
  0
VERTEX
  8
0
 62
7
  6
CONTINUOUS
 10
41.0091378408
 20
186.3054904834
  0
VERTEX
  8
0
 62
7
  6
CONTINUOUS
 10
37.2972911597
 20
185.1502539841
  0
VERTEX
  8
0
 62
7
  6
CONTINUOUS
 10
33.578241655
 20
184.0142482823
  0
VERTEX
  8
0
 62
7
  6
CONTINUOUS
 10
29.8998351735
 20
182.9039322401
  0
VERTEX
  8
0
 62
7
  6
CONTINUOUS
 10
26.2880146587
 20
181.8269312497
  0
VERTEX
  8
0
 62
7
  6
CONTINUOUS
 10
22.7427640497
 20
180.7745927991
  0
SEQEND
  0
LINE
  8
0
 62
7
  6
CONTINUOUS
 10
197.3781654815
 20
219.5250455696
 11
197.9226582311
 21
219.5418481575
  0
LINE
  8
0
 62
7
  6
CONTINUOUS
 10
157.6445708059
 20
217.4163838606
 11
162.1731980448
 21
217.5550850646
  0
LINE
  8
0
 62
7
  6
CONTINUOUS
 10
162.1731980448
 20
217.5550850646
 11
162.7438711623
 21
217.5708673877
  0
LINE
  8
0
 62
7
  6
CONTINUOUS
 10
196.6040676601
 20
219.5053105443
 11
197.6399822407
 21
219.5336937914
  0
POLYLINE
  8
0
 62
7
  6
CONTINUOUS
 66
1
 70
0
  0
VERTEX
  8
0
 62
7
  6
CONTINUOUS
 10
162.7438711623
 20
217.5708673877
  0
VERTEX
  8
0
 62
7
  6
CONTINUOUS
 10
170.4779795903
 20
217.7463877236
  0
VERTEX
  8
0
 62
7
  6
CONTINUOUS
 10
178.2388664418
 20
217.8502502335
  0
VERTEX
  8
0
 62
7
  6
CONTINUOUS
 10
186.0319272514
 20
217.8847685754
  0
VERTEX
  8
0
 62
7
  6
CONTINUOUS
 10
193.8251608685
 20
217.8502404635
  0
VERTEX
  8
0
 62
7
  6
CONTINUOUS
 10
201.586565634
 20
217.7463868533
  0
VERTEX
  8
0
 62
7
  6
CONTINUOUS
 10
209.3215355009
 20
217.5708673881
  0
SEQEND
  0
LINE
  8
0
 62
7
  6
CONTINUOUS
 10
195.0745130868
 20
219.4733960963
 11
196.9177756096
 21
219.5134597063
  0
LINE
  8
0
 62
7
  6
CONTINUOUS
 10
160.1431738108
 20
205.8490002586
 11
153.152493487
 21
205.6965171325
  0
LINE
  8
0
 62
7
  6
CONTINUOUS
 10
192.024884486
 20
219.4234862354
 11
196.0081806066
 21
219.492452074
  0
LINE
  8
0
 62
7
  6
CONTINUOUS
 10
189.3794378109
 20
219.3887691687
 11
192.3834535342
 21
219.428911021
  0
LINE
  8
0
 62
7
  6
CONTINUOUS
 10
185.9945550679
 20
219.352729597
 11
189.4253916746
 21
219.3894763447
  0
LINE
  8
0
 62
7
  6
CONTINUOUS
 10
182.6477758663
 20
219.3256253409
 11
186.2654477924
 21
219.3554430583
  0
LINE
  8
0
 62
7
  6
CONTINUOUS
 10
180.0467861449
 20
219.311182287
 11
183.1061827725
 21
219.3289711439
  0
POLYLINE
  8
0
 62
7
  6
CONTINUOUS
 66
1
 70
0
  0
VERTEX
  8
0
 62
7
  6
CONTINUOUS
 10
181.6411700008
 20
206.0593608256
  0
VERTEX
  8
0
 62
7
  6
CONTINUOUS
 10
178.0667568399
 20
206.0439978389
  0
VERTEX
  8
0
 62
7
  6
CONTINUOUS
 10
174.5434988501
 20
206.021303516
  0
VERTEX
  8
0
 62
7
  6
CONTINUOUS
 10
171.0777506126
 20
205.9917949429
  0
VERTEX
  8
0
 62
7
  6
CONTINUOUS
 10
167.6697584522
 20
205.9554876136
  0
VERTEX
  8
0
 62
7
  6
CONTINUOUS
 10
164.3195738349
 20
205.9123238416
  0
VERTEX
  8
0
 62
7
  6
CONTINUOUS
 10
160.1431738108
 20
205.8490002586
  0
SEQEND
  0
LINE
  8
0
 62
7
  6
CONTINUOUS
 10
177.0972263855
 20
219.3050385928
 11
180.1591417227
 21
219.3118582029
  0
LINE
  8
0
 62
7
  6
CONTINUOUS
 10
175.9586238368
 20
219.3077638486
 11
177.637501285
 21
219.305309205
  0
LINE
  8
0
 62
7
  6
CONTINUOUS
 10
175.3934096173
 20
219.3111408679
 11
176.5817861695
 21
219.3061593298
  0
POLYLINE
  8
0
 62
7
  6
CONTINUOUS
 66
1
 70
0
  0
VERTEX
  8
0
 62
7
  6
CONTINUOUS
 10
186.2046811739
 20
206.379536054
  0
VERTEX
  8
0
 62
7
  6
CONTINUOUS
 10
186.9702506645
 20
206.3704427181
  0
VERTEX
  8
0
 62
7
  6
CONTINUOUS
 10
187.7347166557
 20
206.3434913268
  0
VERTEX
  8
0
 62
7
  6
CONTINUOUS
 10
188.4976671001
 20
206.2987575898
  0
VERTEX
  8
0
 62
7
  6
CONTINUOUS
 10
189.2586818447
 20
206.2362751764
  0
VERTEX
  8
0
 62
7
  6
CONTINUOUS
 10
190.0173438137
 20
206.1560888143
  0
VERTEX
  8
0
 62
7
  6
CONTINUOUS
 10
190.773249959
 20
206.0583041394
  0
SEQEND
  0
POLYLINE
  8
0
 62
7
  6
CONTINUOUS
 66
1
 70
0
  0
VERTEX
  8
0
 62
7
  6
CONTINUOUS
 10
207.8006179332
 20
205.911542321
  0
VERTEX
  8
0
 62
7
  6
CONTINUOUS
 10
204.5067874668
 20
205.9541561458
  0
VERTEX
  8
0
 62
7
  6
CONTINUOUS
 10
201.1564299377
 20
205.9901594966
  0
VERTEX
  8
0
 62
7
  6
CONTINUOUS
 10
197.7495990953
 20
206.0196077266
  0
VERTEX
  8
0
 62
7
  6
CONTINUOUS
 10
194.2865332572
 20
206.0424879864
  0
VERTEX
  8
0
 62
7
  6
CONTINUOUS
 10
190.773249959
 20
206.0583041396
  0
SEQEND
  0
LINE
  8
0
 62
7
  6
CONTINUOUS
 10
174.7677536273
 20
219.3177271316
 11
175.687299548
 21
219.3097342618
  0
LINE
  8
0
 62
7
  6
CONTINUOUS
 10
174.4645747623
 20
219.3228675811
 11
174.7677536273
 21
219.3177271316
  0
LINE
  8
0
 62
7
  6
CONTINUOUS
 10
212.5168156897
 20
205.8380651291
 11
207.8006179332
 21
205.911542321
  0
LINE
  8
0
 62
7
  6
CONTINUOUS
 10
209.3215355009
 20
217.5708673881
 11
210.7476346832
 21
217.5304874236
  0
POLYLINE
  8
0
 62
7
  6
CONTINUOUS
 66
1
 70
0
  0
VERTEX
  8
0
 62
7
  6
CONTINUOUS
 10
210.7476346832
 20
217.5304874236
  0
VERTEX
  8
0
 62
7
  6
CONTINUOUS
 10
214.4084738169
 20
217.4168219151
  0
VERTEX
  8
0
 62
7
  6
CONTINUOUS
 10
217.7755459899
 20
217.3025924997
  0
VERTEX
  8
0
 62
7
  6
CONTINUOUS
 10
221.1336188517
 20
217.1771606196
  0
VERTEX
  8
0
 62
7
  6
CONTINUOUS
 10
224.4824424706
 20
217.039086271
  0
VERTEX
  8
0
 62
7
  6
CONTINUOUS
 10
227.8217678744
 20
216.8869294561
  0
VERTEX
  8
0
 62
7
  6
CONTINUOUS
 10
231.1515306406
 20
216.7192270619
  0
SEQEND
  0
POLYLINE
  8
0
 62
7
  6
CONTINUOUS
 66
1
 70
0
  0
VERTEX
  8
0
 62
7
  6
CONTINUOUS
 10
186.2514060282
 20
206.1790011661
  0
VERTEX
  8
0
 62
7
  6
CONTINUOUS
 10
189.3364591357
 20
206.0386166597
  0
VERTEX
  8
0
 62
7
  6
CONTINUOUS
 10
192.396126207
 20
205.6073292111
  0
VERTEX
  8
0
 62
7
  6
CONTINUOUS
 10
195.4055982209
 20
204.8877560404
  0
VERTEX
  8
0
 62
7
  6
CONTINUOUS
 10
198.3304292818
 20
203.8879609087
  0
VERTEX
  8
0
 62
7
  6
CONTINUOUS
 10
201.1378933869
 20
202.621279703
  0
VERTEX
  8
0
 62
7
  6
CONTINUOUS
 10
203.8066590011
 20
201.1003908618
  0
SEQEND
  0
POLYLINE
  8
0
 62
7
  6
CONTINUOUS
 66
1
 70
0
  0
VERTEX
  8
0
 62
7
  6
CONTINUOUS
 10
231.1508189372
 20
216.7213183362
  0
VERTEX
  8
0
 62
7
  6
CONTINUOUS
 10
236.4793262686
 20
216.417813298
  0
VERTEX
  8
0
 62
7
  6
CONTINUOUS
 10
241.784158448
 20
216.0648517029
  0
VERTEX
  8
0
 62
7
  6
CONTINUOUS
 10
247.0702628544
 20
215.6531019066
  0
VERTEX
  8
0
 62
7
  6
CONTINUOUS
 10
252.320506976
 20
215.1772016404
  0
VERTEX
  8
0
 62
7
  6
CONTINUOUS
 10
257.535547783
 20
214.630333455
  0
VERTEX
  8
0
 62
7
  6
CONTINUOUS
 10
262.6672552196
 20
214.0125085782
  0
VERTEX
  8
0
 62
7
  6
CONTINUOUS
 10
267.6557280199
 20
213.3289953511
  0
VERTEX
  8
0
 62
7
  6
CONTINUOUS
 10
272.5381449048
 20
212.5741850605
  0
VERTEX
  8
0
 62
7
  6
CONTINUOUS
 10
277.3469754279
 20
211.7430163701
  0
VERTEX
  8
0
 62
7
  6
CONTINUOUS
 10
282.0369807896
 20
210.8437508815
  0
VERTEX
  8
0
 62
7
  6
CONTINUOUS
 10
286.5573443825
 20
209.8919330133
  0
VERTEX
  8
0
 62
7
  6
CONTINUOUS
 10
290.9583256568
 20
208.8851495987
  0
VERTEX
  8
0
 62
7
  6
CONTINUOUS
 10
295.297507986
 20
207.8178220036
  0
VERTEX
  8
0
 62
7
  6
CONTINUOUS
 10
299.5022968755
 20
206.7176125835
  0
VERTEX
  8
0
 62
7
  6
CONTINUOUS
 10
303.4899697406
 20
205.6215674408
  0
VERTEX
  8
0
 62
7
  6
CONTINUOUS
 10
307.3526319017
 20
204.5193355193
  0
VERTEX
  8
0
 62
7
  6
CONTINUOUS
 10
311.1680056159
 20
203.4008523117
  0
VERTEX
  8
0
 62
7
  6
CONTINUOUS
 10
314.8949255089
 20
202.2883296685
  0
VERTEX
  8
0
 62
7
  6
CONTINUOUS
 10
318.495419676
 20
201.2007990445
  0
VERTEX
  8
0
 62
7
  6
CONTINUOUS
 10
322.0294541573
 20
200.1259246136
  0
VERTEX
  8
0
 62
7
  6
CONTINUOUS
 10
325.5535038933
 20
199.049413132
  0
SEQEND
  0
POLYLINE
  8
0
 62
7
  6
CONTINUOUS
 66
1
 70
0
  0
VERTEX
  8
0
 62
7
  6
CONTINUOUS
 10
231.1515306406
 20
216.7192270619
  0
VERTEX
  8
0
 62
7
  6
CONTINUOUS
 10
226.1809960265
 20
217.0679562081
  0
VERTEX
  8
0
 62
7
  6
CONTINUOUS
 10
221.170738788
 20
217.3787469365
  0
VERTEX
  8
0
 62
7
  6
CONTINUOUS
 10
216.1210587888
 20
217.6552903383
  0
VERTEX
  8
0
 62
7
  6
CONTINUOUS
 10
211.0322714463
 20
217.9014740638
  0
SEQEND
  0
POLYLINE
  8
0
 62
7
  6
CONTINUOUS
 66
1
 70
0
  0
VERTEX
  8
0
 62
7
  6
CONTINUOUS
 10
174.0346727802
 20
219.3500413863
  0
VERTEX
  8
0
 62
7
  6
CONTINUOUS
 10
174.1437051463
 20
219.3362865285
  0
VERTEX
  8
0
 62
7
  6
CONTINUOUS
 10
174.4554870629
 20
219.3249837218
  0
VERTEX
  8
0
 62
7
  6
CONTINUOUS
 10
174.9758065896
 20
219.3160694539
  0
SEQEND
  0
POLYLINE
  8
0
 62
7
  6
CONTINUOUS
 66
1
 70
0
  0
VERTEX
  8
0
 62
7
  6
CONTINUOUS
 10
211.032251053
 20
217.5214096322
  0
VERTEX
  8
0
 62
7
  6
CONTINUOUS
 10
211.3320995501
 20
217.2230922391
  0
VERTEX
  8
0
 62
7
  6
CONTINUOUS
 10
211.6154234494
 20
216.6915391735
  0
VERTEX
  8
0
 62
7
  6
CONTINUOUS
 10
211.8724083297
 20
215.9542225715
  0
VERTEX
  8
0
 62
7
  6
CONTINUOUS
 10
212.1044938858
 20
215.0173005087
  0
VERTEX
  8
0
 62
7
  6
CONTINUOUS
 10
212.3112695417
 20
213.8776743161
  0
VERTEX
  8
0
 62
7
  6
CONTINUOUS
 10
212.4873794876
 20
212.5531000911
  0
VERTEX
  8
0
 62
7
  6
CONTINUOUS
 10
212.6289301349
 20
211.0612619303
  0
VERTEX
  8
0
 62
7
  6
CONTINUOUS
 10
212.7324193246
 20
209.4241279623
  0
VERTEX
  8
0
 62
7
  6
CONTINUOUS
 10
212.795029696
 20
207.6619020384
  0
VERTEX
  8
0
 62
7
  6
CONTINUOUS
 10
212.8141114168
 20
205.8315258089
  0
SEQEND
  0
POLYLINE
  8
0
 62
7
  6
CONTINUOUS
 66
1
 70
0
  0
VERTEX
  8
0
 62
7
  6
CONTINUOUS
 10
161.0326556672
 20
222.0754169831
  0
VERTEX
  8
0
 62
7
  6
CONTINUOUS
 10
144.9203834392
 20
221.4278226962
  0
VERTEX
  8
0
 62
7
  6
CONTINUOUS
 10
128.9159708716
 20
220.1992484043
  0
VERTEX
  8
0
 62
7
  6
CONTINUOUS
 10
113.0258675304
 20
218.1032459558
  0
VERTEX
  8
0
 62
7
  6
CONTINUOUS
 10
97.3003600226
 20
214.9947688098
  0
VERTEX
  8
0
 62
7
  6
CONTINUOUS
 10
81.7635298519
 20
211.0731974335
  0
VERTEX
  8
0
 62
7
  6
CONTINUOUS
 10
66.3951571788
 20
206.5395796287
  0
VERTEX
  8
0
 62
7
  6
CONTINUOUS
 10
51.1835817597
 20
201.4589623845
  0
VERTEX
  8
0
 62
7
  6
CONTINUOUS
 10
36.21909994
 20
195.8966642974
  0
SEQEND
  0
POLYLINE
  8
0
 62
7
  6
CONTINUOUS
 66
1
 70
0
  0
VERTEX
  8
0
 62
7
  6
CONTINUOUS
 10
361.6180297094
 20
230.3772960021
  0
VERTEX
  8
0
 62
7
  6
CONTINUOUS
 10
362.064854463
 20
230.3940257106
  0
VERTEX
  8
0
 62
7
  6
CONTINUOUS
 10
362.4599211885
 20
230.4109630219
  0
VERTEX
  8
0
 62
7
  6
CONTINUOUS
 10
362.7890884936
 20
230.4275675885
  0
VERTEX
  8
0
 62
7
  6
CONTINUOUS
 10
363.0460763202
 20
230.4436485153
  0
VERTEX
  8
0
 62
7
  6
CONTINUOUS
 10
363.2207398242
 20
230.4589474677
  0
VERTEX
  8
0
 62
7
  6
CONTINUOUS
 10
363.2967156974
 20
230.4726071642
  0
VERTEX
  8
0
 62
7
  6
CONTINUOUS
 10
363.2993183653
 20
230.475372792
  0
SEQEND
  0
POLYLINE
  8
0
 62
7
  6
CONTINUOUS
 66
1
 70
0
  0
VERTEX
  8
0
 62
7
  6
CONTINUOUS
 10
359.5139220778
 20
230.3186773859
  0
VERTEX
  8
0
 62
7
  6
CONTINUOUS
 10
360.0706539668
 20
230.3315626505
  0
VERTEX
  8
0
 62
7
  6
CONTINUOUS
 10
360.623977537
 20
230.3461295065
  0
VERTEX
  8
0
 62
7
  6
CONTINUOUS
 10
361.6180297094
 20
230.3772960021
  0
SEQEND
  0
LINE
  8
0
 62
7
  6
CONTINUOUS
 10
161.0326804498
 20
222.0756954828
 11
168.9007045271
 21
222.2500502096
  0
LINE
  8
0
 62
7
  6
CONTINUOUS
 10
161.0326106135
 20
229.975831052
 11
152.5876056478
 21
229.775873833
  0
POLYLINE
  8
0
 62
7
  6
CONTINUOUS
 66
1
 70
0
  0
VERTEX
  8
0
 62
7
  6
CONTINUOUS
 10
161.0326566125
 20
229.9758495921
  0
VERTEX
  8
0
 62
7
  6
CONTINUOUS
 10
169.3651527013
 20
230.1072249382
  0
VERTEX
  8
0
 62
7
  6
CONTINUOUS
 10
177.698163471
 20
230.1860520783
  0
VERTEX
  8
0
 62
7
  6
CONTINUOUS
 10
186.0318459964
 20
230.2123332109
  0
VERTEX
  8
0
 62
7
  6
CONTINUOUS
 10
194.3657190419
 20
230.1860614982
  0
VERTEX
  8
0
 62
7
  6
CONTINUOUS
 10
202.6993013713
 20
230.1072301779
  0
SEQEND
  0
LINE
  8
0
 62
7
  6
CONTINUOUS
 10
177.1235014456
 20
222.336911286
 11
178.7442514994
 21
222.3595806925
  0
POLYLINE
  8
0
 62
7
  6
CONTINUOUS
 66
1
 70
0
  0
VERTEX
  8
0
 62
7
  6
CONTINUOUS
 10
168.9007045271
 20
222.2500502096
  0
VERTEX
  8
0
 62
7
  6
CONTINUOUS
 10
177.7671690478
 20
222.3684674131
  0
VERTEX
  8
0
 62
7
  6
CONTINUOUS
 10
180.4229713175
 20
222.387843714
  0
SEQEND
  0
POLYLINE
  8
0
 62
7
  6
CONTINUOUS
 66
1
 70
0
  0
VERTEX
  8
0
 62
7
  6
CONTINUOUS
 10
178.7442514994
 20
222.3595806925
  0
VERTEX
  8
0
 62
7
  6
CONTINUOUS
 10
180.4760347463
 20
222.3773951972
  0
VERTEX
  8
0
 62
7
  6
CONTINUOUS
 10
182.2927742044
 20
222.3897588805
  0
VERTEX
  8
0
 62
7
  6
CONTINUOUS
 10
184.1670189473
 20
222.3970641322
  0
VERTEX
  8
0
 62
7
  6
CONTINUOUS
 10
186.0701458619
 20
222.3996275262
  0
VERTEX
  8
0
 62
7
  6
CONTINUOUS
 10
187.9751388836
 20
222.3972332128
  0
VERTEX
  8
0
 62
7
  6
CONTINUOUS
 10
189.8546639925
 20
222.3898471533
  0
SEQEND
  0
POLYLINE
  8
0
 62
7
  6
CONTINUOUS
 66
1
 70
0
  0
VERTEX
  8
0
 62
7
  6
CONTINUOUS
 10
180.4229713175
 20
222.387843714
  0
VERTEX
  8
0
 62
7
  6
CONTINUOUS
 10
186.032772216
 20
222.4043902791
  0
VERTEX
  8
0
 62
7
  6
CONTINUOUS
 10
191.6426089401
 20
222.3878426877
  0
SEQEND
  0
LINE
  8
0
 62
7
  6
CONTINUOUS
 10
359.5140276975
 20
230.3186441355
 11
12.5513789467
 21
230.3186441353
  0
POLYLINE
  8
0
 62
7
  6
CONTINUOUS
 66
1
 70
0
  0
VERTEX
  8
0
 62
7
  6
CONTINUOUS
 10
189.8546639925
 20
222.3898471533
  0
VERTEX
  8
0
 62
7
  6
CONTINUOUS
 10
191.6811706185
 20
222.3774152316
  0
VERTEX
  8
0
 62
7
  6
CONTINUOUS
 10
193.4288096928
 20
222.3599534238
  0
VERTEX
  8
0
 62
7
  6
CONTINUOUS
 10
195.0690977432
 20
222.3374314297
  0
VERTEX
  8
0
 62
7
  6
CONTINUOUS
 10
196.5752943761
 20
222.3097612233
  0
VERTEX
  8
0
 62
7
  6
CONTINUOUS
 10
197.9278008838
 20
222.2774506981
  0
VERTEX
  8
0
 62
7
  6
CONTINUOUS
 10
199.1080189051
 20
222.2408656886
  0
VERTEX
  8
0
 62
7
  6
CONTINUOUS
 10
200.0970689353
 20
222.2005453952
  0
VERTEX
  8
0
 62
7
  6
CONTINUOUS
 10
200.8796866668
 20
222.1567613945
  0
VERTEX
  8
0
 62
7
  6
CONTINUOUS
 10
201.4443561485
 20
222.1109444702
  0
VERTEX
  8
0
 62
7
  6
CONTINUOUS
 10
201.7829405469
 20
222.0647824855
  0
VERTEX
  8
0
 62
7
  6
CONTINUOUS
 10
201.890158001
 20
222.0179567273
  0
SEQEND
  0
POLYLINE
  8
0
 62
7
  6
CONTINUOUS
 66
1
 70
0
  0
VERTEX
  8
0
 62
7
  6
CONTINUOUS
 10
191.6426089401
 20
222.3878426877
  0
VERTEX
  8
0
 62
7
  6
CONTINUOUS
 10
194.2984007167
 20
222.3684659924
  0
VERTEX
  8
0
 62
7
  6
CONTINUOUS
 10
203.1644816964
 20
222.2500541781
  0
SEQEND
  0
LINE
  8
0
 62
7
  6
CONTINUOUS
 10
211.2413082061
 20
229.9718379986
 11
202.6993013713
 21
230.1072301779
  0
POLYLINE
  8
0
 62
7
  6
CONTINUOUS
 66
1
 70
0
  0
VERTEX
  8
0
 62
7
  6
CONTINUOUS
 10
211.2412873858
 20
229.9714583528
  0
VERTEX
  8
0
 62
7
  6
CONTINUOUS
 10
219.4667503735
 20
229.7759696062
  0
VERTEX
  8
0
 62
7
  6
CONTINUOUS
 10
227.6795378373
 20
229.4279738992
  0
VERTEX
  8
0
 62
7
  6
CONTINUOUS
 10
235.8834232578
 20
228.9452087286
  0
VERTEX
  8
0
 62
7
  6
CONTINUOUS
 10
244.0668319684
 20
228.2741968047
  0
VERTEX
  8
0
 62
7
  6
CONTINUOUS
 10
252.2208397877
 20
227.3709127067
  0
VERTEX
  8
0
 62
7
  6
CONTINUOUS
 10
260.3411613363
 20
226.2247279922
  0
VERTEX
  8
0
 62
7
  6
CONTINUOUS
 10
268.425943684
 20
224.7945381066
  0
VERTEX
  8
0
 62
7
  6
CONTINUOUS
 10
276.4587293138
 20
223.1276802428
  0
VERTEX
  8
0
 62
7
  6
CONTINUOUS
 10
284.416788025
 20
221.2511190511
  0
VERTEX
  8
0
 62
7
  6
CONTINUOUS
 10
292.3155949795
 20
219.184977913
  0
VERTEX
  8
0
 62
7
  6
CONTINUOUS
 10
300.1652043074
 20
216.9571966685
  0
VERTEX
  8
0
 62
7
  6
CONTINUOUS
 10
307.9588556136
 20
214.5714721525
  0
VERTEX
  8
0
 62
7
  6
CONTINUOUS
 10
315.6892568095
 20
212.0422393238
  0
VERTEX
  8
0
 62
7
  6
CONTINUOUS
 10
323.37255961
 20
209.3652668746
  0
VERTEX
  8
0
 62
7
  6
CONTINUOUS
 10
331.0241589717
 20
206.5412264685
  0
VERTEX
  8
0
 62
7
  6
CONTINUOUS
 10
338.6402697239
 20
203.5700482627
  0
SEQEND
  0
LINE
  8
0
 62
7
  6
CONTINUOUS
 10
203.1644816964
 20
222.2500541781
 11
211.0327554055
 21
222.075694852
  0
POLYLINE
  8
0
 62
7
  6
CONTINUOUS
 66
1
 70
0
  0
VERTEX
  8
0
 62
7
  6
CONTINUOUS
 10
198.5906746208
 20
219.5860663264
  0
VERTEX
  8
0
 62
7
  6
CONTINUOUS
 10
198.4816422547
 20
219.5998211842
  0
VERTEX
  8
0
 62
7
  6
CONTINUOUS
 10
198.1698603381
 20
219.6111239909
  0
VERTEX
  8
0
 62
7
  6
CONTINUOUS
 10
197.6495408114
 20
219.6200382589
  0
VERTEX
  8
0
 62
7
  6
CONTINUOUS
 10
196.938047853
 20
219.6263734509
  0
VERTEX
  8
0
 62
7
  6
CONTINUOUS
 10
196.0435612315
 20
219.6299483829
  0
VERTEX
  8
0
 62
7
  6
CONTINUOUS
 10
194.987846116
 20
219.6307985077
  0
VERTEX
  8
0
 62
7
  6
CONTINUOUS
 10
193.7893283542
 20
219.6288701337
  0
VERTEX
  8
0
 62
7
  6
CONTINUOUS
 10
192.4662056783
 20
219.6242495099
  0
VERTEX
  8
0
 62
7
  6
CONTINUOUS
 10
191.0325366898
 20
219.6169382217
  0
VERTEX
  8
0
 62
7
  6
CONTINUOUS
 10
189.5191646285
 20
219.6071365689
  0
VERTEX
  8
0
 62
7
  6
CONTINUOUS
 10
187.9528385456
 20
219.5949581333
  0
VERTEX
  8
0
 62
7
  6
CONTINUOUS
 10
186.3598996086
 20
219.5806646545
  0
VERTEX
  8
0
 62
7
  6
CONTINUOUS
 10
184.76735247
 20
219.5644581839
  0
VERTEX
  8
0
 62
7
  6
CONTINUOUS
 10
183.1999557264
 20
219.5466313681
  0
VERTEX
  8
0
 62
7
  6
CONTINUOUS
 10
181.682946579
 20
219.5274230508
  0
VERTEX
  8
0
 62
7
  6
CONTINUOUS
 10
180.2418938668
 20
219.5071966917
  0
VERTEX
  8
0
 62
7
  6
CONTINUOUS
 10
178.904745655
 20
219.4862914061
  0
VERTEX
  8
0
 62
7
  6
CONTINUOUS
 10
177.6896014663
 20
219.4650190719
  0
VERTEX
  8
0
 62
7
  6
CONTINUOUS
 10
176.6171667943
 20
219.4436556387
  0
VERTEX
  8
0
 62
7
  6
CONTINUOUS
 10
175.7075717914
 20
219.4226480064
  0
VERTEX
  8
0
 62
7
  6
CONTINUOUS
 10
174.9853651603
 20
219.4024139213
  0
VERTEX
  8
0
 62
7
  6
CONTINUOUS
 10
174.4579967432
 20
219.3833167935
  0
VERTEX
  8
0
 62
7
  6
CONTINUOUS
 10
174.1430533761
 20
219.3659221142
  0
VERTEX
  8
0
 62
7
  6
CONTINUOUS
 10
174.0346727802
 20
219.3500413863
  0
SEQEND
  0
POLYLINE
  8
0
 62
7
  6
CONTINUOUS
 66
1
 70
0
  0
VERTEX
  8
0
 62
7
  6
CONTINUOUS
 10
349.322642619
 20
180.7745927991
  0
VERTEX
  8
0
 62
7
  6
CONTINUOUS
 10
345.7866998042
 20
181.824397568
  0
VERTEX
  8
0
 62
7
  6
CONTINUOUS
 10
342.1851896464
 20
182.8983060998
  0
VERTEX
  8
0
 62
7
  6
CONTINUOUS
 10
338.5177937937
 20
184.0049247202
  0
VERTEX
  8
0
 62
7
  6
CONTINUOUS
 10
334.8114677989
 20
185.1366712737
  0
VERTEX
  8
0
 62
7
  6
CONTINUOUS
 10
331.1152880043
 20
186.286851141
  0
VERTEX
  8
0
 62
7
  6
CONTINUOUS
 10
327.3542680877
 20
187.4671486103
  0
VERTEX
  8
0
 62
7
  6
CONTINUOUS
 10
323.4403689553
 20
188.7098850832
  0
VERTEX
  8
0
 62
7
  6
CONTINUOUS
 10
319.4345551854
 20
189.979733241
  0
VERTEX
  8
0
 62
7
  6
CONTINUOUS
 10
315.4114776221
 20
191.2420781053
  0
VERTEX
  8
0
 62
7
  6
CONTINUOUS
 10
311.2569640964
 20
192.5074404865
  0
VERTEX
  8
0
 62
7
  6
CONTINUOUS
 10
306.8435627517
 20
193.7990447805
  0
VERTEX
  8
0
 62
7
  6
CONTINUOUS
 10
302.2612724889
 20
195.0760964363
  0
VERTEX
  8
0
 62
7
  6
CONTINUOUS
 10
297.5881877136
 20
196.2883849015
  0
VERTEX
  8
0
 62
7
  6
CONTINUOUS
 10
292.7655993894
 20
197.4452210159
  0
VERTEX
  8
0
 62
7
  6
CONTINUOUS
 10
287.7438169903
 20
198.5436147779
  0
VERTEX
  8
0
 62
7
  6
CONTINUOUS
 10
282.568401027
 20
199.5778473488
  0
VERTEX
  8
0
 62
7
  6
CONTINUOUS
 10
277.2875530168
 20
200.529353348
  0
VERTEX
  8
0
 62
7
  6
CONTINUOUS
 10
271.8657770559
 20
201.4044674419
  0
VERTEX
  8
0
 62
7
  6
CONTINUOUS
 10
266.2673664385
 20
202.2057105365
  0
VERTEX
  8
0
 62
7
  6
CONTINUOUS
 10
260.5363628471
 20
202.9291225581
  0
VERTEX
  8
0
 62
7
  6
CONTINUOUS
 10
254.6941719464
 20
203.5637769093
  0
VERTEX
  8
0
 62
7
  6
CONTINUOUS
 10
248.7875885634
 20
204.1149744236
  0
VERTEX
  8
0
 62
7
  6
CONTINUOUS
 10
242.8881431077
 20
204.5744376306
  0
VERTEX
  8
0
 62
7
  6
CONTINUOUS
 10
236.9589945315
 20
204.9529210289
  0
VERTEX
  8
0
 62
7
  6
CONTINUOUS
 10
230.9792674149
 20
205.2619933306
  0
VERTEX
  8
0
 62
7
  6
CONTINUOUS
 10
224.9614050941
 20
205.5050623502
  0
VERTEX
  8
0
 62
7
  6
CONTINUOUS
 10
218.9063678871
 20
205.6970677739
  0
VERTEX
  8
0
 62
7
  6
CONTINUOUS
 10
212.5168156897
 20
205.8380651291
  0
SEQEND
  0
POLYLINE
  8
0
 62
7
  6
CONTINUOUS
 66
1
 70
0
  0
VERTEX
  8
0
 62
7
  6
CONTINUOUS
 10
325.5535038933
 20
199.049413132
  0
VERTEX
  8
0
 62
7
  6
CONTINUOUS
 10
332.4692000315
 20
196.9297982126
  0
VERTEX
  8
0
 62
7
  6
CONTINUOUS
 10
335.8463067286
 20
195.8966642974
  0
SEQEND
  0
POLYLINE
  8
0
 62
7
  6
CONTINUOUS
 66
1
 70
0
  0
VERTEX
  8
0
 62
7
  6
CONTINUOUS
 10
335.8463067286
 20
195.8966642974
  0
VERTEX
  8
0
 62
7
  6
CONTINUOUS
 10
320.8625408516
 20
201.4657767607
  0
VERTEX
  8
0
 62
7
  6
CONTINUOUS
 10
305.6446333541
 20
206.547638575
  0
VERTEX
  8
0
 62
7
  6
CONTINUOUS
 10
290.2918502821
 20
211.0759416045
  0
VERTEX
  8
0
 62
7
  6
CONTINUOUS
 10
274.7661099689
 20
214.9945259274
  0
VERTEX
  8
0
 62
7
  6
CONTINUOUS
 10
259.0070779304
 20
218.1085877899
  0
VERTEX
  8
0
 62
7
  6
CONTINUOUS
 10
243.0875147414
 20
220.2055083663
  0
VERTEX
  8
0
 62
7
  6
CONTINUOUS
 10
227.0983024554
 20
221.4304254647
  0
VERTEX
  8
0
 62
7
  6
CONTINUOUS
 10
211.0327510014
 20
222.0754169831
  0
SEQEND
  0
POLYLINE
  8
0
 62
7
  6
CONTINUOUS
 66
1
 70
0
  0
VERTEX
  8
0
 62
7
  6
CONTINUOUS
 10
185.993506412
 20
259.1070630116
  0
VERTEX
  8
0
 62
7
  6
CONTINUOUS
 10
188.3005106088
 20
259.2495828535
  0
VERTEX
  8
0
 62
7
  6
CONTINUOUS
 10
190.5402540939
 20
259.6600078173
  0
VERTEX
  8
0
 62
7
  6
CONTINUOUS
 10
192.7284614454
 20
260.3446264077
  0
VERTEX
  8
0
 62
7
  6
CONTINUOUS
 10
194.8179589291
 20
261.2845731107
  0
VERTEX
  8
0
 62
7
  6
CONTINUOUS
 10
196.7758598325
 20
262.4720130417
  0
VERTEX
  8
0
 62
7
  6
CONTINUOUS
 10
198.5750276691
 20
263.880142817
  0
VERTEX
  8
0
 62
7
  6
CONTINUOUS
 10
200.1808809069
 20
265.4854792033
  0
VERTEX
  8
0
 62
7
  6
CONTINUOUS
 10
201.5828679705
 20
267.2702268652
  0
VERTEX
  8
0
 62
7
  6
CONTINUOUS
 10
202.7650197229
 20
269.2210387401
  0
VERTEX
  8
0
 62
7
  6
CONTINUOUS
 10
203.709007318
 20
271.3010867762
  0
SEQEND
  0
POLYLINE
  8
0
 62
7
  6
CONTINUOUS
 66
1
 70
0
  0
VERTEX
  8
0
 62
7
  6
CONTINUOUS
 10
186.0159552694
 20
254.9227679114
  0
VERTEX
  8
0
 62
7
  6
CONTINUOUS
 10
188.5709810371
 20
255.0661166295
  0
VERTEX
  8
0
 62
7
  6
CONTINUOUS
 10
191.0799642715
 20
255.4970715286
  0
VERTEX
  8
0
 62
7
  6
CONTINUOUS
 10
193.5070689052
 20
256.2028171247
  0
VERTEX
  8
0
 62
7
  6
CONTINUOUS
 10
195.8211002017
 20
257.1646984522
  0
VERTEX
  8
0
 62
7
  6
CONTINUOUS
 10
198.0093612798
 20
258.3756744642
  0
VERTEX
  8
0
 62
7
  6
CONTINUOUS
 10
200.0548223304
 20
259.8284361676
  0
VERTEX
  8
0
 62
7
  6
CONTINUOUS
 10
201.917071322
 20
261.4895167614
  0
VERTEX
  8
0
 62
7
  6
CONTINUOUS
 10
203.5755606445
 20
263.3367412928
  0
VERTEX
  8
0
 62
7
  6
CONTINUOUS
 10
205.0349712474
 20
265.3806364902
  0
VERTEX
  8
0
 62
7
  6
CONTINUOUS
 10
206.2687412808
 20
267.5926441576
  0
VERTEX
  8
0
 62
7
  6
CONTINUOUS
 10
207.2437148813
 20
269.9263977346
  0
VERTEX
  8
0
 62
7
  6
CONTINUOUS
 10
207.9555988651
 20
272.3798427244
  0
VERTEX
  8
0
 62
7
  6
CONTINUOUS
 10
208.3859575931
 20
274.8909055686
  0
VERTEX
  8
0
 62
7
  6
CONTINUOUS
 10
208.5267499207
 20
277.4198769582
  0
VERTEX
  8
0
 62
7
  6
CONTINUOUS
 10
208.3812889285
 20
279.9511206441
  0
VERTEX
  8
0
 62
7
  6
CONTINUOUS
 10
207.9575351127
 20
282.4418137497
  0
VERTEX
  8
0
 62
7
  6
CONTINUOUS
 10
207.2613475682
 20
284.8550781274
  0
VERTEX
  8
0
 62
7
  6
CONTINUOUS
 10
206.2958909849
 20
287.1790223367
  0
VERTEX
  8
0
 62
7
  6
CONTINUOUS
 10
205.0761320951
 20
289.3837785603
  0
VERTEX
  8
0
 62
7
  6
CONTINUOUS
 10
203.6252345887
 20
291.4301042698
  0
VERTEX
  8
0
 62
7
  6
CONTINUOUS
 10
201.9542295534
 20
293.3016080087
  0
VERTEX
  8
0
 62
7
  6
CONTINUOUS
 10
200.0724719572
 20
294.9873773917
  0
VERTEX
  8
0
 62
7
  6
CONTINUOUS
 10
198.0103522557
 20
296.4531418206
  0
VERTEX
  8
0
 62
7
  6
CONTINUOUS
 10
195.7781792092
 20
297.6865774875
  0
VERTEX
  8
0
 62
7
  6
CONTINUOUS
 10
193.4235616759
 20
298.6596068712
  0
VERTEX
  8
0
 62
7
  6
CONTINUOUS
 10
191.0044158564
 20
299.3517568197
  0
VERTEX
  8
0
 62
7
  6
CONTINUOUS
 10
188.534398442
 20
299.7680235313
  0
VERTEX
  8
0
 62
7
  6
CONTINUOUS
 10
186.040187467
 20
299.90898318
  0
SEQEND
  0
POLYLINE
  8
0
 62
7
  6
CONTINUOUS
 66
1
 70
0
  0
VERTEX
  8
0
 62
7
  6
CONTINUOUS
 10
186.0283365219
 20
258.553248068
  0
VERTEX
  8
0
 62
7
  6
CONTINUOUS
 10
183.7295983183
 20
258.6930968006
  0
VERTEX
  8
0
 62
7
  6
CONTINUOUS
 10
181.4618435128
 20
259.1112500357
  0
VERTEX
  8
0
 62
7
  6
CONTINUOUS
 10
179.2578555546
 20
259.8029681802
  0
VERTEX
  8
0
 62
7
  6
CONTINUOUS
 10
177.1534912704
 20
260.757947262
  0
VERTEX
  8
0
 62
7
  6
CONTINUOUS
 10
175.1809837797
 20
261.9617460244
  0
VERTEX
  8
0
 62
7
  6
CONTINUOUS
 10
173.373446025
 20
263.3930425448
  0
VERTEX
  8
0
 62
7
  6
CONTINUOUS
 10
171.7630504924
 20
265.0216474866
  0
VERTEX
  8
0
 62
7
  6
CONTINUOUS
 10
170.3616734978
 20
266.8312514017
  0
VERTEX
  8
0
 62
7
  6
CONTINUOUS
 10
169.1830406444
 20
268.8072581858
  0
VERTEX
  8
0
 62
7
  6
CONTINUOUS
 10
169.0236581676
 20
269.1227607117
  0
SEQEND
  0
POLYLINE
  8
0
 62
7
  6
CONTINUOUS
 66
1
 70
0
  0
VERTEX
  8
0
 62
7
  6
CONTINUOUS
 10
338.6402697239
 20
203.5700482627
  0
VERTEX
  8
0
 62
7
  6
CONTINUOUS
 10
341.4873486849
 20
202.2659188557
  0
VERTEX
  8
0
 62
7
  6
CONTINUOUS
 10
344.1042587671
 20
200.7799172953
  0
VERTEX
  8
0
 62
7
  6
CONTINUOUS
 10
346.497000112
 20
199.0977600534
  0
VERTEX
  8
0
 62
7
  6
CONTINUOUS
 10
348.6480931799
 20
197.2623675927
  0
VERTEX
  8
0
 62
7
  6
CONTINUOUS
 10
350.5442789333
 20
195.3034073238
  0
VERTEX
  8
0
 62
7
  6
CONTINUOUS
 10
352.1787170349
 20
193.2463042478
  0
VERTEX
  8
0
 62
7
  6
CONTINUOUS
 10
353.5391999815
 20
191.1132790557
  0
VERTEX
  8
0
 62
7
  6
CONTINUOUS
 10
354.628368859
 20
188.9435144845
  0
VERTEX
  8
0
 62
7
  6
CONTINUOUS
 10
355.4384691898
 20
186.7789812832
  0
VERTEX
  8
0
 62
7
  6
CONTINUOUS
 10
355.9882830268
 20
184.6335097972
  0
VERTEX
  8
0
 62
7
  6
CONTINUOUS
 10
356.2960306209
 20
182.5384295781
  0
VERTEX
  8
0
 62
7
  6
CONTINUOUS
 10
356.3555978942
 20
180.483290991
  0
SEQEND
  0
POLYLINE
  8
0
 62
7
  6
CONTINUOUS
 66
1
 70
0
  0
VERTEX
  8
0
 62
7
  6
CONTINUOUS
 10
335.8464059437
 20
195.8966790468
  0
VERTEX
  8
0
 62
7
  6
CONTINUOUS
 10
335.8774529558
 20
196.0586457456
  0
VERTEX
  8
0
 62
7
  6
CONTINUOUS
 10
335.9749423001
 20
196.3878766118
  0
VERTEX
  8
0
 62
7
  6
CONTINUOUS
 10
336.1317129368
 20
196.8624544106
  0
VERTEX
  8
0
 62
7
  6
CONTINUOUS
 10
336.3453621185
 20
197.4766236471
  0
VERTEX
  8
0
 62
7
  6
CONTINUOUS
 10
336.6169483252
 20
198.2329570226
  0
VERTEX
  8
0
 62
7
  6
CONTINUOUS
 10
336.9416597632
 20
199.1172219096
  0
VERTEX
  8
0
 62
7
  6
CONTINUOUS
 10
337.3143226072
 20
200.1147245557
  0
VERTEX
  8
0
 62
7
  6
CONTINUOUS
 10
337.7281175314
 20
201.2066627894
  0
VERTEX
  8
0
 62
7
  6
CONTINUOUS
 10
338.1763862877
 20
202.3748875845
  0
VERTEX
  8
0
 62
7
  6
CONTINUOUS
 10
338.6403502225
 20
203.5702530707
  0
SEQEND
  0
POLYLINE
  8
0
 62
7
  6
CONTINUOUS
 66
1
 70
0
  0
VERTEX
  8
0
 62
7
  6
CONTINUOUS
 10
186.0401874655
 20
299.9089805553
  0
VERTEX
  8
0
 62
7
  6
CONTINUOUS
 10
183.5426481234
 20
299.7704240311
  0
VERTEX
  8
0
 62
7
  6
CONTINUOUS
 10
181.0784314198
 20
299.3579334356
  0
VERTEX
  8
0
 62
7
  6
CONTINUOUS
 10
178.6756381372
 20
298.6747730048
  0
VERTEX
  8
0
 62
7
  6
CONTINUOUS
 10
176.340155331
 20
297.7166670576
  0
VERTEX
  8
0
 62
7
  6
CONTINUOUS
 10
174.1217263637
 20
296.5011101049
  0
VERTEX
  8
0
 62
7
  6
CONTINUOUS
 10
172.0695644089
 20
295.0561610234
  0
VERTEX
  8
0
 62
7
  6
CONTINUOUS
 10
170.1927260511
 20
293.3926147952
  0
VERTEX
  8
0
 62
7
  6
CONTINUOUS
 10
168.5192795162
 20
291.5410633312
  0
VERTEX
  8
0
 62
7
  6
CONTINUOUS
 10
167.0588950612
 20
289.5096646124
  0
VERTEX
  8
0
 62
7
  6
CONTINUOUS
 10
165.8254284329
 20
287.3145027624
  0
VERTEX
  8
0
 62
7
  6
CONTINUOUS
 10
164.8436845367
 20
284.9945988273
  0
VERTEX
  8
0
 62
7
  6
CONTINUOUS
 10
164.1310029962
 20
282.583655379
  0
VERTEX
  8
0
 62
7
  6
CONTINUOUS
 10
163.6911085852
 20
280.0962750358
  0
VERTEX
  8
0
 62
7
  6
CONTINUOUS
 10
163.5292277941
 20
277.5670772215
  0
VERTEX
  8
0
 62
7
  6
CONTINUOUS
 10
163.6530021225
 20
275.040870731
  0
VERTEX
  8
0
 62
7
  6
CONTINUOUS
 10
164.0650118518
 20
272.534198642
  0
VERTEX
  8
0
 62
7
  6
CONTINUOUS
 10
164.7570240099
 20
270.0833643026
  0
VERTEX
  8
0
 62
7
  6
CONTINUOUS
 10
165.711044146
 20
267.7500969956
  0
VERTEX
  8
0
 62
7
  6
CONTINUOUS
 10
166.9245333001
 20
265.5334524916
  0
VERTEX
  8
0
 62
7
  6
CONTINUOUS
 10
168.3686570439
 20
263.4764065477
  0
VERTEX
  8
0
 62
7
  6
CONTINUOUS
 10
170.0169130523
 20
261.6113084501
  0
VERTEX
  8
0
 62
7
  6
CONTINUOUS
 10
171.8760180313
 20
259.9285650533
  0
VERTEX
  8
0
 62
7
  6
CONTINUOUS
 10
173.9276100935
 20
258.4508652442
  0
VERTEX
  8
0
 62
7
  6
CONTINUOUS
 10
176.1299028299
 20
257.2154916276
  0
VERTEX
  8
0
 62
7
  6
CONTINUOUS
 10
178.4681934094
 20
256.2312290615
  0
VERTEX
  8
0
 62
7
  6
CONTINUOUS
 10
180.9219589449
 20
255.5094914721
  0
VERTEX
  8
0
 62
7
  6
CONTINUOUS
 10
183.449289581
 20
255.0701363129
  0
VERTEX
  8
0
 62
7
  6
CONTINUOUS
 10
186.0159552631
 20
254.9227564736
  0
SEQEND
  0
POLYLINE
  8
0
 62
7
  6
CONTINUOUS
 66
1
 70
0
  0
VERTEX
  8
0
 62
7
  6
CONTINUOUS
 10
186.0277942652
 20
296.4683951454
  0
VERTEX
  8
0
 62
7
  6
CONTINUOUS
 10
188.2830662656
 20
296.3338042311
  0
VERTEX
  8
0
 62
7
  6
CONTINUOUS
 10
190.5088617031
 20
295.931376641
  0
VERTEX
  8
0
 62
7
  6
CONTINUOUS
 10
192.6734675245
 20
295.2658718807
  0
VERTEX
  8
0
 62
7
  6
CONTINUOUS
 10
194.7453679662
 20
294.3460334258
  0
VERTEX
  8
0
 62
7
  6
CONTINUOUS
 10
196.6957999558
 20
293.1834324727
  0
VERTEX
  8
0
 62
7
  6
CONTINUOUS
 10
198.4920439101
 20
291.797117071
  0
VERTEX
  8
0
 62
7
  6
CONTINUOUS
 10
200.1025660036
 20
290.2142128976
  0
VERTEX
  8
0
 62
7
  6
CONTINUOUS
 10
201.5146396788
 20
288.4494006947
  0
VERTEX
  8
0
 62
7
  6
CONTINUOUS
 10
202.7135873109
 20
286.5162483574
  0
VERTEX
  8
0
 62
7
  6
CONTINUOUS
 10
203.6746691099
 20
284.4475046954
  0
VERTEX
  8
0
 62
7
  6
CONTINUOUS
 10
204.3808867397
 20
282.276009019
  0
VERTEX
  8
0
 62
7
  6
CONTINUOUS
 10
204.8211387269
 20
280.0332395551
  0
VERTEX
  8
0
 62
7
  6
CONTINUOUS
 10
204.9546275498
 20
278.6644690761
  0
SEQEND
  0
POLYLINE
  8
0
 62
7
  6
CONTINUOUS
 66
1
 70
0
  0
VERTEX
  8
0
 62
7
  6
CONTINUOUS
 10
349.322283897
 20
180.774672346
  0
VERTEX
  8
0
 62
7
  6
CONTINUOUS
 10
349.2273994588
 20
182.1130926616
  0
VERTEX
  8
0
 62
7
  6
CONTINUOUS
 10
348.951710319
 20
183.5004689217
  0
VERTEX
  8
0
 62
7
  6
CONTINUOUS
 10
348.4886811324
 20
184.9183761508
  0
VERTEX
  8
0
 62
7
  6
CONTINUOUS
 10
347.8274621771
 20
186.3505755181
  0
VERTEX
  8
0
 62
7
  6
CONTINUOUS
 10
346.9569850874
 20
187.7820508735
  0
VERTEX
  8
0
 62
7
  6
CONTINUOUS
 10
345.8868343647
 20
189.1811304742
  0
VERTEX
  8
0
 62
7
  6
CONTINUOUS
 10
344.6321785377
 20
190.5157631189
  0
VERTEX
  8
0
 62
7
  6
CONTINUOUS
 10
343.1976007067
 20
191.7809870326
  0
VERTEX
  8
0
 62
7
  6
CONTINUOUS
 10
341.590303038
 20
192.9646155958
  0
VERTEX
  8
0
 62
7
  6
CONTINUOUS
 10
339.8213848593
 20
194.0541132863
  0
VERTEX
  8
0
 62
7
  6
CONTINUOUS
 10
337.9014101771
 20
195.0375562953
  0
VERTEX
  8
0
 62
7
  6
CONTINUOUS
 10
335.8480248979
 20
195.8966594426
  0
SEQEND
  0
POLYLINE
  8
0
 62
7
  6
CONTINUOUS
 66
1
 70
0
  0
VERTEX
  8
0
 62
7
  6
CONTINUOUS
 10
348.6962987672
 20
125.8167236722
  0
VERTEX
  8
0
 62
7
  6
CONTINUOUS
 10
348.8077041718
 20
141.2213605213
  0
VERTEX
  8
0
 62
7
  6
CONTINUOUS
 10
348.8698785703
 20
149.3556416088
  0
VERTEX
  8
0
 62
7
  6
CONTINUOUS
 10
348.9509219535
 20
157.7785114091
  0
VERTEX
  8
0
 62
7
  6
CONTINUOUS
 10
349.0636152728
 20
166.4955296203
  0
VERTEX
  8
0
 62
7
  6
CONTINUOUS
 10
349.2050914383
 20
175.5008281038
  0
SEQEND
  0
LINE
  8
0
 62
7
  6
CONTINUOUS
 10
348.5787209637
 20
111.5503709171
 11
348.6962987672
 21
125.8167236722
  0
LINE
  8
0
 62
7
  6
CONTINUOUS
 10
349.2050914383
 20
175.5008281038
 11
349.2391274836
 21
177.2655847313
  0
LINE
  8
0
 62
7
  6
CONTINUOUS
 10
349.2391274836
 20
177.2655847313
 11
349.2783186284
 21
179.0235183552
  0
LINE
  8
0
 62
7
  6
CONTINUOUS
 10
349.2783186284
 20
179.0235183552
 11
349.322642619
 21
180.7745927991
  0
POLYLINE
  8
0
 62
7
  6
CONTINUOUS
 66
1
 70
0
  0
VERTEX
  8
0
 62
7
  6
CONTINUOUS
 10
14.0939327033
 20
314.9231360968
  0
VERTEX
  8
0
 62
7
  6
CONTINUOUS
 10
36.2714417008
 20
315.3965070591
  0
VERTEX
  8
0
 62
7
  6
CONTINUOUS
 10
59.3572618935
 20
315.8694182177
  0
VERTEX
  8
0
 62
7
  6
CONTINUOUS
 10
83.3251651833
 20
316.353386694
  0
VERTEX
  8
0
 62
7
  6
CONTINUOUS
 10
108.2343711553
 20
316.8683717517
  0
VERTEX
  8
0
 62
7
  6
CONTINUOUS
 10
161.0327461267
 20
317.9799755551
  0
SEQEND
  0
POLYLINE
  8
0
 62
7
  6
CONTINUOUS
 66
1
 70
0
  0
VERTEX
  8
0
 62
7
  6
CONTINUOUS
 10
357.9665769406
 20
314.923243191
  0
VERTEX
  8
0
 62
7
  6
CONTINUOUS
 10
335.7921247591
 20
315.3965438796
  0
VERTEX
  8
0
 62
7
  6
CONTINUOUS
 10
312.7081477745
 20
315.8694204832
  0
VERTEX
  8
0
 62
7
  6
CONTINUOUS
 10
288.7405524938
 20
316.3533837947
  0
VERTEX
  8
0
 62
7
  6
CONTINUOUS
 10
263.8309907632
 20
316.8683426644
  0
VERTEX
  8
0
 62
7
  6
CONTINUOUS
 10
211.0326606178
 20
317.9799756046
  0
SEQEND
  0
POLYLINE
  8
0
 62
7
  6
CONTINUOUS
 66
1
 70
0
  0
VERTEX
  8
0
 62
7
  6
CONTINUOUS
 10
359.5140276975
 20
230.3186441355
  0
VERTEX
  8
0
 62
7
  6
CONTINUOUS
 10
359.1546818974
 20
244.4430712705
  0
VERTEX
  8
0
 62
7
  6
CONTINUOUS
 10
358.8283547429
 20
258.5578710639
  0
VERTEX
  8
0
 62
7
  6
CONTINUOUS
 10
358.5278270271
 20
272.662383061
  0
VERTEX
  8
0
 62
7
  6
CONTINUOUS
 10
358.2745940368
 20
286.7590082421
  0
VERTEX
  8
0
 62
7
  6
CONTINUOUS
 10
358.0900362748
 20
300.8481209695
  0
VERTEX
  8
0
 62
7
  6
CONTINUOUS
 10
357.9665769406
 20
314.923243191
  0
SEQEND
  0
POLYLINE
  8
0
 62
7
  6
CONTINUOUS
 66
1
 70
0
  0
VERTEX
  8
0
 62
7
  6
CONTINUOUS
 10
363.2993183562
 20
230.4753731
  0
VERTEX
  8
0
 62
7
  6
CONTINUOUS
 10
362.9255517978
 20
245.9484439802
  0
VERTEX
  8
0
 62
7
  6
CONTINUOUS
 10
362.52095386
 20
262.4365423094
  0
VERTEX
  8
0
 62
7
  6
CONTINUOUS
 10
362.1533102592
 20
278.9216492486
  0
VERTEX
  8
0
 62
7
  6
CONTINUOUS
 10
361.8597081264
 20
295.4215263117
  0
VERTEX
  8
0
 62
7
  6
CONTINUOUS
 10
361.6356092412
 20
311.9205258423
  0
VERTEX
  8
0
 62
7
  6
CONTINUOUS
 10
361.5252839911
 20
327.4186974349
  0
SEQEND
  0
POLYLINE
  8
0
 62
7
  6
CONTINUOUS
 66
1
 70
0
  0
VERTEX
  8
0
 62
7
  6
CONTINUOUS
 10
357.9714739679
 20
314.9231360968
  0
VERTEX
  8
0
 62
7
  6
CONTINUOUS
 10
357.9585876255
 20
316.9835326667
  0
VERTEX
  8
0
 62
7
  6
CONTINUOUS
 10
357.9483799231
 20
319.0538693209
  0
VERTEX
  8
0
 62
7
  6
CONTINUOUS
 10
357.9411432629
 20
321.130381875
  0
SEQEND
  0
POLYLINE
  8
0
 62
7
  6
CONTINUOUS
 66
1
 70
0
  0
VERTEX
  8
0
 62
7
  6
CONTINUOUS
 10
357.9411432629
 20
321.130381875
  0
VERTEX
  8
0
 62
7
  6
CONTINUOUS
 10
357.9313915579
 20
325.3133496536
  0
VERTEX
  8
0
 62
7
  6
CONTINUOUS
 10
357.928116809
 20
327.4187082041
  0
SEQEND
  0
POLYLINE
  8
0
 62
7
  6
CONTINUOUS
 66
1
 70
0
  0
VERTEX
  8
0
 62
7
  6
CONTINUOUS
 10
355.8117330915
 20
120.7887967812
  0
VERTEX
  8
0
 62
7
  6
CONTINUOUS
 10
355.7628021197
 20
112.8085874243
  0
VERTEX
  8
0
 62
7
  6
CONTINUOUS
 10
355.7183994082
 20
105.1352926988
  0
VERTEX
  8
0
 62
7
  6
CONTINUOUS
 10
355.6905041566
 20
97.7653336083
  0
VERTEX
  8
0
 62
7
  6
CONTINUOUS
 10
355.6727602401
 20
90.6947267019
  0
VERTEX
  8
0
 62
7
  6
CONTINUOUS
 10
355.6761212341
 20
83.9248418586
  0
VERTEX
  8
0
 62
7
  6
CONTINUOUS
 10
355.6606372378
 20
77.4360400922
  0
VERTEX
  8
0
 62
7
  6
CONTINUOUS
 10
355.6175379469
 20
71.211192686
  0
VERTEX
  8
0
 62
7
  6
CONTINUOUS
 10
355.4642381472
 20
65.2441387099
  0
VERTEX
  8
0
 62
7
  6
CONTINUOUS
 10
355.1345845328
 20
59.521450675
  0
VERTEX
  8
0
 62
7
  6
CONTINUOUS
 10
354.5705110757
 20
54.0477995408
  0
VERTEX
  8
0
 62
7
  6
CONTINUOUS
 10
353.7043174724
 20
48.835071266
  0
VERTEX
  8
0
 62
7
  6
CONTINUOUS
 10
352.4987532436
 20
43.8481933645
  0
VERTEX
  8
0
 62
7
  6
CONTINUOUS
 10
350.8932029539
 20
39.0354842477
  0
VERTEX
  8
0
 62
7
  6
CONTINUOUS
 10
348.8900611681
 20
34.4586571814
  0
VERTEX
  8
0
 62
7
  6
CONTINUOUS
 10
346.4611994754
 20
30.1577466651
  0
VERTEX
  8
0
 62
7
  6
CONTINUOUS
 10
343.6375713672
 20
26.1461074088
  0
VERTEX
  8
0
 62
7
  6
CONTINUOUS
 10
340.4327685495
 20
22.4602533453
  0
VERTEX
  8
0
 62
7
  6
CONTINUOUS
 10
336.8707479674
 20
19.0707413061
  0
VERTEX
  8
0
 62
7
  6
CONTINUOUS
 10
332.9741344971
 20
15.9743306111
  0
VERTEX
  8
0
 62
7
  6
CONTINUOUS
 10
328.7605160508
 20
13.1289277278
  0
VERTEX
  8
0
 62
7
  6
CONTINUOUS
 10
324.2641312733
 20
10.5075349769
  0
VERTEX
  8
0
 62
7
  6
CONTINUOUS
 10
319.4576528426
 20
8.0616241181
  0
VERTEX
  8
0
 62
7
  6
CONTINUOUS
 10
314.3373276973
 20
5.740243099
  0
VERTEX
  8
0
 62
7
  6
CONTINUOUS
 10
308.8666717
 20
3.5236656765
  0
VERTEX
  8
0
 62
7
  6
CONTINUOUS
 10
303.0120370002
 20
1.3690266871
  0
VERTEX
  8
0
 62
7
  6
CONTINUOUS
 10
296.7611616764
 20
-0.705209161
  0
VERTEX
  8
0
 62
7
  6
CONTINUOUS
 10
290.0854655546
 20
-2.6970568407
  0
VERTEX
  8
0
 62
7
  6
CONTINUOUS
 10
283.0002555409
 20
-4.5999424719
  0
VERTEX
  8
0
 62
7
  6
CONTINUOUS
 10
275.5137803124
 20
-6.4008558171
  0
VERTEX
  8
0
 62
7
  6
CONTINUOUS
 10
267.6186343824
 20
-8.1171209209
  0
VERTEX
  8
0
 62
7
  6
CONTINUOUS
 10
259.3118021451
 20
-9.7718516002
  0
VERTEX
  8
0
 62
7
  6
CONTINUOUS
 10
250.5883626344
 20
-11.3346683005
  0
VERTEX
  8
0
 62
7
  6
CONTINUOUS
 10
241.4467591789
 20
-12.8060365001
  0
VERTEX
  8
0
 62
7
  6
CONTINUOUS
 10
231.8738832877
 20
-14.1165349179
  0
VERTEX
  8
0
 62
7
  6
CONTINUOUS
 10
221.8544041567
 20
-15.1882391668
  0
VERTEX
  8
0
 62
7
  6
CONTINUOUS
 10
211.3934320539
 20
-16.0471240425
  0
SEQEND
  0
POLYLINE
  8
0
 62
7
  6
CONTINUOUS
 66
1
 70
0
  0
VERTEX
  8
0
 62
7
  6
CONTINUOUS
 10
356.2566412376
 20
175.3186974349
  0
VERTEX
  8
0
 62
7
  6
CONTINUOUS
 10
356.1157446137
 20
165.4228434814
  0
VERTEX
  8
0
 62
7
  6
CONTINUOUS
 10
356.0082719231
 20
155.8518892291
  0
VERTEX
  8
0
 62
7
  6
CONTINUOUS
 10
355.9405286285
 20
146.6076017065
  0
VERTEX
  8
0
 62
7
  6
CONTINUOUS
 10
355.893598342
 20
137.6846798287
  0
VERTEX
  8
0
 62
7
  6
CONTINUOUS
 10
355.8117330915
 20
120.7887967812
  0
SEQEND
  0
LINE
  8
0
 62
7
  6
CONTINUOUS
 10
356.2566412537
 20
175.3186974347
 11
356.2866219994
 21
177.0301996993
  0
LINE
  8
0
 62
7
  6
CONTINUOUS
 10
356.2866219994
 20
177.0301996993
 11
356.3195965389
 21
178.7517519021
  0
LINE
  8
0
 62
7
  6
CONTINUOUS
 10
356.3195965389
 20
178.7517519021
 11
356.3555979109
 21
180.4832909915
  0
POLYLINE
  8
0
 62
7
  6
CONTINUOUS
 66
1
 70
0
  0
VERTEX
  8
0
 62
7
  6
CONTINUOUS
 10
359.1680176448
 20
175.3186974349
  0
VERTEX
  8
0
 62
7
  6
CONTINUOUS
 10
359.3829270323
 20
184.7784807469
  0
VERTEX
  8
0
 62
7
  6
CONTINUOUS
 10
359.5447353529
 20
194.1189655551
  0
VERTEX
  8
0
 62
7
  6
CONTINUOUS
 10
359.649399139
 20
203.3396875918
  0
VERTEX
  8
0
 62
7
  6
CONTINUOUS
 10
359.6851925228
 20
212.4446508567
  0
VERTEX
  8
0
 62
7
  6
CONTINUOUS
 10
359.6408678916
 20
221.4378363072
  0
VERTEX
  8
0
 62
7
  6
CONTINUOUS
 10
359.5137903531
 20
230.3187031685
  0
SEQEND
  0
POLYLINE
  8
0
 62
7
  6
CONTINUOUS
 66
1
 70
0
  0
VERTEX
  8
0
 62
7
  6
CONTINUOUS
 10
362.7293589969
 20
175.304767383
  0
VERTEX
  8
0
 62
7
  6
CONTINUOUS
 10
362.9516298669
 20
184.9271934251
  0
VERTEX
  8
0
 62
7
  6
CONTINUOUS
 10
363.1815959754
 20
195.117488701
  0
VERTEX
  8
0
 62
7
  6
CONTINUOUS
 10
363.3411376899
 20
204.8584750615
  0
VERTEX
  8
0
 62
7
  6
CONTINUOUS
 10
363.4169495057
 20
214.1420980538
  0
VERTEX
  8
0
 62
7
  6
CONTINUOUS
 10
363.4083962099
 20
222.9880978171
  0
VERTEX
  8
0
 62
7
  6
CONTINUOUS
 10
363.2990989267
 20
230.4753607614
  0
SEQEND
  0
POLYLINE
  8
0
 62
7
  6
CONTINUOUS
 66
1
 70
0
  0
VERTEX
  8
0
 62
7
  6
CONTINUOUS
 10
359.8949199118
 20
53.2238466894
  0
VERTEX
  8
0
 62
7
  6
CONTINUOUS
 10
361.1556332684
 20
70.4860195151
  0
VERTEX
  8
0
 62
7
  6
CONTINUOUS
 10
361.5537510995
 20
89.7188684175
  0
VERTEX
  8
0
 62
7
  6
CONTINUOUS
 10
361.4051012653
 20
109.9547435204
  0
VERTEX
  8
0
 62
7
  6
CONTINUOUS
 10
361.4688800642
 20
131.0774268293
  0
VERTEX
  8
0
 62
7
  6
CONTINUOUS
 10
362.0851242591
 20
153.1632142402
  0
VERTEX
  8
0
 62
7
  6
CONTINUOUS
 10
362.729358752
 20
175.3047534394
  0
SEQEND
  0
POLYLINE
  8
0
 62
7
  6
CONTINUOUS
 66
1
 70
0
  0
VERTEX
  8
0
 62
7
  6
CONTINUOUS
 10
356.3518220938
 20
53.5299346738
  0
VERTEX
  8
0
 62
7
  6
CONTINUOUS
 10
357.1141625716
 20
62.5640169157
  0
VERTEX
  8
0
 62
7
  6
CONTINUOUS
 10
357.641376855
 20
71.6053159908
  0
VERTEX
  8
0
 62
7
  6
CONTINUOUS
 10
357.9057962702
 20
80.5173436526
  0
VERTEX
  8
0
 62
7
  6
CONTINUOUS
 10
357.9904268386
 20
89.7095646408
  0
VERTEX
  8
0
 62
7
  6
CONTINUOUS
 10
357.9345169058
 20
99.7301198731
  0
VERTEX
  8
0
 62
7
  6
CONTINUOUS
 10
357.8416708259
 20
110.0264925693
  0
VERTEX
  8
0
 62
7
  6
CONTINUOUS
 10
357.8206162746
 20
120.0459882726
  0
VERTEX
  8
0
 62
7
  6
CONTINUOUS
 10
357.8952316336
 20
130.3372809297
  0
VERTEX
  8
0
 62
7
  6
CONTINUOUS
 10
358.1658693981
 20
141.4467249225
  0
VERTEX
  8
0
 62
7
  6
CONTINUOUS
 10
358.5118349042
 20
152.8285844886
  0
VERTEX
  8
0
 62
7
  6
CONTINUOUS
 10
358.8349788407
 20
164.0737897883
  0
VERTEX
  8
0
 62
7
  6
CONTINUOUS
 10
359.1680176448
 20
175.3186974349
  0
SEQEND
  0
LINE
  8
0
 62
7
  6
CONTINUOUS
 10
10.5409715494
 20
327.4186974349
 11
361.5244332379
 21
327.4186974349
  0
POLYLINE
  8
0
 62
7
  6
CONTINUOUS
 66
1
 70
0
  0
VERTEX
  8
0
 62
7
  6
CONTINUOUS
 10
345.2552199227
 20
27.50324003
  0
VERTEX
  8
0
 62
7
  6
CONTINUOUS
 10
347.4728016708
 20
30.3372920501
  0
VERTEX
  8
0
 62
7
  6
CONTINUOUS
 10
349.4628191916
 20
33.3117623282
  0
VERTEX
  8
0
 62
7
  6
CONTINUOUS
 10
351.2298710834
 20
36.435523297
  0
VERTEX
  8
0
 62
7
  6
CONTINUOUS
 10
352.7601615512
 20
39.6819576587
  0
VERTEX
  8
0
 62
7
  6
CONTINUOUS
 10
354.043114845
 20
43.0339203639
  0
VERTEX
  8
0
 62
7
  6
CONTINUOUS
 10
355.0736694271
 20
46.4718670996
  0
VERTEX
  8
0
 62
7
  6
CONTINUOUS
 10
355.8421651616
 20
49.9673811201
  0
VERTEX
  8
0
 62
7
  6
CONTINUOUS
 10
356.3518220938
 20
53.5299346738
  0
SEQEND
  0
POLYLINE
  8
0
 62
7
  6
CONTINUOUS
 66
1
 70
0
  0
VERTEX
  8
0
 62
7
  6
CONTINUOUS
 10
347.9937440809
 20
25.3053291624
  0
VERTEX
  8
0
 62
7
  6
CONTINUOUS
 10
350.6498303116
 20
28.7375844953
  0
VERTEX
  8
0
 62
7
  6
CONTINUOUS
 10
353.5384341424
 20
33.2921133054
  0
VERTEX
  8
0
 62
7
  6
CONTINUOUS
 10
355.9523083597
 20
38.1580629955
  0
VERTEX
  8
0
 62
7
  6
CONTINUOUS
 10
357.8548280189
 20
43.2956102872
  0
VERTEX
  8
0
 62
7
  6
CONTINUOUS
 10
359.2066972011
 20
48.6447196035
  0
VERTEX
  8
0
 62
7
  6
CONTINUOUS
 10
359.8950454605
 20
53.2237884224
  0
SEQEND
  0
ENDSEC
  0
EOF
