999
DXF file: K:\Client\125_Heirloom\001\00\Final_Data\Drawings\LADDER TOWEL WARMERS\wca1000_1.dxf
999
Pro/ENGINEER 2017110 by Parametric Technology Corporation
  0
SECTION
  2
HEADER
  9
$EXTMAX
 10
420.0
 20
297.0
 30
0.0
  9
$EXTMIN
 10
0.0
 20
0.0
 30
0.0
  9
$LIMMIN
 10
0.0
 20
0.0
  9
$LIMMAX
 10
420.0
 20
297.0
  9
$VIEWCTR
 10
210.0
 20
148.5
  9
$VIEWSIZE
 40
297.0
  9
$CLAYER
  8
0
  9
$LTSCALE
 40
23.1
  9
$CELTYPE
  6
BYLAYER
  9
$DIMSCALE
 40
1.0
  9
$DIMASZ
 40
3.0
  9
$DIMEXO
 40
1.0
  9
$DIMDLI
 40
15.96
  9
$DIMEXE
 40
1.0
  9
$DIMCEN
 40
3.78
  9
$DIMLFAC
 40
1.0
  9
$DIMBLK
  1
_FILLED
  9
$DIMALT
 70
0
  9
$DIMALTF
 40
0.0393700787
  9
$DIMTXT
 40
3.0
  9
$AUNITS
 70
0
  9
$PDMODE
 70
3
  9
$PDSIZE
 40
5.0
  9
$TILEMODE
 70
1
  0
ENDSEC
  0
SECTION
  2
TABLES
  0
TABLE
  2
LTYPE
 70
6
  0
LTYPE
  2
BYBLOCK
 70
0
  3

 72
65
 73
0
 40
0.0
  0
LTYPE
  2
BYLAYER
 70
0
  3

 72
65
 73
0
 40
0.0
  0
LTYPE
  2
CONTINUOUS
 70
64
  3
Solid line
 72
65
 73
0
 40
0.0
  0
LTYPE
  2
CENTER
 70
64
  3
____ _ ____ _ ____ _ ____ _ ____ _ ____ _ ____
 72
65
 73
4
 40
0.6
 49
0.375
 49
-0.075
 49
0.075
 49
-0.075
  0
LTYPE
  2
HIDDEN
 70
64
  3
- - - - - - - - - - - - - - - - - - - -
 72
65
 73
2
 40
0.2
 49
0.1
 49
-0.1
  0
LTYPE
  2
PHANTOM
 70
64
  3
_____ _ _ _____ _ _ _____ _ _ _____
 72
65
 73
6
 40
0.8
 49
0.45
 49
-0.05
 49
0.1
 49
-0.05
 49
0.1
 49
-0.05
  0
LTYPE
  2
DOT
 70
64
  3
. . . . . . . . . . . . . . . . . . . .
 72
65
 73
2
 40
0.2
 49
0.1
 49
-0.1
  0
LTYPE
  2
DASHED
 70
64
  3
- - - - - - - - - - - - - - - - - - - -
 72
65
 73
2
 40
0.2
 49
0.1
 49
-0.1
  0
ENDTAB
  0
TABLE
  2
LAYER
 70
36
  0
LAYER
  2
0
 70
0
 62
7
  6
CONTINUOUS
  0
LAYER
  2
DEFAULT_1
 70
0
 62
7
  6
CENTER
  0
LAYER
  2
DEFAULT_2
 70
0
 62
8
  6
HIDDEN
  0
LAYER
  2
DEFAULT_3
 70
0
 62
7
  6
PHANTOM
  0
LAYER
  2
0000_BOM
 70
0
 62
7
  6
CONTINUOUS
  0
LAYER
  2
0000_REV_TABLE
 70
0
 62
7
  6
CONTINUOUS
  0
LAYER
  2
0000_STEVENS_NOTE
 70
0
 62
7
  6
CONTINUOUS
  0
LAYER
  2
01_DATUM_PLANES
 70
0
 62
7
  6
CONTINUOUS
  0
LAYER
  2
01_DEF_PLANES
 70
0
 62
7
  6
CONTINUOUS
  0
LAYER
  2
02_DATUM_COS
 70
0
 62
7
  6
CONTINUOUS
  0
LAYER
  2
99_SOLID
 70
0
 62
7
  6
CONTINUOUS
  0
LAYER
  2
CAD-MASTER_ZINC-PL
 70
0
 62
7
  6
CONTINUOUS
  0
LAYER
  2
CURVE
 70
0
 62
7
  6
CONTINUOUS
  0
LAYER
  2
SKEL
 70
0
 62
7
  6
CONTINUOUS
  0
LAYER
  2
SKETCH
 70
0
 62
7
  6
CONTINUOUS
  0
LAYER
  2
SURFACE
 70
0
 62
7
  6
CONTINUOUS
  0
ENDTAB
  0
TABLE
  2
STYLE
 70
1
  0
STYLE
  2
STANDARD
 70
0
 40
0.0
 41
0.75
 50
0.0
 71
0
 42
0.2
  3
txt
  4

  0
STYLE
  2
TEXTSTYLE_1
 70
0
 40
0.0
 41
0.8
 50
0.0
 71
0
 42
0.2
  3
gdt
  4

  0
ENDTAB
  0
ENDSEC
  0
SECTION
  2
BLOCKS
  0
ENDSEC
  0
SECTION
  2
ENTITIES
  0
LINE
  8
0
 62
7
  6
CONTINUOUS
 10
-87.4155199368
 20
-340.5259805629
 11
455.9663040207
 21
-340.5259805629
  0
LINE
  8
0
 62
7
  6
CONTINUOUS
 10
455.9663040207
 20
-315.5259805629
 11
-87.4155199368
 21
-315.5259805629
  0
LINE
  8
0
 62
7
  6
CONTINUOUS
 10
-89.224607958
 20
-313.7168925417
 11
-114.224607958
 21
-313.7168925417
  0
LINE
  8
0
 62
7
  6
CONTINUOUS
 10
457.775392042
 20
-313.7168925417
 11
482.775392042
 21
-313.7168925417
  0
LINE
  8
0
 62
7
  6
CONTINUOUS
 10
-89.224607958
 20
-172.3350685842
 11
-114.224607958
 21
-172.3350685842
  0
LINE
  8
0
 62
7
  6
CONTINUOUS
 10
457.775392042
 20
-172.3350685842
 11
482.775392042
 21
-172.3350685842
  0
LINE
  8
0
 62
7
  6
CONTINUOUS
 10
-87.4155199368
 20
-170.5259805629
 11
455.9663040207
 21
-170.5259805629
  0
LINE
  8
0
 62
7
  6
CONTINUOUS
 10
-114.224607958
 20
617.6649314158
 11
-114.224607958
 21
476.2831074583
  0
LINE
  8
0
 62
7
  6
CONTINUOUS
 10
-114.224607958
 20
447.6649314158
 11
-114.224607958
 21
306.2831074583
  0
LINE
  8
0
 62
7
  6
CONTINUOUS
 10
-114.224607958
 20
277.6649314158
 11
-114.224607958
 21
26.2831074583
  0
LINE
  8
0
 62
7
  6
CONTINUOUS
 10
-114.224607958
 20
-2.3350685842
 11
-114.224607958
 21
-143.7168925417
  0
LINE
  8
0
 62
7
  6
CONTINUOUS
 10
-114.224607958
 20
-172.3350685842
 11
-114.224607958
 21
-313.7168925417
  0
LINE
  8
0
 62
7
  6
CONTINUOUS
 10
-89.224607958
 20
617.6649314158
 11
-89.224607958
 21
476.2831074583
  0
LINE
  8
0
 62
7
  6
CONTINUOUS
 10
-89.224607958
 20
447.6649314158
 11
-89.224607958
 21
306.2831074583
  0
LINE
  8
0
 62
7
  6
CONTINUOUS
 10
-89.224607958
 20
277.6649314158
 11
-89.224607958
 21
26.2831074583
  0
LINE
  8
0
 62
7
  6
CONTINUOUS
 10
-89.224607958
 20
-2.3350685842
 11
-89.224607958
 21
-143.7168925417
  0
LINE
  8
0
 62
7
  6
CONTINUOUS
 10
-89.224607958
 20
-172.3350685842
 11
-89.224607958
 21
-313.7168925417
  0
LINE
  8
0
 62
7
  6
CONTINUOUS
 10
-87.4155199368
 20
644.4740194371
 11
-87.4155199368
 21
619.4740194371
  0
LINE
  8
0
 62
7
  6
CONTINUOUS
 10
-87.4155199368
 20
474.4740194371
 11
-87.4155199368
 21
449.4740194371
  0
LINE
  8
0
 62
7
  6
CONTINUOUS
 10
-87.4155199368
 20
304.4740194371
 11
-87.4155199368
 21
279.4740194371
  0
LINE
  8
0
 62
7
  6
CONTINUOUS
 10
-87.4155199368
 20
24.4740194371
 11
-87.4155199368
 21
-0.5259805629
  0
LINE
  8
0
 62
7
  6
CONTINUOUS
 10
-87.4155199368
 20
-145.5259805629
 11
-87.4155199368
 21
-170.5259805629
  0
LINE
  8
0
 62
7
  6
CONTINUOUS
 10
-87.4155199368
 20
-315.5259805629
 11
-87.4155199368
 21
-340.5259805629
  0
LINE
  8
0
 62
7
  6
CONTINUOUS
 10
455.9663040207
 20
-145.5259805629
 11
-87.4155199368
 21
-145.5259805629
  0
LINE
  8
0
 62
7
  6
CONTINUOUS
 10
-89.224607958
 20
-143.7168925417
 11
-114.224607958
 21
-143.7168925417
  0
LINE
  8
0
 62
7
  6
CONTINUOUS
 10
457.775392042
 20
-143.7168925417
 11
482.775392042
 21
-143.7168925417
  0
LINE
  8
0
 62
7
  6
CONTINUOUS
 10
-89.224607958
 20
-2.3350685842
 11
-114.224607958
 21
-2.3350685842
  0
LINE
  8
0
 62
7
  6
CONTINUOUS
 10
457.775392042
 20
-2.3350685842
 11
482.775392042
 21
-2.3350685842
  0
LINE
  8
0
 62
7
  6
CONTINUOUS
 10
-87.4155199368
 20
-0.5259805629
 11
455.9663040207
 21
-0.5259805629
  0
LINE
  8
0
 62
7
  6
CONTINUOUS
 10
455.9663040207
 20
24.4740194371
 11
-87.4155199368
 21
24.4740194371
  0
LINE
  8
0
 62
7
  6
CONTINUOUS
 10
-89.224607958
 20
26.2831074583
 11
-114.224607958
 21
26.2831074583
  0
LINE
  8
0
 62
7
  6
CONTINUOUS
 10
457.775392042
 20
26.2831074583
 11
482.775392042
 21
26.2831074583
  0
LINE
  8
0
 62
7
  6
CONTINUOUS
 10
-89.224607958
 20
277.6649314158
 11
-114.224607958
 21
277.6649314158
  0
LINE
  8
0
 62
7
  6
CONTINUOUS
 10
457.775392042
 20
277.6649314158
 11
482.775392042
 21
277.6649314158
  0
LINE
  8
0
 62
7
  6
CONTINUOUS
 10
-87.4155199368
 20
279.4740194371
 11
455.9663040207
 21
279.4740194371
  0
LINE
  8
0
 62
7
  6
CONTINUOUS
 10
455.9663040207
 20
304.4740194371
 11
-87.4155199368
 21
304.4740194371
  0
LINE
  8
0
 62
7
  6
CONTINUOUS
 10
-89.224607958
 20
306.2831074583
 11
-114.224607958
 21
306.2831074583
  0
LINE
  8
0
 62
7
  6
CONTINUOUS
 10
457.775392042
 20
306.2831074583
 11
482.775392042
 21
306.2831074583
  0
LINE
  8
0
 62
7
  6
CONTINUOUS
 10
455.9663040207
 20
644.4740194371
 11
455.9663040207
 21
619.4740194371
  0
LINE
  8
0
 62
7
  6
CONTINUOUS
 10
455.9663040207
 20
474.4740194371
 11
455.9663040207
 21
449.4740194371
  0
LINE
  8
0
 62
7
  6
CONTINUOUS
 10
455.9663040207
 20
304.4740194371
 11
455.9663040207
 21
279.4740194371
  0
LINE
  8
0
 62
7
  6
CONTINUOUS
 10
455.9663040207
 20
24.4740194371
 11
455.9663040207
 21
-0.5259805629
  0
LINE
  8
0
 62
7
  6
CONTINUOUS
 10
455.9663040207
 20
-145.5259805629
 11
455.9663040207
 21
-170.5259805629
  0
LINE
  8
0
 62
7
  6
CONTINUOUS
 10
455.9663040207
 20
-315.5259805629
 11
455.9663040207
 21
-340.5259805629
  0
LINE
  8
0
 62
7
  6
CONTINUOUS
 10
457.775392042
 20
617.6649314158
 11
457.775392042
 21
476.2831074583
  0
LINE
  8
0
 62
7
  6
CONTINUOUS
 10
457.775392042
 20
447.6649314158
 11
457.775392042
 21
306.2831074583
  0
LINE
  8
0
 62
7
  6
CONTINUOUS
 10
457.775392042
 20
277.6649314158
 11
457.775392042
 21
26.2831074583
  0
LINE
  8
0
 62
7
  6
CONTINUOUS
 10
457.775392042
 20
-2.3350685842
 11
457.775392042
 21
-143.7168925417
  0
LINE
  8
0
 62
7
  6
CONTINUOUS
 10
457.775392042
 20
-172.3350685842
 11
457.775392042
 21
-313.7168925417
  0
LINE
  8
0
 62
7
  6
CONTINUOUS
 10
482.775392042
 20
617.6649314158
 11
482.775392042
 21
476.2831074583
  0
LINE
  8
0
 62
7
  6
CONTINUOUS
 10
482.775392042
 20
447.6649314158
 11
482.775392042
 21
306.2831074583
  0
LINE
  8
0
 62
7
  6
CONTINUOUS
 10
482.775392042
 20
277.6649314158
 11
482.775392042
 21
26.2831074583
  0
LINE
  8
0
 62
7
  6
CONTINUOUS
 10
482.775392042
 20
-2.3350685842
 11
482.775392042
 21
-143.7168925417
  0
LINE
  8
0
 62
7
  6
CONTINUOUS
 10
482.775392042
 20
-172.3350685842
 11
482.775392042
 21
-313.7168925417
  0
LINE
  8
0
 62
7
  6
CONTINUOUS
 10
-89.224607958
 20
447.6649314158
 11
-114.224607958
 21
447.6649314158
  0
LINE
  8
0
 62
7
  6
CONTINUOUS
 10
457.775392042
 20
447.6649314158
 11
482.775392042
 21
447.6649314158
  0
LINE
  8
0
 62
7
  6
CONTINUOUS
 10
-87.4155199368
 20
449.4740194371
 11
455.9663040207
 21
449.4740194371
  0
LINE
  8
0
 62
7
  6
CONTINUOUS
 10
455.9663040207
 20
474.4740194371
 11
-87.4155199368
 21
474.4740194371
  0
LINE
  8
0
 62
7
  6
CONTINUOUS
 10
-89.224607958
 20
476.2831074583
 11
-114.224607958
 21
476.2831074583
  0
LINE
  8
0
 62
7
  6
CONTINUOUS
 10
457.775392042
 20
476.2831074583
 11
482.775392042
 21
476.2831074583
  0
LINE
  8
0
 62
7
  6
CONTINUOUS
 10
-89.224607958
 20
617.6649314158
 11
-114.224607958
 21
617.6649314158
  0
LINE
  8
0
 62
7
  6
CONTINUOUS
 10
457.775392042
 20
617.6649314158
 11
482.775392042
 21
617.6649314158
  0
LINE
  8
0
 62
7
  6
CONTINUOUS
 10
-87.4155199368
 20
619.4740194371
 11
455.9663040207
 21
619.4740194371
  0
LINE
  8
0
 62
7
  6
CONTINUOUS
 10
455.9663040207
 20
644.4740194371
 11
-87.4155199368
 21
644.4740194371
  0
ARC
  8
0
 62
7
  6
CONTINUOUS
 10
-101.724607958
 20
-204.0259805629
 40
25.0
 50
300.0060969131
 51
59.9939030869
  0
ARC
  8
0
 62
7
  6
CONTINUOUS
 10
-101.724607958
 20
-204.0259805629
 40
25.0
 50
120.0060969131
 51
239.9939030869
  0
ARC
  8
0
 62
7
  6
CONTINUOUS
 10
-101.724607958
 20
11.9740194371
 40
19.0
 50
311.1395104149
 51
318.8604895851
  0
ARC
  8
0
 62
7
  6
CONTINUOUS
 10
-101.724607958
 20
11.9740194371
 40
19.0
 50
131.1395104149
 51
228.8604895851
  0
ARC
  8
0
 62
7
  6
CONTINUOUS
 10
-101.724607958
 20
11.9740194371
 40
19.0
 50
41.1395104149
 51
48.8604895851
  0
ARC
  8
0
 62
7
  6
CONTINUOUS
 10
-101.724607958
 20
-158.0259805629
 40
19.0
 50
311.1395104149
 51
318.8604895851
  0
ARC
  8
0
 62
7
  6
CONTINUOUS
 10
-101.724607958
 20
-158.0259805629
 40
19.0
 50
131.1395104149
 51
228.8604895851
  0
ARC
  8
0
 62
7
  6
CONTINUOUS
 10
-101.724607958
 20
-158.0259805629
 40
19.0
 50
41.1395104149
 51
48.8604895851
  0
ARC
  8
0
 62
7
  6
CONTINUOUS
 10
-101.724607958
 20
-328.0259805629
 40
19.0
 50
131.1395104149
 51
318.8604895851
  0
ARC
  8
0
 62
7
  6
CONTINUOUS
 10
-101.724607958
 20
-328.0259805629
 40
19.0
 50
41.1395104149
 51
48.8604895851
  0
ARC
  8
0
 62
9
  6
CONTINUOUS
 10
-101.724607958
 20
-204.0259805629
 40
18.0
 50
313.9866136873
 51
46.0133863127
  0
ARC
  8
0
 62
9
  6
CONTINUOUS
 10
-101.724607958
 20
-204.0259805629
 40
18.0
 50
133.9866136873
 51
226.0133863127
  0
ARC
  8
0
 62
7
  6
CONTINUOUS
 10
-101.724607958
 20
-204.0259805629
 40
17.5
 50
315.59486252
 51
44.40513748
  0
ARC
  8
0
 62
7
  6
CONTINUOUS
 10
-101.724607958
 20
-204.0259805629
 40
17.5
 50
135.59486252
 51
224.40513748
  0
ARC
  8
0
 62
7
  6
CONTINUOUS
 10
-101.724607958
 20
510.9740194371
 40
25.0
 50
300.0060969131
 51
59.9939030869
  0
ARC
  8
0
 62
7
  6
CONTINUOUS
 10
-101.724607958
 20
510.9740194371
 40
25.0
 50
120.0060969131
 51
239.9939030869
  0
ARC
  8
0
 62
7
  6
CONTINUOUS
 10
-101.724607958
 20
631.9740194371
 40
19.0
 50
311.1395104149
 51
318.8604895851
  0
ARC
  8
0
 62
7
  6
CONTINUOUS
 10
-101.724607958
 20
631.9740194371
 40
19.0
 50
41.1395104149
 51
228.8604895851
  0
ARC
  8
0
 62
7
  6
CONTINUOUS
 10
-101.724607958
 20
461.9740194371
 40
19.0
 50
311.1395104149
 51
318.8604895851
  0
ARC
  8
0
 62
7
  6
CONTINUOUS
 10
-101.724607958
 20
461.9740194371
 40
19.0
 50
131.1395104149
 51
228.8604895851
  0
ARC
  8
0
 62
7
  6
CONTINUOUS
 10
-101.724607958
 20
461.9740194371
 40
19.0
 50
41.1395104149
 51
48.8604895851
  0
ARC
  8
0
 62
7
  6
CONTINUOUS
 10
-101.724607958
 20
291.9740194371
 40
19.0
 50
311.1395104149
 51
318.8604895851
  0
ARC
  8
0
 62
7
  6
CONTINUOUS
 10
-101.724607958
 20
291.9740194371
 40
19.0
 50
131.1395104149
 51
228.8604895851
  0
ARC
  8
0
 62
7
  6
CONTINUOUS
 10
-101.724607958
 20
291.9740194371
 40
19.0
 50
41.1395104149
 51
48.8604895851
  0
ARC
  8
0
 62
9
  6
CONTINUOUS
 10
-101.724607958
 20
510.9740194371
 40
18.0
 50
313.9866136873
 51
46.0133863127
  0
ARC
  8
0
 62
9
  6
CONTINUOUS
 10
-101.724607958
 20
510.9740194371
 40
18.0
 50
133.9866136873
 51
226.0133863127
  0
ARC
  8
0
 62
7
  6
CONTINUOUS
 10
-101.724607958
 20
510.9740194371
 40
17.5
 50
315.59486252
 51
44.40513748
  0
ARC
  8
0
 62
7
  6
CONTINUOUS
 10
-101.724607958
 20
510.9740194371
 40
17.5
 50
135.59486252
 51
224.40513748
  0
ARC
  8
0
 62
7
  6
CONTINUOUS
 10
470.275392042
 20
-204.0259805629
 40
25.0
 50
300.0060969131
 51
59.9939030869
  0
ARC
  8
0
 62
7
  6
CONTINUOUS
 10
470.275392042
 20
-204.0259805629
 40
25.0
 50
120.0060969131
 51
239.9939030869
  0
ARC
  8
0
 62
7
  6
CONTINUOUS
 10
470.275392042
 20
-328.0259805629
 40
19.0
 50
221.1395104149
 51
48.8604895851
  0
ARC
  8
0
 62
7
  6
CONTINUOUS
 10
470.275392042
 20
-328.0259805629
 40
19.0
 50
131.1395104149
 51
138.8604895851
  0
ARC
  8
0
 62
7
  6
CONTINUOUS
 10
470.275392042
 20
-158.0259805629
 40
19.0
 50
221.1395104149
 51
228.8604895851
  0
ARC
  8
0
 62
7
  6
CONTINUOUS
 10
470.275392042
 20
-158.0259805629
 40
19.0
 50
311.1395104149
 51
48.8604895851
  0
ARC
  8
0
 62
7
  6
CONTINUOUS
 10
470.275392042
 20
-158.0259805629
 40
19.0
 50
131.1395104149
 51
138.8604895851
  0
ARC
  8
0
 62
7
  6
CONTINUOUS
 10
470.275392042
 20
11.9740194371
 40
19.0
 50
221.1395104149
 51
228.8604895851
  0
ARC
  8
0
 62
7
  6
CONTINUOUS
 10
470.275392042
 20
11.9740194371
 40
19.0
 50
311.1395104149
 51
48.8604895851
  0
ARC
  8
0
 62
7
  6
CONTINUOUS
 10
470.275392042
 20
11.9740194371
 40
19.0
 50
131.1395104149
 51
138.8604895851
  0
ARC
  8
0
 62
9
  6
CONTINUOUS
 10
470.275392042
 20
-204.0259805629
 40
18.0
 50
313.9866136873
 51
46.0133863127
  0
ARC
  8
0
 62
9
  6
CONTINUOUS
 10
470.275392042
 20
-204.0259805629
 40
18.0
 50
133.9866136873
 51
226.0133863127
  0
ARC
  8
0
 62
7
  6
CONTINUOUS
 10
470.275392042
 20
-204.0259805629
 40
17.5
 50
315.59486252
 51
44.40513748
  0
ARC
  8
0
 62
7
  6
CONTINUOUS
 10
470.275392042
 20
-204.0259805629
 40
17.5
 50
135.59486252
 51
224.40513748
  0
ARC
  8
0
 62
7
  6
CONTINUOUS
 10
470.275392042
 20
510.9740194371
 40
25.0
 50
300.0060969131
 51
59.9939030869
  0
ARC
  8
0
 62
7
  6
CONTINUOUS
 10
470.275392042
 20
510.9740194371
 40
25.0
 50
120.0060969131
 51
239.9939030869
  0
ARC
  8
0
 62
7
  6
CONTINUOUS
 10
470.275392042
 20
291.9740194371
 40
19.0
 50
221.1395104149
 51
228.8604895851
  0
ARC
  8
0
 62
7
  6
CONTINUOUS
 10
470.275392042
 20
291.9740194371
 40
19.0
 50
311.1395104149
 51
48.8604895851
  0
ARC
  8
0
 62
7
  6
CONTINUOUS
 10
470.275392042
 20
291.9740194371
 40
19.0
 50
131.1395104149
 51
138.8604895851
  0
ARC
  8
0
 62
7
  6
CONTINUOUS
 10
470.275392042
 20
461.9740194371
 40
19.0
 50
221.1395104149
 51
228.8604895851
  0
ARC
  8
0
 62
7
  6
CONTINUOUS
 10
470.275392042
 20
461.9740194371
 40
19.0
 50
311.1395104149
 51
48.8604895851
  0
ARC
  8
0
 62
7
  6
CONTINUOUS
 10
470.275392042
 20
461.9740194371
 40
19.0
 50
131.1395104149
 51
138.8604895851
  0
ARC
  8
0
 62
7
  6
CONTINUOUS
 10
470.275392042
 20
631.9740194371
 40
19.0
 50
221.1395104149
 51
228.8604895851
  0
ARC
  8
0
 62
7
  6
CONTINUOUS
 10
470.275392042
 20
631.9740194371
 40
19.0
 50
311.1395104149
 51
138.8604895851
  0
ARC
  8
0
 62
9
  6
CONTINUOUS
 10
470.275392042
 20
510.9740194371
 40
18.0
 50
313.9866136873
 51
46.0133863127
  0
ARC
  8
0
 62
9
  6
CONTINUOUS
 10
470.275392042
 20
510.9740194371
 40
18.0
 50
133.9866136873
 51
226.0133863127
  0
ARC
  8
0
 62
7
  6
CONTINUOUS
 10
470.275392042
 20
510.9740194371
 40
17.5
 50
315.59486252
 51
44.40513748
  0
ARC
  8
0
 62
7
  6
CONTINUOUS
 10
470.275392042
 20
510.9740194371
 40
17.5
 50
135.59486252
 51
224.40513748
  0
ENDSEC
  0
EOF
