999
DXF file: K:\Client\125_Heirloom\001\00\Final_Data\Drawings\LADDER TOWEL WARMERS\wca1000_2.dxf
999
Pro/ENGINEER 2017110 by Parametric Technology Corporation
  0
SECTION
  2
HEADER
  9
$EXTMAX
 10
420.0
 20
297.0
 30
0.0
  9
$EXTMIN
 10
0.0
 20
0.0
 30
0.0
  9
$LIMMIN
 10
0.0
 20
0.0
  9
$LIMMAX
 10
420.0
 20
297.0
  9
$VIEWCTR
 10
210.0
 20
148.5
  9
$VIEWSIZE
 40
297.0
  9
$CLAYER
  8
0
  9
$LTSCALE
 40
23.1
  9
$CELTYPE
  6
BYLAYER
  9
$DIMSCALE
 40
1.0
  9
$DIMASZ
 40
3.0
  9
$DIMEXO
 40
1.0
  9
$DIMDLI
 40
15.96
  9
$DIMEXE
 40
1.0
  9
$DIMCEN
 40
3.78
  9
$DIMLFAC
 40
1.0
  9
$DIMBLK
  1
_FILLED
  9
$DIMALT
 70
0
  9
$DIMALTF
 40
0.0393700787
  9
$DIMTXT
 40
3.0
  9
$AUNITS
 70
0
  9
$PDMODE
 70
3
  9
$PDSIZE
 40
5.0
  9
$TILEMODE
 70
1
  0
ENDSEC
  0
SECTION
  2
TABLES
  0
TABLE
  2
LTYPE
 70
6
  0
LTYPE
  2
BYBLOCK
 70
0
  3

 72
65
 73
0
 40
0.0
  0
LTYPE
  2
BYLAYER
 70
0
  3

 72
65
 73
0
 40
0.0
  0
LTYPE
  2
CONTINUOUS
 70
64
  3
Solid line
 72
65
 73
0
 40
0.0
  0
LTYPE
  2
CENTER
 70
64
  3
____ _ ____ _ ____ _ ____ _ ____ _ ____ _ ____
 72
65
 73
4
 40
0.6
 49
0.375
 49
-0.075
 49
0.075
 49
-0.075
  0
LTYPE
  2
HIDDEN
 70
64
  3
- - - - - - - - - - - - - - - - - - - -
 72
65
 73
2
 40
0.2
 49
0.1
 49
-0.1
  0
LTYPE
  2
PHANTOM
 70
64
  3
_____ _ _ _____ _ _ _____ _ _ _____
 72
65
 73
6
 40
0.8
 49
0.45
 49
-0.05
 49
0.1
 49
-0.05
 49
0.1
 49
-0.05
  0
LTYPE
  2
DOT
 70
64
  3
. . . . . . . . . . . . . . . . . . . .
 72
65
 73
2
 40
0.2
 49
0.1
 49
-0.1
  0
LTYPE
  2
DASHED
 70
64
  3
- - - - - - - - - - - - - - - - - - - -
 72
65
 73
2
 40
0.2
 49
0.1
 49
-0.1
  0
ENDTAB
  0
TABLE
  2
LAYER
 70
36
  0
LAYER
  2
0
 70
0
 62
7
  6
CONTINUOUS
  0
LAYER
  2
DEFAULT_1
 70
0
 62
7
  6
CENTER
  0
LAYER
  2
DEFAULT_2
 70
0
 62
8
  6
HIDDEN
  0
LAYER
  2
DEFAULT_3
 70
0
 62
7
  6
PHANTOM
  0
LAYER
  2
0000_BOM
 70
0
 62
7
  6
CONTINUOUS
  0
LAYER
  2
0000_REV_TABLE
 70
0
 62
7
  6
CONTINUOUS
  0
LAYER
  2
0000_STEVENS_NOTE
 70
0
 62
7
  6
CONTINUOUS
  0
LAYER
  2
01_DATUM_PLANES
 70
0
 62
7
  6
CONTINUOUS
  0
LAYER
  2
01_DEF_PLANES
 70
0
 62
7
  6
CONTINUOUS
  0
LAYER
  2
02_DATUM_COS
 70
0
 62
7
  6
CONTINUOUS
  0
LAYER
  2
99_SOLID
 70
0
 62
7
  6
CONTINUOUS
  0
LAYER
  2
CAD-MASTER_ZINC-PL
 70
0
 62
7
  6
CONTINUOUS
  0
LAYER
  2
CURVE
 70
0
 62
7
  6
CONTINUOUS
  0
LAYER
  2
SKEL
 70
0
 62
7
  6
CONTINUOUS
  0
LAYER
  2
SKETCH
 70
0
 62
7
  6
CONTINUOUS
  0
LAYER
  2
SURFACE
 70
0
 62
7
  6
CONTINUOUS
  0
ENDTAB
  0
TABLE
  2
STYLE
 70
1
  0
STYLE
  2
STANDARD
 70
0
 40
0.0
 41
0.75
 50
0.0
 71
0
 42
0.2
  3
txt
  4

  0
STYLE
  2
TEXTSTYLE_1
 70
0
 40
0.0
 41
0.8
 50
0.0
 71
0
 42
0.2
  3
gdt
  4

  0
ENDTAB
  0
ENDSEC
  0
SECTION
  2
BLOCKS
  0
ENDSEC
  0
SECTION
  2
ENTITIES
  0
LINE
  8
0
 62
7
  6
CONTINUOUS
 10
130.2073269735
 20
-313.1100860348
 11
155.2073269735
 21
-313.1100860348
  0
LINE
  8
0
 62
7
  6
CONTINUOUS
 10
225.7073269735
 20
-220.9191740561
 11
220.7073269735
 21
-220.9191740561
  0
LINE
  8
0
 62
7
  6
CONTINUOUS
 10
215.7073269735
 20
-215.9191740561
 11
155.2073269735
 21
-215.9191740561
  0
LINE
  8
0
 62
7
  6
CONTINUOUS
 10
215.7073269735
 20
-190.9191740561
 11
155.2073269735
 21
-190.9191740561
  0
LINE
  8
0
 62
7
  6
CONTINUOUS
 10
225.7073269735
 20
-185.9191740561
 11
220.7073269735
 21
-185.9191740561
  0
LINE
  8
0
 62
7
  6
CONTINUOUS
 10
130.2073269735
 20
-171.7282620773
 11
155.2073269735
 21
-171.7282620773
  0
LINE
  8
0
 62
7
  6
CONTINUOUS
 10
154.5534622007
 20
523.4269711328
 11
154.6937429878
 21
523.5672419582
  0
LINE
  8
0
 62
7
  6
CONTINUOUS
 10
148.8800597235
 20
517.753558694
 11
149.4017324126
 21
518.2752102913
  0
LINE
  8
0
 62
7
  6
CONTINUOUS
 10
152.3869173592
 20
521.2604163296
 11
154.0208296671
 21
522.8943286376
  0
LINE
  8
0
 62
7
  6
CONTINUOUS
 10
154.0208296671
 20
522.8943286376
 11
154.5534622007
 21
523.4269711328
  0
LINE
  8
0
 62
7
  6
CONTINUOUS
 10
154.6937429878
 20
523.5672419582
 11
155.1995706517
 21
524.0731894574
  0
LINE
  8
0
 62
7
  6
CONTINUOUS
 10
149.4017324126
 20
518.2752102913
 11
152.3869173592
 21
521.2604163296
  0
LINE
  8
0
 62
7
  6
CONTINUOUS
 10
142.7073269735
 20
511.5808259439
 11
148.8800597235
 21
517.753558694
  0
LINE
  8
0
 62
7
  6
CONTINUOUS
 10
155.1995706517
 20
524.0731894574
 11
155.2073269735
 21
524.0808259439
  0
LINE
  8
0
 62
7
  6
CONTINUOUS
 10
130.2073269735
 20
-143.1100860348
 11
155.2073269735
 21
-143.1100860348
  0
POLYLINE
  8
0
 62
7
  6
CONTINUOUS
 66
1
 70
0
  0
VERTEX
  8
0
 62
7
  6
CONTINUOUS
 10
155.2073269735
 20
-215.9191740561
  0
VERTEX
  8
0
 62
7
  6
CONTINUOUS
 10
155.1995719636
 20
-215.9115450063
  0
VERTEX
  8
0
 62
7
  6
CONTINUOUS
 10
150.8199213813
 20
-211.5317684639
  0
SEQEND
  0
LINE
  8
0
 62
7
  6
CONTINUOUS
 10
150.8199213813
 20
-211.5317684639
 11
147.7612711093
 21
-208.4731181919
  0
LINE
  8
0
 62
7
  6
CONTINUOUS
 10
147.7612711093
 20
-208.4731181919
 11
143.3353304271
 21
-204.0480980649
  0
LINE
  8
0
 62
7
  6
CONTINUOUS
 10
143.3353304271
 20
-204.0480980649
 11
142.7073269735
 21
-203.4191740561
  0
LINE
  8
0
 62
7
  6
CONTINUOUS
 10
130.2073269735
 20
-1.7282620773
 11
155.2073269735
 21
-1.7282620773
  0
LINE
  8
0
 62
7
  6
CONTINUOUS
 10
130.2073269735
 20
26.8899139652
 11
155.2073269735
 21
26.8899139652
  0
LINE
  8
0
 62
7
  6
CONTINUOUS
 10
130.2073269735
 20
-313.1100860348
 11
130.2073269735
 21
-171.7282620773
  0
LINE
  8
0
 62
7
  6
CONTINUOUS
 10
130.2073269735
 20
-143.1100860348
 11
130.2073269735
 21
-1.7282620773
  0
LINE
  8
0
 62
7
  6
CONTINUOUS
 10
130.2073269735
 20
26.8899139652
 11
130.2073269735
 21
278.2717379227
  0
LINE
  8
0
 62
7
  6
CONTINUOUS
 10
130.2073269735
 20
306.8899139652
 11
130.2073269735
 21
448.2717379227
  0
LINE
  8
0
 62
7
  6
CONTINUOUS
 10
130.2073269735
 20
476.8899139652
 11
130.2073269735
 21
618.2717379227
  0
LINE
  8
0
 62
7
  6
CONTINUOUS
 10
155.2073269735
 20
-313.1100860348
 11
155.2073269735
 21
-215.9191740561
  0
LINE
  8
0
 62
7
  6
CONTINUOUS
 10
155.2073269735
 20
-190.9191740561
 11
155.2073269735
 21
-171.7282620773
  0
LINE
  8
0
 62
7
  6
CONTINUOUS
 10
155.2073269735
 20
-143.1100860348
 11
155.2073269735
 21
-1.7282620773
  0
LINE
  8
0
 62
7
  6
CONTINUOUS
 10
155.2073269735
 20
26.8899139652
 11
155.2073269735
 21
278.2717379227
  0
LINE
  8
0
 62
7
  6
CONTINUOUS
 10
155.2073269735
 20
306.8899139652
 11
155.2073269735
 21
448.2717379227
  0
LINE
  8
0
 62
7
  6
CONTINUOUS
 10
155.2073269735
 20
476.8899139652
 11
155.2073269735
 21
499.0808259439
  0
LINE
  8
0
 62
7
  6
CONTINUOUS
 10
155.2073269735
 20
524.0808259439
 11
155.2073269735
 21
618.2717379227
  0
LINE
  8
0
 62
7
  6
CONTINUOUS
 10
215.7073269735
 20
524.0808259439
 11
215.7073269735
 21
499.0808259439
  0
LINE
  8
0
 62
7
  6
CONTINUOUS
 10
215.7073269735
 20
-190.9191740561
 11
215.7073269735
 21
-215.9191740561
  0
LINE
  8
0
 62
7
  6
CONTINUOUS
 10
220.7073269735
 20
529.0808259439
 11
220.7073269735
 21
494.0808259439
  0
LINE
  8
0
 62
7
  6
CONTINUOUS
 10
220.7073269735
 20
-185.9191740561
 11
220.7073269735
 21
-220.9191740561
  0
LINE
  8
0
 62
7
  6
CONTINUOUS
 10
225.7073269735
 20
529.5808259439
 11
225.7073269735
 21
493.5808259439
  0
LINE
  8
0
 62
7
  6
CONTINUOUS
 10
225.7073269735
 20
-185.4191740561
 11
225.7073269735
 21
-221.4191740561
  0
LINE
  8
0
 62
7
  6
CONTINUOUS
 10
232.7073269735
 20
536.5808259439
 11
232.7073269735
 21
486.5808259439
  0
LINE
  8
0
 62
7
  6
CONTINUOUS
 10
232.7073269735
 20
-178.4191740561
 11
232.7073269735
 21
-228.4191740561
  0
LINE
  8
0
 62
7
  6
CONTINUOUS
 10
130.2073269735
 20
278.2717379227
 11
155.2073269735
 21
278.2717379227
  0
LINE
  8
0
 62
7
  6
CONTINUOUS
 10
130.2073269735
 20
306.8899139652
 11
155.2073269735
 21
306.8899139652
  0
LINE
  8
0
 62
7
  6
CONTINUOUS
 10
147.1655948952
 20
-198.9610509038
 11
150.821922158
 21
-195.3045788715
  0
LINE
  8
0
 62
7
  6
CONTINUOUS
 10
150.821922158
 20
-195.3045788715
 11
155.0095183215
 21
-191.1169558928
  0
LINE
  8
0
 62
7
  6
CONTINUOUS
 10
155.0095183215
 20
-191.1169558928
 11
155.1995706495
 21
-190.9268105752
  0
LINE
  8
0
 62
7
  6
CONTINUOUS
 10
142.7073269735
 20
-203.4191740561
 11
147.1655948952
 21
-198.9610509038
  0
LINE
  8
0
 62
7
  6
CONTINUOUS
 10
155.1995706495
 20
-190.9268105752
 11
155.2073269735
 21
-190.9191740561
  0
POLYLINE
  8
0
 62
7
  6
CONTINUOUS
 66
1
 70
0
  0
VERTEX
  8
0
 62
7
  6
CONTINUOUS
 10
155.2073269735
 20
499.0808259439
  0
VERTEX
  8
0
 62
7
  6
CONTINUOUS
 10
155.1995719606
 20
499.0884549787
  0
VERTEX
  8
0
 62
7
  6
CONTINUOUS
 10
148.3322261001
 20
505.9559815341
  0
SEQEND
  0
LINE
  8
0
 62
7
  6
CONTINUOUS
 10
148.3322261001
 20
505.9559815341
 11
146.5473732914
 21
507.740779626
  0
LINE
  8
0
 62
7
  6
CONTINUOUS
 10
146.5473732914
 20
507.740779626
 11
142.7073269735
 21
511.5808259439
  0
LINE
  8
0
 62
7
  6
CONTINUOUS
 10
130.2073269735
 20
448.2717379227
 11
155.2073269735
 21
448.2717379227
  0
LINE
  8
0
 62
7
  6
CONTINUOUS
 10
130.2073269735
 20
476.8899139652
 11
155.2073269735
 21
476.8899139652
  0
LINE
  8
0
 62
7
  6
CONTINUOUS
 10
225.7073269735
 20
494.0808259439
 11
220.7073269735
 21
494.0808259439
  0
LINE
  8
0
 62
7
  6
CONTINUOUS
 10
215.7073269735
 20
499.0808259439
 11
155.2073269735
 21
499.0808259439
  0
LINE
  8
0
 62
7
  6
CONTINUOUS
 10
215.7073269735
 20
524.0808259439
 11
155.2073269735
 21
524.0808259439
  0
LINE
  8
0
 62
7
  6
CONTINUOUS
 10
225.7073269735
 20
529.0808259439
 11
220.7073269735
 21
529.0808259439
  0
LINE
  8
0
 62
7
  6
CONTINUOUS
 10
130.2073269735
 20
618.2717379227
 11
155.2073269735
 21
618.2717379227
  0
ARC
  8
0
 62
7
  6
CONTINUOUS
 10
142.7073269735
 20
12.5808259439
 40
19.0
 50
131.1395104149
 51
228.8604895851
  0
ARC
  8
0
 62
7
  6
CONTINUOUS
 10
142.7073269735
 20
632.5808259439
 40
19.0
 50
311.1395104149
 51
228.8604895851
  0
ARC
  8
0
 62
7
  6
CONTINUOUS
 10
142.7073269735
 20
-327.4191740561
 40
19.0
 50
131.1395104149
 51
48.8604895851
  0
ARC
  8
0
 62
7
  6
CONTINUOUS
 10
142.7073269735
 20
-157.4191740561
 40
19.0
 50
131.1395104149
 51
228.8604895851
  0
ARC
  8
0
 62
7
  6
CONTINUOUS
 10
142.7073269735
 20
-157.4191740561
 40
19.0
 50
311.1395104149
 51
48.8604895851
  0
ARC
  8
0
 62
7
  6
CONTINUOUS
 10
142.7073269735
 20
12.5808259439
 40
19.0
 50
311.1395104149
 51
48.8604895851
  0
ARC
  8
0
 62
7
  6
CONTINUOUS
 10
142.7073269735
 20
292.5808259439
 40
19.0
 50
131.1395104149
 51
228.8604895851
  0
ARC
  8
0
 62
7
  6
CONTINUOUS
 10
142.7073269735
 20
292.5808259439
 40
19.0
 50
311.1395104149
 51
48.8604895851
  0
ARC
  8
0
 62
7
  6
CONTINUOUS
 10
142.7073269735
 20
462.5808259439
 40
19.0
 50
131.1395104149
 51
228.8604895851
  0
ARC
  8
0
 62
7
  6
CONTINUOUS
 10
142.7073269735
 20
462.5808259439
 40
19.0
 50
311.1395104149
 51
48.8604895851
  0
ARC
  8
0
 62
7
  6
CONTINUOUS
 10
232.7073269735
 20
529.5808259439
 40
7.0
 50
90.0
 51
180.0
  0
ARC
  8
0
 62
7
  6
CONTINUOUS
 10
232.7073269735
 20
493.5808259439
 40
7.0
 50
180.0
 51
270.0
  0
ARC
  8
0
 62
7
  6
CONTINUOUS
 10
232.7073269735
 20
-221.4191740561
 40
7.0
 50
180.0
 51
270.0
  0
ARC
  8
0
 62
7
  6
CONTINUOUS
 10
232.7073269735
 20
-185.4191740561
 40
7.0
 50
90.0
 51
180.0
  0
ARC
  8
0
 62
7
  6
CONTINUOUS
 10
220.7073269735
 20
-215.9191740561
 40
5.0
 50
180.0
 51
270.0
  0
ARC
  8
0
 62
7
  6
CONTINUOUS
 10
220.7073269735
 20
-190.9191740561
 40
5.0
 50
90.0
 51
180.0
  0
ARC
  8
0
 62
7
  6
CONTINUOUS
 10
220.7073269735
 20
524.0808259439
 40
5.0
 50
90.0
 51
180.0
  0
ARC
  8
0
 62
7
  6
CONTINUOUS
 10
220.7073269735
 20
499.0808259439
 40
5.0
 50
180.0
 51
270.0
  0
ENDSEC
  0
EOF
