999
DXF file: k:\Client\125_Heirloom\001\00\Creo\ASM WITH VIEWS\centrocc-372100_50_side.dxf
999
Pro/ENGINEER 2017110 by Parametric Technology Corporation
  0
SECTION
  2
HEADER
  9
$EXTMAX
 10
420.0
 20
297.0
 30
0.0
  9
$EXTMIN
 10
0.0
 20
-0.0
 30
0.0
  9
$LIMMIN
 10
0.0
 20
-0.0
  9
$LIMMAX
 10
420.0
 20
297.0
  9
$VIEWCTR
 10
210.0
 20
148.5
  9
$VIEWSIZE
 40
297.0
  9
$CLAYER
  8
0
  9
$LTSCALE
 40
23.1
  9
$CELTYPE
  6
BYLAYER
  9
$DIMSCALE
 40
1.0
  9
$DIMASZ
 40
3.0
  9
$DIMEXO
 40
1.0
  9
$DIMDLI
 40
15.96
  9
$DIMEXE
 40
1.0
  9
$DIMCEN
 40
3.78
  9
$DIMLFAC
 40
1.0
  9
$DIMBLK
  1
_FILLED
  9
$DIMALT
 70
0
  9
$DIMALTF
 40
0.0393700787
  9
$DIMTXT
 40
3.0
  9
$AUNITS
 70
0
  9
$PDMODE
 70
3
  9
$PDSIZE
 40
5.0
  9
$TILEMODE
 70
1
  0
ENDSEC
  0
SECTION
  2
TABLES
  0
TABLE
  2
LTYPE
 70
6
  0
LTYPE
  2
BYBLOCK
 70
0
  3

 72
65
 73
0
 40
0.0
  0
LTYPE
  2
BYLAYER
 70
0
  3

 72
65
 73
0
 40
0.0
  0
LTYPE
  2
CONTINUOUS
 70
64
  3
Solid line
 72
65
 73
0
 40
0.0
  0
LTYPE
  2
CENTER
 70
64
  3
____ _ ____ _ ____ _ ____ _ ____ _ ____ _ ____
 72
65
 73
4
 40
0.6
 49
0.375
 49
-0.075
 49
0.075
 49
-0.075
  0
LTYPE
  2
HIDDEN
 70
64
  3
- - - - - - - - - - - - - - - - - - - -
 72
65
 73
2
 40
0.2
 49
0.1
 49
-0.1
  0
LTYPE
  2
PHANTOM
 70
64
  3
_____ _ _ _____ _ _ _____ _ _ _____
 72
65
 73
6
 40
0.8
 49
0.45
 49
-0.05
 49
0.1
 49
-0.05
 49
0.1
 49
-0.05
  0
LTYPE
  2
DOT
 70
64
  3
. . . . . . . . . . . . . . . . . . . .
 72
65
 73
2
 40
0.2
 49
0.1
 49
-0.1
  0
LTYPE
  2
DASHED
 70
64
  3
- - - - - - - - - - - - - - - - - - - -
 72
65
 73
2
 40
0.2
 49
0.1
 49
-0.1
  0
ENDTAB
  0
TABLE
  2
LAYER
 70
36
  0
LAYER
  2
0
 70
0
 62
7
  6
CONTINUOUS
  0
LAYER
  2
DEFAULT_1
 70
0
 62
7
  6
CENTER
  0
LAYER
  2
DEFAULT_2
 70
0
 62
8
  6
HIDDEN
  0
LAYER
  2
DEFAULT_3
 70
0
 62
7
  6
PHANTOM
  0
LAYER
  2
0000_BOM
 70
0
 62
7
  6
CONTINUOUS
  0
LAYER
  2
0000_REV_TABLE
 70
0
 62
7
  6
CONTINUOUS
  0
LAYER
  2
0000_STEVENS_NOTE
 70
0
 62
7
  6
CONTINUOUS
  0
LAYER
  2
CAD-MASTER_ZINC-PL
 70
0
 62
7
  6
CONTINUOUS
  0
LAYER
  2
SHELL
 70
0
 62
7
  6
CONTINUOUS
  0
ENDTAB
  0
TABLE
  2
STYLE
 70
1
  0
STYLE
  2
STANDARD
 70
0
 40
0.0
 41
0.75
 50
0.0
 71
0
 42
0.2
  3
txt
  4

  0
STYLE
  2
TEXTSTYLE_1
 70
0
 40
0.0
 41
0.8
 50
0.0
 71
0
 42
0.2
  3
gdt
  4

  0
ENDTAB
  0
ENDSEC
  0
SECTION
  2
BLOCKS
  0
ENDSEC
  0
SECTION
  2
ENTITIES
  0
LINE
  8
0
 62
7
  6
CONTINUOUS
 10
0.2406754757
 20
391.8686138901
 11
0.2276020869
 21
391.4911800081
  0
LINE
  8
0
 62
7
  6
CONTINUOUS
 10
0.2539724954
 20
392.2382677534
 11
0.2406754757
 21
391.8686138901
  0
LINE
  8
0
 62
7
  6
CONTINUOUS
 10
0.2707503305
 20
391.8935283898
 11
0.327470875
 21
393.4632988187
  0
LINE
  8
0
 62
7
  6
CONTINUOUS
 10
0.2674469172
 20
392.600110796
 11
0.2539724954
 21
392.2382677534
  0
LINE
  8
0
 62
7
  6
CONTINUOUS
 10
0.2810645415
 20
392.9543544017
 11
0.2674469172
 21
392.600110796
  0
LINE
  8
0
 62
7
  6
CONTINUOUS
 10
0.2947946918
 20
393.3012101683
 11
0.2810645415
 21
392.9543544017
  0
LINE
  8
0
 62
7
  6
CONTINUOUS
 10
0.327470875
 20
393.4632988187
 11
0.3914504358
 21
395.0571692967
  0
LINE
  8
0
 62
7
  6
CONTINUOUS
 10
0.3086099445
 20
393.6408898573
 11
0.2947946918
 21
393.3012101683
  0
LINE
  8
0
 62
7
  6
CONTINUOUS
 10
0.3224858807
 20
393.9736053513
 11
0.3086099445
 21
393.6408898573
  0
LINE
  8
0
 62
7
  6
CONTINUOUS
 10
0.3364008575
 20
394.2995686189
 11
0.3224858807
 21
393.9736053513
  0
LINE
  8
0
 62
7
  6
CONTINUOUS
 10
0.3503345259
 20
394.6189628209
 11
0.3364008575
 21
394.2995686189
  0
LINE
  8
0
 62
7
  6
CONTINUOUS
 10
0.3914504358
 20
395.0571692967
 11
0.4626868349
 21
396.6751369368
  0
LINE
  8
0
 62
7
  6
CONTINUOUS
 10
0.3642610973
 20
394.9317995977
 11
0.3503345259
 21
394.6189628209
  0
LINE
  8
0
 62
7
  6
CONTINUOUS
 10
0.3781534342
 20
395.238027557
 11
0.3642610973
 21
394.9317995977
  0
LINE
  8
0
 62
7
  6
CONTINUOUS
 10
0.3919856512
 20
395.5375953175
 11
0.3781534342
 21
395.238027557
  0
LINE
  8
0
 62
7
  6
CONTINUOUS
 10
0.4057330621
 20
395.8304515819
 11
0.3919856512
 21
395.5375953175
  0
LINE
  8
0
 62
7
  6
CONTINUOUS
 10
0.4193721256
 20
396.1165451219
 11
0.4057330621
 21
395.8304515819
  0
LINE
  8
0
 62
7
  6
CONTINUOUS
 10
0.4626868349
 20
396.6751369368
 11
0.5411740308
 21
398.3171937306
  0
LINE
  8
0
 62
7
  6
CONTINUOUS
 10
0.4328843797
 20
396.3959066211
 11
0.4193721256
 21
396.1165451219
  0
LINE
  8
0
 62
7
  6
CONTINUOUS
 10
0.446266632
 20
396.668850829
 11
0.4328843797
 21
396.3959066211
  0
LINE
  8
0
 62
7
  6
CONTINUOUS
 10
0.4595206403
 20
396.9357540617
 11
0.446266632
 21
396.668850829
  0
LINE
  8
0
 62
7
  6
CONTINUOUS
 10
0.4726500268
 20
397.1969926325
 11
0.4595206403
 21
396.9357540617
  0
LINE
  8
0
 62
7
  6
CONTINUOUS
 10
0.4856601217
 20
397.4529428428
 11
0.4726500268
 21
397.1969926325
  0
LINE
  8
0
 62
7
  6
CONTINUOUS
 10
0.498557821
 20
397.7039809749
 11
0.4856601217
 21
397.4529428428
  0
LINE
  8
0
 62
7
  6
CONTINUOUS
 10
0.5411740308
 20
398.3171937306
 11
0.626902357
 21
399.9833268642
  0
LINE
  8
0
 62
7
  6
CONTINUOUS
 10
0.5113512863
 20
397.9504799999
 11
0.498557821
 21
397.7039809749
  0
LINE
  8
0
 62
7
  6
CONTINUOUS
 10
0.5240410341
 20
398.1926426829
 11
0.5113512863
 21
397.9504799999
  0
LINE
  8
0
 62
7
  6
CONTINUOUS
 10
0.5366152304
 20
398.430422516
 11
0.5240410341
 21
398.1926426829
  0
LINE
  8
0
 62
7
  6
CONTINUOUS
 10
0.5490613588
 20
398.6637531906
 11
0.5366152304
 21
398.430422516
  0
LINE
  8
0
 62
7
  6
CONTINUOUS
 10
0.5613672363
 20
398.8925684258
 11
0.5490613588
 21
398.6637531906
  0
LINE
  8
0
 62
7
  6
CONTINUOUS
 10
0.5735210056
 20
399.1168019621
 11
0.5613672363
 21
398.8925684258
  0
LINE
  8
0
 62
7
  6
CONTINUOUS
 10
0.5855111268
 20
399.3363875555
 11
0.5735210056
 21
399.1168019621
  0
LINE
  8
0
 62
7
  6
CONTINUOUS
 10
0.5973263695
 20
399.5512589721
 11
0.5855111268
 21
399.3363875555
  0
LINE
  8
0
 62
7
  6
CONTINUOUS
 10
0.6089562974
 20
399.761358858
 11
0.5973263695
 21
399.5512589721
  0
LINE
  8
0
 62
7
  6
CONTINUOUS
 10
0.6219293643
 20
399.9941551041
 11
0.6089562974
 21
399.761358858
  0
LINE
  8
0
 62
7
  6
CONTINUOUS
 10
2.8273503825
 20
440.2579304604
 11
2.8524881072
 21
440.5841142941
  0
LINE
  8
0
 62
7
  6
CONTINUOUS
 10
0.626905679
 20
399.9833748336
 11
0.6573785491
 21
400.3074915895
  0
LINE
  8
0
 62
7
  6
CONTINUOUS
 10
0.703506591
 20
400.6043842519
 11
0.6219288185
 21
399.9941453436
  0
LINE
  8
0
 62
7
  6
CONTINUOUS
 10
2.8524881072
 20
440.5841142941
 11
2.898794162
 21
440.9079638013
  0
LINE
  8
0
 62
7
  6
CONTINUOUS
 10
0.6573785491
 20
400.3074915895
 11
0.709649577
 21
400.6076089406
  0
LINE
  8
0
 62
7
  6
CONTINUOUS
 10
2.898794162
 20
440.9079638013
 11
2.9660261271
 21
441.228103974
  0
LINE
  8
0
 62
7
  6
CONTINUOUS
 10
0.709649577
 20
400.6076089406
 11
0.7801406061
 21
400.8876966802
  0
LINE
  8
0
 62
7
  6
CONTINUOUS
 10
3.0584212989
 20
442.0496017081
 11
2.6418344819
 21
440.4505091726
  0
LINE
  8
0
 62
7
  6
CONTINUOUS
 10
2.9660261271
 20
441.228103974
 11
3.0539415832
 21
441.5431598041
  0
LINE
  8
0
 62
7
  6
CONTINUOUS
 10
0.7801406061
 20
400.8876966802
 11
0.8664031809
 21
401.1504866268
  0
LINE
  8
0
 62
7
  6
CONTINUOUS
 10
3.0539415832
 20
441.5431598041
 11
3.1622981105
 21
441.8517562833
  0
LINE
  8
0
 62
7
  6
CONTINUOUS
 10
0.8664031809
 20
401.1504866268
 11
0.9666971817
 21
401.3979340713
  0
LINE
  8
0
 62
7
  6
CONTINUOUS
 10
3.1622981105
 20
441.8517562833
 11
3.290753245
 21
442.1525113827
  0
LINE
  8
0
 62
7
  6
CONTINUOUS
 10
1.3265752134
 20
402.0391650867
 11
0.703506591
 21
400.6043842519
  0
LINE
  8
0
 62
7
  6
CONTINUOUS
 10
0.9666971817
 20
401.3979340713
 11
1.0797568596
 21
401.6314743521
  0
LINE
  8
0
 62
7
  6
CONTINUOUS
 10
3.290753245
 20
442.1525113827
 11
3.4386265081
 21
442.4441749481
  0
LINE
  8
0
 62
7
  6
CONTINUOUS
 10
1.0797568596
 20
401.6314743521
 11
1.2046521432
 21
401.8521752282
  0
LINE
  8
0
 62
7
  6
CONTINUOUS
 10
3.4386265081
 20
442.4441749481
 11
3.6051684591
 21
442.7255697834
  0
LINE
  8
0
 62
7
  6
CONTINUOUS
 10
1.2046521432
 20
401.8521752282
 11
1.3407025239
 21
402.0608317311
  0
LINE
  8
0
 62
7
  6
CONTINUOUS
 10
3.9749513283
 20
443.4271459692
 11
3.0584212989
 21
442.0496017081
  0
LINE
  8
0
 62
7
  6
CONTINUOUS
 10
3.6051684591
 20
442.7255697834
 11
3.789629657
 21
442.9955186924
  0
LINE
  8
0
 62
7
  6
CONTINUOUS
 10
1.3407025239
 20
402.0608317311
 11
1.4874220254
 21
402.2580270243
  0
LINE
  8
0
 62
7
  6
CONTINUOUS
 10
3.789629657
 20
442.9955186924
 11
3.991260661
 21
443.2528444791
  0
LINE
  8
0
 62
7
  6
CONTINUOUS
 10
1.4874220254
 20
402.2580270243
 11
1.6444837503
 21
402.4441718803
  0
LINE
  8
0
 62
7
  6
CONTINUOUS
 10
3.991260661
 20
443.2528444791
 11
4.2093120302
 21
443.4963699474
  0
LINE
  8
0
 62
7
  6
CONTINUOUS
 10
480.6343049589
 20
793.868218981
 11
476.260619269
 21
789.17201066
  0
LINE
  8
0
 62
7
  6
CONTINUOUS
 10
1.6444837503
 20
402.4441718803
 11
1.8116976003
 21
402.6195298177
  0
LINE
  8
0
 62
7
  6
CONTINUOUS
 10
4.2093120302
 20
443.4963699474
 11
4.4429391941
 21
443.7249497569
  0
LINE
  8
0
 62
7
  6
CONTINUOUS
 10
1.8116976003
 20
402.6195298177
 11
1.9889975715
 21
402.7842318714
  0
LINE
  8
0
 62
7
  6
CONTINUOUS
 10
4.4429391941
 20
443.7249497569
 11
4.6910356318
 21
443.9376899201
  0
LINE
  8
0
 62
7
  6
CONTINUOUS
 10
1.9889975715
 20
402.7842318714
 11
2.1764367285
 21
402.9382831332
  0
LINE
  8
0
 62
7
  6
CONTINUOUS
 10
5.2914272314
 20
444.4304446513
 11
3.9749513283
 21
443.4271459692
  0
LINE
  8
0
 62
7
  6
CONTINUOUS
 10
4.6910356318
 20
443.9376899201
 11
4.9524589766
 21
444.1337902706
  0
LINE
  8
0
 62
7
  6
CONTINUOUS
 10
471.8345413514
 20
758.5545777147
 11
470.6583112588
 21
757.6800460381
  0
LINE
  8
0
 62
7
  6
CONTINUOUS
 10
485.7820563086
 20
797.683358166
 11
480.6343049589
 21
793.868218981
  0
LINE
  8
0
 62
7
  6
CONTINUOUS
 10
2.1764367285
 20
402.9382831332
 11
2.374189116
 21
403.0815619415
  0
LINE
  8
0
 62
7
  6
CONTINUOUS
 10
4.9524589766
 20
444.1337902706
 11
5.226066862
 21
444.3124506417
  0
LINE
  8
0
 62
7
  6
CONTINUOUS
 10
2.374189116
 20
403.0815619415
 11
2.5825588428
 21
403.2138115788
  0
LINE
  8
0
 62
7
  6
CONTINUOUS
 10
5.226066862
 20
444.3124506417
 11
5.5107169214
 21
444.4728708667
  0
LINE
  8
0
 62
7
  6
CONTINUOUS
 10
2.5825588428
 20
403.2138115788
 11
2.8019975887
 21
403.3346232655
  0
LINE
  8
0
 62
7
  6
CONTINUOUS
 10
491.5478740816
 20
800.5008411831
 11
485.7820563086
 21
797.683358166
  0
LINE
  8
0
 62
7
  6
CONTINUOUS
 10
5.5107169214
 20
444.4728708667
 11
5.8052667882
 21
444.614250779
  0
LINE
  8
0
 62
7
  6
CONTINUOUS
 10
2.8019975887
 20
403.3346232655
 11
3.0331331414
 21
403.4434078482
  0
LINE
  8
0
 62
7
  6
CONTINUOUS
 10
3.7897443764
 20
403.6846226524
 11
2.5040391132
 21
403.1639760969
  0
LINE
  8
0
 62
7
  6
CONTINUOUS
 10
5.8052667882
 20
444.614250779
 11
6.1084983637
 21
444.7358560946
  0
LINE
  8
0
 62
7
  6
CONTINUOUS
 10
3.0331331414
 20
403.4434078482
 11
3.2768136684
 21
403.5393514376
  0
LINE
  8
0
 62
7
  6
CONTINUOUS
 10
472.5553358544
 20
758.8022154207
 11
471.8345413514
 21
758.5545777147
  0
LINE
  8
0
 62
7
  6
CONTINUOUS
 10
6.8632750747
 20
444.948964172
 11
5.2914272314
 21
444.4304446513
  0
LINE
  8
0
 62
7
  6
CONTINUOUS
 10
6.1084983637
 20
444.7358560946
 11
6.4190475423
 21
444.8372850943
  0
LINE
  8
0
 62
7
  6
CONTINUOUS
 10
3.2768136684
 20
403.5393514376
 11
3.5341760484
 21
403.6213465566
  0
LINE
  8
0
 62
7
  6
CONTINUOUS
 10
497.0827894403
 20
802.0949200266
 11
491.5478740816
 21
800.5008411831
  0
LINE
  8
0
 62
7
  6
CONTINUOUS
 10
0.1690535943
 20
374.2414530501
 11
0.1570366872
 21
374.6786706301
  0
LINE
  8
0
 62
7
  6
CONTINUOUS
 10
0.1570366872
 20
374.6786706301
 11
0.1458441788
 21
375.1183377965
  0
LINE
  8
0
 62
7
  6
CONTINUOUS
 10
0.0703654365
 20
373.9101934406
 11
0.0861984734
 21
373.2586223562
  0
LINE
  8
0
 62
7
  6
CONTINUOUS
 10
0.1458441788
 20
375.1183377965
 11
0.1354770552
 21
375.5604558562
  0
LINE
  8
0
 62
7
  6
CONTINUOUS
 10
0.0552458551
 20
374.5580199301
 11
0.0703654365
 21
373.9101934406
  0
LINE
  8
0
 62
7
  6
CONTINUOUS
 10
0.0418495705
 20
375.2035432299
 11
0.0552458551
 21
374.5580199301
  0
LINE
  8
0
 62
7
  6
CONTINUOUS
 10
0.1354770552
 20
375.5604558562
 11
0.1079917954
 21
376.9835137194
  0
LINE
  8
0
 62
7
  6
CONTINUOUS
 10
0.0300767399
 20
375.8522557457
 11
0.0418495705
 21
375.2035432299
  0
LINE
  8
0
 62
7
  6
CONTINUOUS
 10
0.0116568003
 20
377.046881042
 11
0.0207040591
 21
376.4897454281
  0
LINE
  8
0
 62
7
  6
CONTINUOUS
 10
0.0207040591
 20
376.4897454281
 11
0.0300767399
 21
375.8522557457
  0
LINE
  8
0
 62
7
  6
CONTINUOUS
 10
0.1079917954
 20
376.9835137194
 11
0.0888947943
 21
378.4314268842
  0
LINE
  8
0
 62
7
  6
CONTINUOUS
 10
0.0054213172
 20
377.6063083814
 11
0.0116568003
 21
377.046881042
  0
LINE
  8
0
 62
7
  6
CONTINUOUS
 10
0.0888947943
 20
378.4314268842
 11
0.078201703
 21
379.9042160977
  0
LINE
  8
0
 62
7
  6
CONTINUOUS
 10
0.0016465679
 20
378.1688946908
 11
0.0054213172
 21
377.6063083814
  0
LINE
  8
0
 62
7
  6
CONTINUOUS
 10
0.0
 20
378.7351223918
 11
0.0016465679
 21
378.1688946908
  0
LINE
  8
0
 62
7
  6
CONTINUOUS
 10
0.078201703
 20
379.9042160977
 11
0.075920737
 21
381.4018922502
  0
LINE
  8
0
 62
7
  6
CONTINUOUS
 10
0.0001425462
 20
379.2966111607
 11
0.0
 21
378.7351223918
  0
LINE
  8
0
 62
7
  6
CONTINUOUS
 10
0.0016786567
 20
379.8496463114
 11
0.0001425462
 21
379.2966111607
  0
LINE
  8
0
 62
7
  6
CONTINUOUS
 10
0.075920737
 20
381.4018922502
 11
0.0820531647
 21
382.9244570229
  0
LINE
  8
0
 62
7
  6
CONTINUOUS
 10
0.0042402642
 20
380.3945332573
 11
0.0016786567
 21
379.8496463114
  0
LINE
  8
0
 62
7
  6
CONTINUOUS
 10
0.0075005077
 20
380.9315798347
 11
0.0042402642
 21
380.3945332573
  0
LINE
  8
0
 62
7
  6
CONTINUOUS
 10
0.0221823735
 20
383.0075849825
 11
0.0187270439
 21
382.4987847283
  0
LINE
  8
0
 62
7
  6
CONTINUOUS
 10
0.0111690287
 20
381.4610959352
 11
0.0075005077
 21
380.9315798347
  0
LINE
  8
0
 62
7
  6
CONTINUOUS
 10
0.0149877439
 20
381.9833931918
 11
0.0111690287
 21
381.4610959352
  0
LINE
  8
0
 62
7
  6
CONTINUOUS
 10
0.0187270439
 20
382.4987847283
 11
0.0149877439
 21
381.9833931918
  0
LINE
  8
0
 62
7
  6
CONTINUOUS
 10
0.0820531647
 20
382.9244570229
 11
0.091894676
 21
384.0568189369
  0
LINE
  8
0
 62
7
  6
CONTINUOUS
 10
0.0267524517
 20
383.5101001977
 11
0.0221823735
 21
383.0075849825
  0
LINE
  8
0
 62
7
  6
CONTINUOUS
 10
2.8236234073
 20
439.9307873085
 11
2.8273503825
 21
440.2579304604
  0
LINE
  8
0
 62
7
  6
CONTINUOUS
 10
0.091894676
 20
384.0568189369
 11
0.1062539059
 21
385.2025563604
  0
LINE
  8
0
 62
7
  6
CONTINUOUS
 10
0.0338192284
 20
384.0066525962
 11
0.0267524517
 21
383.5101001977
  0
LINE
  8
0
 62
7
  6
CONTINUOUS
 10
0.1062539059
 20
385.2025563604
 11
0.1251250583
 21
386.3616616105
  0
LINE
  8
0
 62
7
  6
CONTINUOUS
 10
0.0426050522
 20
384.4974717399
 11
0.0338192284
 21
384.0066525962
  0
LINE
  8
0
 62
7
  6
CONTINUOUS
 10
0.1251250583
 20
386.3616616105
 11
0.1289873737
 21
386.5710210503
  0
LINE
  8
0
 62
7
  6
CONTINUOUS
 10
0.1289873737
 20
386.5710210503
 11
0.1325804142
 21
386.759451718
  0
LINE
  8
0
 62
7
  6
CONTINUOUS
 10
0.0815431217
 20
386.4014125615
 11
0.0724225901
 21
385.93455947
  0
LINE
  8
0
 62
7
  6
CONTINUOUS
 10
0.1325804142
 20
386.759451718
 11
0.1362912961
 21
386.9482749663
  0
LINE
  8
0
 62
7
  6
CONTINUOUS
 10
0.0523924799
 20
384.982472651
 11
0.0426050522
 21
384.4974717399
  0
LINE
  8
0
 62
7
  6
CONTINUOUS
 10
0.1362912961
 20
386.9482749663
 11
0.1401200605
 21
387.1374908493
  0
LINE
  8
0
 62
7
  6
CONTINUOUS
 10
0.0909180051
 20
386.862038368
 11
0.0815431217
 21
386.4014125615
  0
LINE
  8
0
 62
7
  6
CONTINUOUS
 10
0.0724225901
 20
385.93455947
 11
0.062528597
 21
385.4615406779
  0
LINE
  8
0
 62
7
  6
CONTINUOUS
 10
0.062528597
 20
385.4615406779
 11
0.0523924799
 21
384.982472651
  0
LINE
  8
0
 62
7
  6
CONTINUOUS
 10
0.1401200605
 20
387.1374908493
 11
0.1614410126
 21
388.1068610207
  0
LINE
  8
0
 62
7
  6
CONTINUOUS
 10
0.1614410126
 20
388.1068610207
 11
0.189384954
 21
389.2207795165
  0
LINE
  8
0
 62
7
  6
CONTINUOUS
 10
0.1027187586
 20
387.3162269409
 11
0.0909180051
 21
386.862038368
  0
LINE
  8
0
 62
7
  6
CONTINUOUS
 10
0.1268875399
 20
388.2049374602
 11
0.1152559935
 21
387.7638795567
  0
LINE
  8
0
 62
7
  6
CONTINUOUS
 10
0.1386441631
 20
388.6393926188
 11
0.1268875399
 21
388.2049374602
  0
LINE
  8
0
 62
7
  6
CONTINUOUS
 10
0.1152559935
 20
387.7638795567
 11
0.1027187586
 21
387.3162269409
  0
LINE
  8
0
 62
7
  6
CONTINUOUS
 10
0.189384954
 20
389.2207795165
 11
0.2212868885
 21
390.3478554733
  0
LINE
  8
0
 62
7
  6
CONTINUOUS
 10
0.1645804581
 20
389.4955730674
 11
0.1518609054
 21
389.0669834171
  0
LINE
  8
0
 62
7
  6
CONTINUOUS
 10
0.1908422873
 20
390.3333766044
 11
0.1790470245
 21
389.9403060762
  0
LINE
  8
0
 62
7
  6
CONTINUOUS
 10
0.2025665853
 20
390.7208890343
 11
0.1908422873
 21
390.3333766044
  0
LINE
  8
0
 62
7
  6
CONTINUOUS
 10
0.1518609054
 20
389.0669834171
 11
0.1386441631
 21
388.6393926188
  0
LINE
  8
0
 62
7
  6
CONTINUOUS
 10
0.2148582481
 20
391.1077488934
 11
0.2025665853
 21
390.7208890343
  0
LINE
  8
0
 62
7
  6
CONTINUOUS
 10
0.2212868885
 20
390.3478554733
 11
0.2707503305
 21
391.8935283898
  0
LINE
  8
0
 62
7
  6
CONTINUOUS
 10
0.1790470245
 20
389.9403060762
 11
0.1645804581
 21
389.4955730674
  0
LINE
  8
0
 62
7
  6
CONTINUOUS
 10
0.2276020869
 20
391.4911800081
 11
0.2148582481
 21
391.1077488934
  0
LINE
  8
0
 62
7
  6
CONTINUOUS
 10
2.6418344819
 20
440.4505091726
 11
2.6232539835
 21
439.9001767282
  0
LINE
  8
0
 62
7
  6
CONTINUOUS
 10
0.6106829082
 20
363.6159371186
 11
0.6891500087
 21
362.7538189334
  0
LINE
  8
0
 62
7
  6
CONTINUOUS
 10
0.7687950601
 20
363.6831373895
 11
0.6685392204
 21
364.8626795807
  0
LINE
  8
0
 62
7
  6
CONTINUOUS
 10
0.541858961
 20
364.4534811186
 11
0.6106829082
 21
363.6159371186
  0
LINE
  8
0
 62
7
  6
CONTINUOUS
 10
0.6685392204
 20
364.8626795807
 11
0.5761572025
 21
366.0607378715
  0
LINE
  8
0
 62
7
  6
CONTINUOUS
 10
0.4809388702
 20
365.272573276
 11
0.541858961
 21
364.4534811186
  0
LINE
  8
0
 62
7
  6
CONTINUOUS
 10
0.5761572025
 20
366.0607378715
 11
0.4916586293
 21
367.2773250176
  0
LINE
  8
0
 62
7
  6
CONTINUOUS
 10
0.4263903199
 20
366.0738770648
 11
0.4809388702
 21
365.272573276
  0
LINE
  8
0
 62
7
  6
CONTINUOUS
 10
0.3769069348
 20
366.8580890695
 11
0.4263903199
 21
366.0738770648
  0
LINE
  8
0
 62
7
  6
CONTINUOUS
 10
0.4916586293
 20
367.2773250176
 11
0.4150434958
 21
368.5124410124
  0
LINE
  8
0
 62
7
  6
CONTINUOUS
 10
0.3313742524
 20
367.6259332769
 11
0.3769069348
 21
366.8580890695
  0
LINE
  8
0
 62
7
  6
CONTINUOUS
 10
0.288840632
 20
368.3781554529
 11
0.3313742524
 21
367.6259332769
  0
LINE
  8
0
 62
7
  6
CONTINUOUS
 10
0.4150434958
 20
368.5124410124
 11
0.3463029637
 21
369.7660741402
  0
LINE
  8
0
 62
7
  6
CONTINUOUS
 10
0.2484977759
 20
369.1154173854
 11
0.288840632
 21
368.3781554529
  0
LINE
  8
0
 62
7
  6
CONTINUOUS
 10
0.2109148423
 20
369.8383092775
 11
0.2484977759
 21
369.1154173854
  0
LINE
  8
0
 62
7
  6
CONTINUOUS
 10
0.3463029637
 20
369.7660741402
 11
0.2833098119
 21
371.0858082849
  0
LINE
  8
0
 62
7
  6
CONTINUOUS
 10
0.1800851788
 20
370.5476082963
 11
0.2109148423
 21
369.8383092775
  0
LINE
  8
0
 62
7
  6
CONTINUOUS
 10
0.2833098119
 20
371.0858082849
 11
0.2287416486
 21
372.4254004234
  0
LINE
  8
0
 62
7
  6
CONTINUOUS
 10
0.154106057
 20
371.2438003954
 11
0.1800851788
 21
370.5476082963
  0
LINE
  8
0
 62
7
  6
CONTINUOUS
 10
0.2287416486
 20
372.4254004234
 11
0.2109809268
 21
372.9174395667
  0
LINE
  8
0
 62
7
  6
CONTINUOUS
 10
0.1307160656
 20
371.9273575304
 11
0.154106057
 21
371.2438003954
  0
LINE
  8
0
 62
7
  6
CONTINUOUS
 10
0.1079724506
 20
372.5987714758
 11
0.1307160656
 21
371.9273575304
  0
LINE
  8
0
 62
7
  6
CONTINUOUS
 10
0.2109809268
 20
372.9174395667
 11
0.1955562287
 21
373.3743608478
  0
LINE
  8
0
 62
7
  6
CONTINUOUS
 10
0.0861984734
 20
373.2586223562
 11
0.1079724506
 21
372.5987714758
  0
LINE
  8
0
 62
7
  6
CONTINUOUS
 10
0.1955562287
 20
373.3743608478
 11
0.1818938281
 21
373.8066836351
  0
LINE
  8
0
 62
7
  6
CONTINUOUS
 10
0.1818938281
 20
373.8066836351
 11
0.1690535943
 21
374.2414530501
  0
LINE
  8
0
 62
7
  6
CONTINUOUS
 10
2.6232540088
 20
439.9001755397
 11
3.34733367
 21
405.984985168
  0
LINE
  8
0
 62
7
  6
CONTINUOUS
 10
0.8720214271
 20
360.9016124282
 11
0.9690371527
 21
360.0036671235
  0
LINE
  8
0
 62
7
  6
CONTINUOUS
 10
1.0510524269
 20
360.8393652588
 11
0.9618497365
 21
361.6756959045
  0
LINE
  8
0
 62
7
  6
CONTINUOUS
 10
0.7779273184
 20
361.8162011566
 11
0.8720214271
 21
360.9016124282
  0
LINE
  8
0
 62
7
  6
CONTINUOUS
 10
0.9618497365
 20
361.6756959045
 11
0.8769046443
 21
362.5220846835
  0
LINE
  8
0
 62
7
  6
CONTINUOUS
 10
0.6891500087
 20
362.7538189334
 11
0.7779273184
 21
361.8162011566
  0
LINE
  8
0
 62
7
  6
CONTINUOUS
 10
0.8769046443
 20
362.5220846835
 11
0.7687950601
 21
363.6831373895
  0
LINE
  8
0
 62
7
  6
CONTINUOUS
 10
1.4665206802
 20
356.1754101442
 11
1.6276019952
 21
355.1250479188
  0
LINE
  8
0
 62
7
  6
CONTINUOUS
 10
1.704970844
 20
355.8269711111
 11
1.5387409365
 21
356.9563984922
  0
LINE
  8
0
 62
7
  6
CONTINUOUS
 10
1.3240459101
 20
357.1693387508
 11
1.4665206802
 21
356.1754101442
  0
LINE
  8
0
 62
7
  6
CONTINUOUS
 10
1.5387409365
 20
356.9563984922
 11
1.3667135052
 21
358.2159960735
  0
LINE
  8
0
 62
7
  6
CONTINUOUS
 10
1.1941842581
 20
358.1535121938
 11
1.3240459101
 21
357.1693387508
  0
LINE
  8
0
 62
7
  6
CONTINUOUS
 10
1.3667135052
 20
358.2159960735
 11
1.2060068107
 21
359.4936146579
  0
LINE
  8
0
 62
7
  6
CONTINUOUS
 10
1.076768179
 20
359.0951517679
 11
1.1941842581
 21
358.1535121938
  0
LINE
  8
0
 62
7
  6
CONTINUOUS
 10
1.2060068107
 20
359.4936146579
 11
1.1772586281
 21
359.7340948343
  0
LINE
  8
0
 62
7
  6
CONTINUOUS
 10
0.9690371527
 20
360.0036671235
 11
1.076768179
 21
359.0951517679
  0
LINE
  8
0
 62
7
  6
CONTINUOUS
 10
1.1772586281
 20
359.7340948343
 11
1.1490467356
 21
359.9739672705
  0
LINE
  8
0
 62
7
  6
CONTINUOUS
 10
1.1490467356
 20
359.9739672705
 11
1.1241137083
 21
360.1892866719
  0
LINE
  8
0
 62
7
  6
CONTINUOUS
 10
3.34733367
 20
405.984985168
 11
3.5421275875
 21
404.2942325264
  0
LINE
  8
0
 62
7
  6
CONTINUOUS
 10
1.1241137083
 20
360.1892866719
 11
1.0994700132
 21
360.4052924046
  0
LINE
  8
0
 62
7
  6
CONTINUOUS
 10
1.0994700132
 20
360.4052924046
 11
1.0751161071
 21
360.6219850738
  0
LINE
  8
0
 62
7
  6
CONTINUOUS
 10
1.0751161071
 20
360.6219850738
 11
1.0510524269
 21
360.8393652588
  0
LINE
  8
0
 62
7
  6
CONTINUOUS
 10
2.9836321173
 20
348.9541889274
 11
2.7184675337
 21
350.1926819969
  0
LINE
  8
0
 62
7
  6
CONTINUOUS
 10
2.4479894386
 20
350.6102239318
 11
2.7071348682
 21
349.3819252961
  0
LINE
  8
0
 62
7
  6
CONTINUOUS
 10
2.7184675337
 20
350.1926819969
 11
2.4708693946
 21
351.4180151419
  0
LINE
  8
0
 62
7
  6
CONTINUOUS
 10
2.2127465523
 20
351.7917540925
 11
2.4479894386
 21
350.6102239318
  0
LINE
  8
0
 62
7
  6
CONTINUOUS
 10
2.4708693946
 20
351.4180151419
 11
2.2610698418
 21
352.5205956464
  0
LINE
  8
0
 62
7
  6
CONTINUOUS
 10
1.9988969879
 20
352.9291105599
 11
2.2127465523
 21
351.7917540925
  0
LINE
  8
0
 62
7
  6
CONTINUOUS
 10
2.2610698418
 20
352.5205956464
 11
2.0654985567
 21
353.6127964622
  0
LINE
  8
0
 62
7
  6
CONTINUOUS
 10
1.8048886789
 20
354.0390718639
 11
1.9988969879
 21
352.9291105599
  0
LINE
  8
0
 62
7
  6
CONTINUOUS
 10
2.0654985567
 20
353.6127964622
 11
1.8805668317
 21
354.7124505085
  0
LINE
  8
0
 62
7
  6
CONTINUOUS
 10
1.6276019952
 20
355.1250479188
 11
1.8048886789
 21
354.0390718639
  0
LINE
  8
0
 62
7
  6
CONTINUOUS
 10
1.8805668317
 20
354.7124505085
 11
1.704970844
 21
355.8269711111
  0
LINE
  8
0
 62
7
  6
CONTINUOUS
 10
470.6583112588
 20
757.6800460381
 11
469.793981005
 21
756.4990692004
  0
LINE
  8
0
 62
7
  6
CONTINUOUS
 10
430.075079785
 20
410.6935989682
 11
431.5351193847
 21
411.3564443712
  0
LINE
  8
0
 62
7
  6
CONTINUOUS
 10
467.9876618358
 20
404.6455807557
 11
467.7001860901
 21
404.5423070913
  0
LINE
  8
0
 62
7
  6
CONTINUOUS
 10
4.9218203742
 20
341.2834229365
 11
4.5957291151
 21
342.4560903287
  0
LINE
  8
0
 62
7
  6
CONTINUOUS
 10
4.3292172961
 20
342.772288977
 11
4.7372799004
 21
341.2995666236
  0
LINE
  8
0
 62
7
  6
CONTINUOUS
 10
4.5957291151
 20
342.4560903287
 11
4.2840464212
 21
343.6121735922
  0
LINE
  8
0
 62
7
  6
CONTINUOUS
 10
3.9385540548
 20
344.2396298594
 11
4.3292172961
 21
342.772288977
  0
LINE
  8
0
 62
7
  6
CONTINUOUS
 10
4.2840464212
 20
343.6121735922
 11
3.9867784663
 21
344.7516809107
  0
LINE
  8
0
 62
7
  6
CONTINUOUS
 10
3.5915559306
 20
345.5988140826
 11
3.9385540548
 21
344.2396298594
  0
LINE
  8
0
 62
7
  6
CONTINUOUS
 10
3.9867784663
 20
344.7516809107
 11
3.7039388756
 21
345.8746303454
  0
LINE
  8
0
 62
7
  6
CONTINUOUS
 10
3.2736776479
 20
346.8990237278
 11
3.5915559306
 21
345.5988140826
  0
LINE
  8
0
 62
7
  6
CONTINUOUS
 10
3.7039388756
 20
345.8746303454
 11
3.4355370103
 21
346.9810343056
  0
LINE
  8
0
 62
7
  6
CONTINUOUS
 10
3.4355370103
 20
346.9810343056
 11
3.3683612901
 21
347.2649534391
  0
LINE
  8
0
 62
7
  6
CONTINUOUS
 10
3.3683612901
 20
347.2649534391
 11
3.3020550826
 21
347.5481884783
  0
LINE
  8
0
 62
7
  6
CONTINUOUS
 10
2.9762122144
 20
348.1727587253
 11
3.2736776479
 21
346.8990237278
  0
LINE
  8
0
 62
7
  6
CONTINUOUS
 10
3.3020550826
 20
347.5481884783
 11
3.2366203268
 21
347.8307419934
  0
LINE
  8
0
 62
7
  6
CONTINUOUS
 10
3.2366203268
 20
347.8307419934
 11
3.1720588956
 21
348.1126164672
  0
LINE
  8
0
 62
7
  6
CONTINUOUS
 10
3.1720588956
 20
348.1126164672
 11
3.1083725876
 21
348.3938142837
  0
LINE
  8
0
 62
7
  6
CONTINUOUS
 10
3.1083725876
 20
348.3938142837
 11
3.0455631191
 21
348.6743377182
  0
LINE
  8
0
 62
7
  6
CONTINUOUS
 10
2.7071348682
 20
349.3819252961
 11
2.9762122144
 21
348.1727587253
  0
LINE
  8
0
 62
7
  6
CONTINUOUS
 10
3.0455631191
 20
348.6743377182
 11
2.9836321173
 21
348.9541889274
  0
LINE
  8
0
 62
7
  6
CONTINUOUS
 10
564.6066632421
 20
818.1120232408
 11
561.7679108648
 21
814.4494609435
  0
LINE
  8
0
 62
7
  6
CONTINUOUS
 10
81.0222563552
 20
12.5008861731
 11
80.9471097659
 21
12.5004431366
  0
LINE
  8
0
 62
7
  6
CONTINUOUS
 10
81.0222563552
 20
12.5008861731
 11
110.964404371
 21
12.5102019549
  0
LINE
  8
0
 62
7
  6
CONTINUOUS
 10
537.1960150338
 20
12.5127649989
 11
175.6101599611
 21
12.514382422
  0
LINE
  8
0
 62
7
  6
CONTINUOUS
 10
175.6101567029
 20
12.5143824239
 11
110.9644043991
 21
12.5102019549
  0
LINE
  8
0
 62
7
  6
CONTINUOUS
 10
584.6250233923
 20
12.5067464417
 11
537.1960082018
 21
12.5127649972
  0
LINE
  8
0
 62
7
  6
CONTINUOUS
 10
595.1184103896
 20
12.5008861731
 11
584.6249892585
 21
12.5067464398
  0
LINE
  8
0
 62
7
  6
CONTINUOUS
 10
8.3214915887
 20
330.5784840094
 11
7.8263680714
 21
332.0002290553
  0
LINE
  8
0
 62
7
  6
CONTINUOUS
 10
7.3313832592
 20
332.9353930449
 11
7.9870467734
 21
331.0290986468
  0
LINE
  8
0
 62
7
  6
CONTINUOUS
 10
7.8263680714
 20
332.0002290553
 11
7.3395187064
 21
333.4386594655
  0
LINE
  8
0
 62
7
  6
CONTINUOUS
 10
6.7284252948
 20
334.7544468384
 11
7.3313832592
 21
332.9353930449
  0
LINE
  8
0
 62
7
  6
CONTINUOUS
 10
7.3395187064
 20
333.4386594655
 11
6.8590542947
 21
334.899613358
  0
LINE
  8
0
 62
7
  6
CONTINUOUS
 10
6.1715928372
 20
336.4949856319
 11
6.7284252948
 21
334.7544468384
  0
LINE
  8
0
 62
7
  6
CONTINUOUS
 10
6.8590542947
 20
334.899613358
 11
6.392611968
 21
336.3598415058
  0
LINE
  8
0
 62
7
  6
CONTINUOUS
 10
6.392611968
 20
336.3598415058
 11
5.9420234773
 21
337.8129637348
  0
LINE
  8
0
 62
7
  6
CONTINUOUS
 10
5.6571804708
 20
338.1602888899
 11
6.1715928372
 21
336.4949856319
  0
LINE
  8
0
 62
7
  6
CONTINUOUS
 10
5.9420234773
 20
337.8129637348
 11
5.5948761875
 21
338.9637212659
  0
LINE
  8
0
 62
7
  6
CONTINUOUS
 10
5.1800361229
 20
339.7603182578
 11
5.6571804708
 21
338.1602888899
  0
LINE
  8
0
 62
7
  6
CONTINUOUS
 10
5.5948761875
 20
338.9637212659
 11
5.2577520187
 21
340.1099714582
  0
LINE
  8
0
 62
7
  6
CONTINUOUS
 10
4.7372799004
 20
341.2995666236
 11
5.1800361229
 21
339.7603182578
  0
LINE
  8
0
 62
7
  6
CONTINUOUS
 10
5.2577520187
 20
340.1099714582
 11
4.9218203742
 21
341.2834229365
  0
LINE
  8
0
 62
7
  6
CONTINUOUS
 10
476.260619269
 20
789.17201066
 11
472.8107841531
 21
783.7488809008
  0
LINE
  8
0
 62
7
  6
CONTINUOUS
 10
468.2663444482
 20
404.7706666817
 11
467.9876618358
 21
404.6455807557
  0
LINE
  8
0
 62
7
  6
CONTINUOUS
 10
11.4600572722
 20
322.4269879362
 11
10.9238577881
 21
323.7235339148
  0
LINE
  8
0
 62
7
  6
CONTINUOUS
 10
10.3664207439
 20
324.6768404041
 11
11.3417563907
 21
322.3006324772
  0
LINE
  8
0
 62
7
  6
CONTINUOUS
 10
10.9238577881
 20
323.7235339148
 11
10.386283822
 21
325.0604209248
  0
LINE
  8
0
 62
7
  6
CONTINUOUS
 10
9.4924121205
 20
326.9133242171
 11
10.3664207439
 21
324.6768404041
  0
LINE
  8
0
 62
7
  6
CONTINUOUS
 10
10.386283822
 20
325.0604209248
 11
9.8572756522
 21
326.4143798972
  0
LINE
  8
0
 62
7
  6
CONTINUOUS
 10
9.8572756522
 20
326.4143798972
 11
9.3368502545
 21
327.7854333349
  0
LINE
  8
0
 62
7
  6
CONTINUOUS
 10
8.7037541457
 20
329.0258100448
 11
9.4924121205
 21
326.9133242171
  0
LINE
  8
0
 62
7
  6
CONTINUOUS
 10
9.3368502545
 20
327.7854333349
 11
8.8249533089
 21
329.1735092322
  0
LINE
  8
0
 62
7
  6
CONTINUOUS
 10
8.8249533089
 20
329.1735092322
 11
8.3214915887
 21
330.5784840094
  0
LINE
  8
0
 62
7
  6
CONTINUOUS
 10
7.9870467734
 20
331.0290986468
 11
8.7037541457
 21
329.0258100448
  0
LINE
  8
0
 62
7
  6
CONTINUOUS
 10
106.638804776
 20
218.8172708308
 11
106.5597669245
 21
217.3101351539
  0
LINE
  8
0
 62
7
  6
CONTINUOUS
 10
88.0000930896
 20
77.8725201678
 11
80.9471097591
 21
12.5004430866
  0
LINE
  8
0
 62
7
  6
CONTINUOUS
 10
97.7472633119
 20
159.4825430579
 11
88.0000930896
 21
77.8725201678
  0
LINE
  8
0
 62
7
  6
CONTINUOUS
 10
106.5597669245
 20
217.3101351539
 11
106.5257213587
 21
217.0849072928
  0
LINE
  8
0
 62
7
  6
CONTINUOUS
 10
106.5257344457
 20
217.0849051397
 11
97.7472633119
 21
159.4825430579
  0
LINE
  8
0
 62
7
  6
CONTINUOUS
 10
468.5346598259
 20
404.9166873498
 11
468.2663444482
 21
404.7706666817
  0
LINE
  8
0
 62
7
  6
CONTINUOUS
 10
15.6822520507
 20
313.2175535988
 11
15.0193842207
 21
314.5692613597
  0
LINE
  8
0
 62
7
  6
CONTINUOUS
 10
15.0193842207
 20
314.5692613597
 11
14.375083716
 21
315.9118366406
  0
LINE
  8
0
 62
7
  6
CONTINUOUS
 10
13.6742139993
 20
317.0425754504
 11
15.0733484623
 21
314.1129679284
  0
LINE
  8
0
 62
7
  6
CONTINUOUS
 10
14.375083716
 20
315.9118366406
 11
13.7493975833
 21
317.2453418055
  0
LINE
  8
0
 62
7
  6
CONTINUOUS
 10
13.7493975833
 20
317.2453418055
 11
13.1423826564
 21
318.5698521927
  0
LINE
  8
0
 62
7
  6
CONTINUOUS
 10
12.4368530484
 20
319.7652754989
 11
13.6742139993
 21
317.0425754504
  0
LINE
  8
0
 62
7
  6
CONTINUOUS
 10
13.1423826564
 20
318.5698521927
 11
12.5644271811
 21
319.8620160904
  0
LINE
  8
0
 62
7
  6
CONTINUOUS
 10
12.5644271811
 20
319.8620160904
 11
12.0045510101
 21
321.145595014
  0
LINE
  8
0
 62
7
  6
CONTINUOUS
 10
11.3417563907
 20
322.3006324772
 11
12.4368530484
 21
319.7652754989
  0
LINE
  8
0
 62
7
  6
CONTINUOUS
 10
12.0045510101
 20
321.145595014
 11
11.4600572722
 21
322.4269879362
  0
LINE
  8
0
 62
7
  6
CONTINUOUS
 10
473.1428979144
 20
414.1059094858
 11
472.7373410791
 21
413.8666567799
  0
LINE
  8
0
 62
7
  6
CONTINUOUS
 10
472.7373410791
 20
413.8666567799
 11
471.9282123453
 21
413.3893135422
  0
LINE
  8
0
 62
7
  6
CONTINUOUS
 10
21.6807670386
 20
302.0647423209
 11
20.8277069865
 21
303.5460609849
  0
LINE
  8
0
 62
7
  6
CONTINUOUS
 10
20.8277069865
 20
303.5460609849
 11
19.9823088958
 21
305.0463819149
  0
LINE
  8
0
 62
7
  6
CONTINUOUS
 10
18.4880348121
 20
307.4753350293
 11
20.604858868
 21
303.6568225322
  0
LINE
  8
0
 62
7
  6
CONTINUOUS
 10
19.9823088958
 20
305.0463819149
 11
19.1445404295
 21
306.5656622454
  0
LINE
  8
0
 62
7
  6
CONTINUOUS
 10
19.1445404295
 20
306.5656622454
 11
18.7451267942
 21
307.3016580574
  0
LINE
  8
0
 62
7
  6
CONTINUOUS
 10
18.7451267942
 20
307.3016580574
 11
18.3474872365
 21
308.0420436058
  0
LINE
  8
0
 62
7
  6
CONTINUOUS
 10
18.3474872365
 20
308.0420436058
 11
17.9516391609
 21
308.7868419618
  0
LINE
  8
0
 62
7
  6
CONTINUOUS
 10
16.6802478163
 20
310.9089063038
 11
18.4880348121
 21
307.4753350293
  0
LINE
  8
0
 62
7
  6
CONTINUOUS
 10
17.9516391609
 20
308.7868419618
 11
17.5529863259
 21
309.5449198903
  0
LINE
  8
0
 62
7
  6
CONTINUOUS
 10
17.5529863259
 20
309.5449198903
 11
17.1506665296
 21
310.3183430936
  0
LINE
  8
0
 62
7
  6
CONTINUOUS
 10
17.1506665296
 20
310.3183430936
 11
16.7542351436
 21
311.0889431086
  0
LINE
  8
0
 62
7
  6
CONTINUOUS
 10
16.7542351436
 20
311.0889431086
 11
16.3636701569
 21
311.8566907579
  0
LINE
  8
0
 62
7
  6
CONTINUOUS
 10
15.0733484623
 20
314.1129679284
 11
16.6802478163
 21
310.9089063038
  0
LINE
  8
0
 62
7
  6
CONTINUOUS
 10
16.3636701569
 20
311.8566907579
 11
15.6822520507
 21
313.2175535988
  0
LINE
  8
0
 62
7
  6
CONTINUOUS
 10
3.5421275875
 20
404.2942325264
 11
3.7897441319
 21
403.6846225994
  0
LINE
  8
0
 62
7
  6
CONTINUOUS
 10
106.4732849667
 20
220.2637419975
 11
106.638804776
 21
218.8172708308
  0
LINE
  8
0
 62
7
  6
CONTINUOUS
 10
468.7911158899
 20
405.0826770204
 11
468.5346598259
 21
404.9166873498
  0
LINE
  8
0
 62
7
  6
CONTINUOUS
 10
592.7515843628
 20
350.306142272
 11
593.3914074938
 21
350.4944776787
  0
LINE
  8
0
 62
7
  6
CONTINUOUS
 10
27.2948268399
 20
293.0685034847
 11
26.2665145903
 21
294.6272739417
  0
LINE
  8
0
 62
7
  6
CONTINUOUS
 10
26.2665145903
 20
294.6272739417
 11
25.2636188281
 21
296.1828035581
  0
LINE
  8
0
 62
7
  6
CONTINUOUS
 10
23.1133276188
 20
299.3919841716
 11
26.1622656277
 21
294.5599939917
  0
LINE
  8
0
 62
7
  6
CONTINUOUS
 10
25.2636188281
 20
296.1828035581
 11
24.2862364855
 21
297.7352208253
  0
LINE
  8
0
 62
7
  6
CONTINUOUS
 10
24.2862364855
 20
297.7352208253
 11
23.4100431248
 21
299.1593372688
  0
LINE
  8
0
 62
7
  6
CONTINUOUS
 10
23.4100431248
 20
299.1593372688
 11
22.5415384019
 21
300.6024913398
  0
LINE
  8
0
 62
7
  6
CONTINUOUS
 10
22.5415384019
 20
300.6024913398
 11
21.6807670386
 21
302.0647423209
  0
LINE
  8
0
 62
7
  6
CONTINUOUS
 10
20.604858868
 20
303.6568225322
 11
23.1133276188
 21
299.3919841716
  0
LINE
  8
0
 62
7
  6
CONTINUOUS
 10
0.62693693
 20
399.9834478715
 11
0.6219293643
 21
399.9941551039
  0
LINE
  8
0
 62
7
  6
CONTINUOUS
 10
0.6219293643
 20
399.9941551039
 11
0.6269371129
 21
399.9834478344
  0
LINE
  8
0
 62
7
  6
CONTINUOUS
 10
106.0863514315
 20
221.6298088697
 11
106.4732849667
 21
220.2637419975
  0
LINE
  8
0
 62
7
  6
CONTINUOUS
 10
35.175541644
 20
282.0970548436
 11
33.8357323943
 21
283.8546681076
  0
LINE
  8
0
 62
7
  6
CONTINUOUS
 10
33.8357323943
 20
283.8546681076
 11
33.1987202356
 21
284.7047646705
  0
LINE
  8
0
 62
7
  6
CONTINUOUS
 10
33.1987202356
 20
284.7047646705
 11
32.5656618579
 21
285.559039208
  0
LINE
  8
0
 62
7
  6
CONTINUOUS
 10
29.9609326279
 20
288.9789299055
 11
34.8376478193
 21
282.367245867
  0
LINE
  8
0
 62
7
  6
CONTINUOUS
 10
32.5656618579
 20
285.559039208
 11
31.9365596946
 21
286.417494946
  0
LINE
  8
0
 62
7
  6
CONTINUOUS
 10
31.9365596946
 20
286.417494946
 11
31.3000553661
 21
287.2959003559
  0
LINE
  8
0
 62
7
  6
CONTINUOUS
 10
31.3000553661
 20
287.2959003559
 11
30.6677731599
 21
288.1784909093
  0
LINE
  8
0
 62
7
  6
CONTINUOUS
 10
30.6677731599
 20
288.1784909093
 11
30.0434540848
 21
289.0600045148
  0
LINE
  8
0
 62
7
  6
CONTINUOUS
 10
30.0434540848
 20
289.0600045148
 11
29.4270655165
 21
289.9403979265
  0
LINE
  8
0
 62
7
  6
CONTINUOUS
 10
29.4270655165
 20
289.9403979265
 11
28.3483802677
 21
291.5062598003
  0
LINE
  8
0
 62
7
  6
CONTINUOUS
 10
26.1622656277
 20
294.5599939917
 11
29.9609326279
 21
288.9789299055
  0
LINE
  8
0
 62
7
  6
CONTINUOUS
 10
28.3483802677
 20
291.5062598003
 11
27.2948268399
 21
293.0685034847
  0
LINE
  8
0
 62
7
  6
CONTINUOUS
 10
105.5094116156
 20
222.8785976233
 11
106.0863514315
 21
221.6298088697
  0
LINE
  8
0
 62
7
  6
CONTINUOUS
 10
469.0342205609
 20
405.2676699541
 11
468.7911158899
 21
405.0826770204
  0
LINE
  8
0
 62
7
  6
CONTINUOUS
 10
44.6600781575
 20
270.7161801776
 11
43.3956841415
 21
272.1353346974
  0
LINE
  8
0
 62
7
  6
CONTINUOUS
 10
43.3956841415
 20
272.1353346974
 11
42.1470716493
 21
273.5643453502
  0
LINE
  8
0
 62
7
  6
CONTINUOUS
 10
42.1470716493
 20
273.5643453502
 11
40.7103038922
 21
275.2439824624
  0
LINE
  8
0
 62
7
  6
CONTINUOUS
 10
40.7103038922
 20
275.2439824624
 11
39.2981009013
 21
276.9332397867
  0
LINE
  8
0
 62
7
  6
CONTINUOUS
 10
39.2981009013
 20
276.9332397867
 11
37.906715654
 21
278.6363271045
  0
LINE
  8
0
 62
7
  6
CONTINUOUS
 10
34.8376478193
 20
282.367245867
 11
41.4767781684
 21
274.2059869507
  0
LINE
  8
0
 62
7
  6
CONTINUOUS
 10
37.906715654
 20
278.6363271045
 11
36.532529664
 21
280.357599359
  0
LINE
  8
0
 62
7
  6
CONTINUOUS
 10
36.532529664
 20
280.357599359
 11
35.175541644
 21
282.0970548436
  0
LINE
  8
0
 62
7
  6
CONTINUOUS
 10
104.7716230675
 20
223.9921406728
 11
105.5094116156
 21
222.8785976233
  0
LINE
  8
0
 62
7
  6
CONTINUOUS
 10
53.9793788888
 20
261.0378192327
 11
52.595665526
 21
262.3929224796
  0
LINE
  8
0
 62
7
  6
CONTINUOUS
 10
52.595665526
 20
262.3929224796
 11
51.2166896383
 21
263.7710672004
  0
LINE
  8
0
 62
7
  6
CONTINUOUS
 10
51.2166896383
 20
263.7710672004
 11
49.8780628826
 21
265.1355370988
  0
LINE
  8
0
 62
7
  6
CONTINUOUS
 10
49.8780628826
 20
265.1355370988
 11
48.5479171213
 21
266.5178106962
  0
LINE
  8
0
 62
7
  6
CONTINUOUS
 10
48.5479171213
 20
266.5178106962
 11
47.236185239
 21
267.9074057054
  0
LINE
  8
0
 62
7
  6
CONTINUOUS
 10
47.236185239
 20
267.9074057054
 11
45.9402458093
 21
269.3068713345
  0
LINE
  8
0
 62
7
  6
CONTINUOUS
 10
41.4767781684
 20
274.2059869507
 11
51.4107499548
 21
263.4642415077
  0
LINE
  8
0
 62
7
  6
CONTINUOUS
 10
45.9402458093
 20
269.3068713345
 11
44.6600781575
 21
270.7161801776
  0
LINE
  8
0
 62
7
  6
CONTINUOUS
 10
103.9110706937
 20
224.9497849052
 11
104.7716230675
 21
223.9921406728
  0
LINE
  8
0
 62
7
  6
CONTINUOUS
 10
469.2624817596
 20
405.4707004116
 11
469.0342205609
 21
405.2676699541
  0
LINE
  8
0
 62
7
  6
CONTINUOUS
 10
617.7418304039
 20
355.093826706
 11
619.2232139511
 21
355.771336503
  0
LINE
  8
0
 62
7
  6
CONTINUOUS
 10
64.3529034579
 20
251.7380848846
 11
62.916066335
 21
252.9405632967
  0
LINE
  8
0
 62
7
  6
CONTINUOUS
 10
62.916066335
 20
252.9405632967
 11
61.4884469637
 21
254.1615529989
  0
LINE
  8
0
 62
7
  6
CONTINUOUS
 10
61.4884469637
 20
254.1615529989
 11
60.0700194843
 21
255.4010197122
  0
LINE
  8
0
 62
7
  6
CONTINUOUS
 10
51.4107499548
 20
263.4642415077
 11
68.9704954504
 21
247.9961609068
  0
LINE
  8
0
 62
7
  6
CONTINUOUS
 10
60.0700194843
 20
255.4010197122
 11
58.6608058584
 21
256.6589925483
  0
LINE
  8
0
 62
7
  6
CONTINUOUS
 10
58.6608058584
 20
256.6589925483
 11
58.1887695235
 21
257.086407143
  0
LINE
  8
0
 62
7
  6
CONTINUOUS
 10
58.1887695235
 20
257.086407143
 11
57.7172598518
 21
257.5164204706
  0
LINE
  8
0
 62
7
  6
CONTINUOUS
 10
57.7172598518
 20
257.5164204706
 11
57.2462867315
 21
257.9490456388
  0
LINE
  8
0
 62
7
  6
CONTINUOUS
 10
57.2462867315
 20
257.9490456388
 11
56.775860483
 21
258.3842963284
  0
LINE
  8
0
 62
7
  6
CONTINUOUS
 10
56.775860483
 20
258.3842963284
 11
56.3059916406
 21
258.8221865031
  0
LINE
  8
0
 62
7
  6
CONTINUOUS
 10
56.3059916406
 20
258.8221865031
 11
55.8366906778
 21
259.2627300466
  0
LINE
  8
0
 62
7
  6
CONTINUOUS
 10
55.8366906778
 20
259.2627300466
 11
55.3679675456
 21
259.7059401498
  0
LINE
  8
0
 62
7
  6
CONTINUOUS
 10
55.3679675456
 20
259.7059401498
 11
53.9793788888
 21
261.0378192327
  0
LINE
  8
0
 62
7
  6
CONTINUOUS
 10
431.5351193847
 20
411.3564443712
 11
432.6496657958
 21
412.5936707656
  0
LINE
  8
0
 62
7
  6
CONTINUOUS
 10
77.5482859777
 20
241.8177689239
 11
76.6531149547
 21
242.4363237056
  0
LINE
  8
0
 62
7
  6
CONTINUOUS
 10
76.6531149547
 20
242.4363237056
 11
75.7743944767
 21
243.0496633688
  0
LINE
  8
0
 62
7
  6
CONTINUOUS
 10
75.7743944767
 20
243.0496633688
 11
74.9121486044
 21
243.6578198081
  0
LINE
  8
0
 62
7
  6
CONTINUOUS
 10
74.9121486044
 20
243.6578198081
 11
74.2648076092
 21
244.1187497967
  0
LINE
  8
0
 62
7
  6
CONTINUOUS
 10
74.2648076092
 20
244.1187497967
 11
73.5828165719
 21
244.6085824612
  0
LINE
  8
0
 62
7
  6
CONTINUOUS
 10
73.5828165719
 20
244.6085824612
 11
72.9055233792
 21
245.0995102271
  0
LINE
  8
0
 62
7
  6
CONTINUOUS
 10
72.9055233792
 20
245.0995102271
 11
72.2341272137
 21
245.5907224566
  0
LINE
  8
0
 62
7
  6
CONTINUOUS
 10
72.2341272137
 20
245.5907224566
 11
71.5686424731
 21
246.0822382349
  0
LINE
  8
0
 62
7
  6
CONTINUOUS
 10
71.5686424731
 20
246.0822382349
 11
70.5892925161
 21
246.8142372181
  0
LINE
  8
0
 62
7
  6
CONTINUOUS
 10
70.5892925161
 20
246.8142372181
 11
69.6230332417
 21
247.5469087344
  0
LINE
  8
0
 62
7
  6
CONTINUOUS
 10
69.6230332417
 20
247.5469087344
 11
68.6665394387
 21
248.2827321767
  0
LINE
  8
0
 62
7
  6
CONTINUOUS
 10
68.6665394387
 20
248.2827321767
 11
67.7067360782
 21
249.0319363099
  0
LINE
  8
0
 62
7
  6
CONTINUOUS
 10
67.7067360782
 20
249.0319363099
 11
66.7508821585
 21
249.7890733874
  0
LINE
  8
0
 62
7
  6
CONTINUOUS
 10
66.7508821585
 20
249.7890733874
 11
65.7990020269
 21
250.5541756833
  0
LINE
  8
0
 62
7
  6
CONTINUOUS
 10
65.7990020269
 20
250.5541756833
 11
64.3529034579
 21
251.7380848846
  0
LINE
  8
0
 62
7
  6
CONTINUOUS
 10
102.9693059944
 20
225.7386203441
 11
103.9110706937
 21
224.9497849052
  0
LINE
  8
0
 62
7
  6
CONTINUOUS
 10
472.8107841531
 20
783.7488809008
 11
470.4071406777
 21
777.7847925316
  0
LINE
  8
0
 62
7
  6
CONTINUOUS
 10
469.4744542508
 20
405.6906916645
 11
469.2624817596
 21
405.4707004116
  0
LINE
  8
0
 62
7
  6
CONTINUOUS
 10
102.6243262069
 20
226.0633652472
 11
101.6794263754
 21
226.6279596266
  0
LINE
  8
0
 62
7
  6
CONTINUOUS
 10
101.6794263754
 20
226.6279596266
 11
100.7576524051
 21
227.1795079602
  0
LINE
  8
0
 62
7
  6
CONTINUOUS
 10
100.7576524051
 20
227.1795079602
 11
99.8590319779
 21
227.7180469426
  0
LINE
  8
0
 62
7
  6
CONTINUOUS
 10
99.8590319779
 20
227.7180469426
 11
98.9835895617
 21
228.243609008
  0
LINE
  8
0
 62
7
  6
CONTINUOUS
 10
98.9835895617
 20
228.243609008
 11
98.1313455967
 21
228.7562212516
  0
LINE
  8
0
 62
7
  6
CONTINUOUS
 10
102.3097220098
 20
226.1749652401
 11
102.3095698235
 21
226.1750569569
  0
LINE
  8
0
 62
7
  6
CONTINUOUS
 10
98.1313455967
 20
228.7562212516
 11
97.3767226216
 21
229.2110126675
  0
LINE
  8
0
 62
7
  6
CONTINUOUS
 10
97.3767226216
 20
229.2110126675
 11
96.6412932297
 21
229.655129999
  0
LINE
  8
0
 62
7
  6
CONTINUOUS
 10
96.6412932297
 20
229.655129999
 11
95.92506194
 21
230.088579236
  0
LINE
  8
0
 62
7
  6
CONTINUOUS
 10
95.92506194
 20
230.088579236
 11
95.228029476
 21
230.5113613379
  0
LINE
  8
0
 62
7
  6
CONTINUOUS
 10
95.228029476
 20
230.5113613379
 11
94.5501927276
 21
230.9234721819
  0
LINE
  8
0
 62
7
  6
CONTINUOUS
 10
94.5501927276
 20
230.9234721819
 11
93.8915447755
 21
231.3249025957
  0
LINE
  8
0
 62
7
  6
CONTINUOUS
 10
93.8915447755
 20
231.3249025957
 11
93.2520749701
 21
231.7156384626
  0
LINE
  8
0
 62
7
  6
CONTINUOUS
 10
93.2520749701
 20
231.7156384626
 11
92.6154897447
 21
232.1056479597
  0
LINE
  8
0
 62
7
  6
CONTINUOUS
 10
92.6154897447
 20
232.1056479597
 11
91.9990849121
 21
232.4843395592
  0
LINE
  8
0
 62
7
  6
CONTINUOUS
 10
91.9990849121
 20
232.4843395592
 11
91.4028376972
 21
232.8516830711
  0
LINE
  8
0
 62
7
  6
CONTINUOUS
 10
91.4028376972
 20
232.8516830711
 11
91.1875615424
 21
232.9845742226
  0
LINE
  8
0
 62
7
  6
CONTINUOUS
 10
91.1875615424
 20
232.9845742226
 11
90.9299918216
 21
233.1437611516
  0
LINE
  8
0
 62
7
  6
CONTINUOUS
 10
90.9299918216
 20
233.1437611516
 11
90.1762148302
 21
233.6108368817
  0
LINE
  8
0
 62
7
  6
CONTINUOUS
 10
90.1762148302
 20
233.6108368817
 11
89.3316368572
 21
234.1364419794
  0
LINE
  8
0
 62
7
  6
CONTINUOUS
 10
89.3316368572
 20
234.1364419794
 11
88.4998368264
 21
234.6565892765
  0
LINE
  8
0
 62
7
  6
CONTINUOUS
 10
88.4998368264
 20
234.6565892765
 11
87.3949409209
 21
235.3516177332
  0
LINE
  8
0
 62
7
  6
CONTINUOUS
 10
87.3949409209
 20
235.3516177332
 11
86.3135117562
 21
236.0367662206
  0
LINE
  8
0
 62
7
  6
CONTINUOUS
 10
86.3135117562
 20
236.0367662206
 11
85.2555745026
 21
236.7120681037
  0
LINE
  8
0
 62
7
  6
CONTINUOUS
 10
85.2555745026
 20
236.7120681037
 11
84.2211385422
 21
237.3775358194
  0
LINE
  8
0
 62
7
  6
CONTINUOUS
 10
84.2211385422
 20
237.3775358194
 11
83.210198058
 21
238.0331616566
  0
LINE
  8
0
 62
7
  6
CONTINUOUS
 10
83.210198058
 20
238.0331616566
 11
82.2227327851
 21
238.6789187526
  0
LINE
  8
0
 62
7
  6
CONTINUOUS
 10
68.9704954504
 20
247.9961609068
 11
102.3104846489
 21
226.1750361544
  0
LINE
  8
0
 62
7
  6
CONTINUOUS
 10
82.2227327851
 20
238.6789187526
 11
81.2233532183
 21
239.338187587
  0
LINE
  8
0
 62
7
  6
CONTINUOUS
 10
102.3102664622
 20
226.1746385802
 11
102.9693059944
 21
225.7386203441
  0
LINE
  8
0
 62
7
  6
CONTINUOUS
 10
81.2233532183
 20
239.338187587
 11
80.2491365496
 21
239.9867235489
  0
LINE
  8
0
 62
7
  6
CONTINUOUS
 10
80.2491365496
 20
239.9867235489
 11
79.9011022743
 21
240.2198773232
  0
LINE
  8
0
 62
7
  6
CONTINUOUS
 10
79.9011022743
 20
240.2198773232
 11
79.5219456283
 21
240.4747880752
  0
LINE
  8
0
 62
7
  6
CONTINUOUS
 10
79.5219456283
 20
240.4747880752
 11
79.1211623962
 21
240.7452890739
  0
LINE
  8
0
 62
7
  6
CONTINUOUS
 10
79.1211623962
 20
240.7452890739
 11
78.7234054051
 21
241.0148384402
  0
LINE
  8
0
 62
7
  6
CONTINUOUS
 10
78.7234054051
 20
241.0148384402
 11
78.3286741795
 21
241.2834355438
  0
LINE
  8
0
 62
7
  6
CONTINUOUS
 10
78.3286741795
 20
241.2834355438
 11
77.936968013
 21
241.5510794484
  0
LINE
  8
0
 62
7
  6
CONTINUOUS
 10
77.936968013
 20
241.5510794484
 11
77.5482859777
 21
241.8177689239
  0
LINE
  8
0
 62
7
  6
CONTINUOUS
 10
471.9282123453
 20
413.3893135422
 11
471.5719386654
 21
412.9517614035
  0
LINE
  8
0
 62
7
  6
CONTINUOUS
 10
471.5719386654
 20
412.9517614035
 11
471.0376590576
 21
412.2955759447
  0
LINE
  8
0
 62
7
  6
CONTINUOUS
 10
469.669004464
 20
405.9262424599
 11
469.4744542508
 21
405.6906916645
  0
LINE
  8
0
 62
7
  6
CONTINUOUS
 10
591.848473789
 20
349.7227913785
 11
592.7515843628
 21
350.306142272
  0
LINE
  8
0
 62
7
  6
CONTINUOUS
 10
469.793981005
 20
756.4990692004
 11
469.2933157871
 21
755.0053727678
  0
LINE
  8
0
 62
7
  6
CONTINUOUS
 10
469.8451078178
 20
406.1759002714
 11
469.669004464
 21
405.9262424599
  0
LINE
  8
0
 62
7
  6
CONTINUOUS
 10
555.4766193776
 20
812.2936134769
 11
554.7610593434
 21
810.3276284585
  0
LINE
  8
0
 62
7
  6
CONTINUOUS
 10
470.0017397306
 20
406.4382125724
 11
469.8451078178
 21
406.1759002714
  0
LINE
  8
0
 62
7
  6
CONTINUOUS
 10
470.1378756208
 20
406.7117268364
 11
470.0017397306
 21
406.4382125724
  0
LINE
  8
0
 62
7
  6
CONTINUOUS
 10
617.4567029177
 20
355.0268494724
 11
617.7418304039
 21
355.093826706
  0
LINE
  8
0
 62
7
  6
CONTINUOUS
 10
470.4071406777
 20
777.7847925316
 11
469.1316986303
 21
771.4845144233
  0
LINE
  8
0
 62
7
  6
CONTINUOUS
 10
384.7286579324
 20
328.714499515
 11
384.7261513083
 21
328.7047344744
  0
LINE
  8
0
 62
7
  6
CONTINUOUS
 10
619.2232139511
 20
355.771336503
 11
620.4170185863
 21
356.8943421041
  0
LINE
  8
0
 62
7
  6
CONTINUOUS
 10
609.922917056
 20
353.533557049
 11
617.4571588367
 21
355.0269419515
  0
LINE
  8
0
 62
7
  6
CONTINUOUS
 10
600.8845035358
 20
351.829351089
 11
609.922917056
 21
353.533557049
  0
LINE
  8
0
 62
7
  6
CONTINUOUS
 10
593.3914074957
 20
350.4944777309
 11
600.8845035358
 21
351.829351089
  0
LINE
  8
0
 62
7
  6
CONTINUOUS
 10
432.6496657958
 20
412.5936707656
 11
433.180131087
 21
414.3832398682
  0
LINE
  8
0
 62
7
  6
CONTINUOUS
 10
470.2525757395
 20
406.9949050177
 11
470.1378756208
 21
406.7117268364
  0
LINE
  8
0
 62
7
  6
CONTINUOUS
 10
471.0376590576
 20
412.2955759447
 11
470.8422131459
 21
411.723420138
  0
LINE
  8
0
 62
7
  6
CONTINUOUS
 10
470.8422131459
 20
411.723420138
 11
470.5824036848
 21
410.9627972802
  0
LINE
  8
0
 62
7
  6
CONTINUOUS
 10
470.3453104857
 20
407.286024163
 11
470.2525757395
 21
406.9949050177
  0
LINE
  8
0
 62
7
  6
CONTINUOUS
 10
591.186061656
 20
348.8682019966
 11
591.848473789
 21
349.7227913785
  0
LINE
  8
0
 62
7
  6
CONTINUOUS
 10
467.7001860901
 20
404.5423070913
 11
467.4056595583
 21
404.4613058561
  0
LINE
  8
0
 62
7
  6
CONTINUOUS
 10
559.5110394147
 20
233.6454652757
 11
559.7592703178
 21
231.3305380994
  0
LINE
  8
0
 62
7
  6
CONTINUOUS
 10
623.5146926006
 20
410.7716018466
 11
623.4767944715
 21
411.135676937
  0
LINE
  8
0
 62
7
  6
CONTINUOUS
 10
559.6123941737
 20
232.6734501162
 11
559.3816981574
 21
234.9484069333
  0
LINE
  8
0
 62
7
  6
CONTINUOUS
 10
559.2899783859
 20
235.9213792043
 11
559.5110394147
 21
233.6454652757
  0
LINE
  8
0
 62
7
  6
CONTINUOUS
 10
468.9908277543
 20
764.0376650711
 11
469.0717765074
 21
763.1970161777
  0
LINE
  8
0
 62
7
  6
CONTINUOUS
 10
559.3816981574
 20
234.9484069333
 11
559.1735570475
 21
237.2255401493
  0
LINE
  8
0
 62
7
  6
CONTINUOUS
 10
473.9027177142
 20
419.0566531492
 11
473.9299206162
 21
418.7532768445
  0
LINE
  8
0
 62
7
  6
CONTINUOUS
 10
559.091488882
 20
238.1993752273
 11
559.2899783859
 21
235.9213792043
  0
LINE
  8
0
 62
7
  6
CONTINUOUS
 10
595.1184103896
 20
12.5004430866
 11
592.2743279763
 21
45.748729059
  0
LINE
  8
0
 62
7
  6
CONTINUOUS
 10
559.1735570475
 20
237.2255401493
 11
558.988006789
 21
239.5046265169
  0
LINE
  8
0
 62
7
  6
CONTINUOUS
 10
558.9155985137
 20
240.4792260997
 11
559.091488882
 21
238.1993752273
  0
LINE
  8
0
 62
7
  6
CONTINUOUS
 10
558.988006789
 20
239.5046265169
 11
558.8250581918
 21
241.7854373754
  0
LINE
  8
0
 62
7
  6
CONTINUOUS
 10
589.0153930555
 20
103.8954608576
 11
587.2291474468
 21
129.539784959
  0
LINE
  8
0
 62
7
  6
CONTINUOUS
 10
558.3733808023
 20
249.7721639384
 11
559.5622050134
 21
232.5155470335
  0
LINE
  8
0
 62
7
  6
CONTINUOUS
 10
558.7623092052
 20
242.7607057074
 11
558.9155985137
 21
240.4792260997
  0
LINE
  8
0
 62
7
  6
CONTINUOUS
 10
558.8250581918
 20
241.7854373754
 11
558.6823671279
 21
244.1092580222
  0
LINE
  8
0
 62
7
  6
CONTINUOUS
 10
592.2743279763
 20
45.748729059
 11
590.5005162139
 21
76.095562575
  0
LINE
  8
0
 62
7
  6
CONTINUOUS
 10
558.6294523495
 20
245.0851090877
 11
558.7623092052
 21
242.7607057074
  0
LINE
  8
0
 62
7
  6
CONTINUOUS
 10
432.3510021457
 20
449.5244215511
 11
432.368850918
 21
449.1977410973
  0
LINE
  8
0
 62
7
  6
CONTINUOUS
 10
590.5005162139
 20
76.095562575
 11
589.0153930555
 21
103.8954608576
  0
LINE
  8
0
 62
7
  6
CONTINUOUS
 10
558.6823671279
 20
244.1092580222
 11
558.5631038083
 21
246.4343984613
  0
LINE
  8
0
 62
7
  6
CONTINUOUS
 10
558.5200225279
 20
247.4107332013
 11
558.6294523495
 21
245.0851090877
  0
LINE
  8
0
 62
7
  6
CONTINUOUS
 10
558.5631038083
 20
246.4343984613
 11
558.4672665411
 21
248.7606227021
  0
LINE
  8
0
 62
7
  6
CONTINUOUS
 10
473.89283766
 20
419.3088989407
 11
473.9027177142
 21
419.0566531492
  0
LINE
  8
0
 62
7
  6
CONTINUOUS
 10
558.4340180484
 20
249.7373420573
 11
558.5200225279
 21
247.4107332013
  0
LINE
  8
0
 62
7
  6
CONTINUOUS
 10
558.4672665411
 20
248.7606227021
 11
558.3948536343
 21
251.0876947539
  0
LINE
  8
0
 62
7
  6
CONTINUOUS
 10
623.5735930154
 20
410.3743229637
 11
623.5580119343
 21
410.9294813667
  0
LINE
  8
0
 62
7
  6
CONTINUOUS
 10
558.3714372191
 20
252.0646996652
 11
558.4340180484
 21
249.7373420573
  0
LINE
  8
0
 62
7
  6
CONTINUOUS
 10
468.9538841893
 20
766.1277711113
 11
468.9608650674
 21
765.8388666826
  0
LINE
  8
0
 62
7
  6
CONTINUOUS
 10
468.9468317315
 20
766.4227666215
 11
468.9538841893
 21
766.1277711113
  0
LINE
  8
0
 62
7
  6
CONTINUOUS
 10
468.9608650674
 20
765.8388666826
 11
468.967613198
 21
765.5567807176
  0
LINE
  8
0
 62
7
  6
CONTINUOUS
 10
468.9398884572
 20
766.723094467
 11
468.9468317315
 21
766.4227666215
  0
LINE
  8
0
 62
7
  6
CONTINUOUS
 10
468.967613198
 20
765.5567807176
 11
468.9739069425
 21
765.2825703539
  0
LINE
  8
0
 62
7
  6
CONTINUOUS
 10
468.9348602764
 20
766.9518000189
 11
468.9398884572
 21
766.723094467
  0
LINE
  8
0
 62
7
  6
CONTINUOUS
 10
433.1467335921
 20
416.4320365249
 11
432.4359084453
 21
449.1736694138
  0
LINE
  8
0
 62
7
  6
CONTINUOUS
 10
558.3948536343
 20
251.0876947539
 11
558.3458633958
 21
253.4153786261
  0
LINE
  8
0
 62
7
  6
CONTINUOUS
 10
468.9739069425
 20
765.2825703539
 11
468.9793985624
 21
765.0177344868
  0
LINE
  8
0
 62
7
  6
CONTINUOUS
 10
468.9793985624
 20
765.0177344868
 11
468.9839144443
 21
764.7633307069
  0
LINE
  8
0
 62
7
  6
CONTINUOUS
 10
469.2270506104
 20
754.0379890145
 11
470.9078603788
 21
654.4295444254
  0
LINE
  8
0
 62
7
  6
CONTINUOUS
 10
558.3322783479
 20
254.3925700343
 11
558.3714372191
 21
252.0646996652
  0
LINE
  8
0
 62
7
  6
CONTINUOUS
 10
433.180131087
 20
414.3832398682
 11
433.1467335921
 21
416.4320365249
  0
LINE
  8
0
 62
7
  6
CONTINUOUS
 10
470.9078603788
 20
654.4295444254
 11
472.4651626853
 21
540.7394554961
  0
LINE
  8
0
 62
7
  6
CONTINUOUS
 10
468.9839144443
 20
764.7633307069
 11
468.9871684719
 21
764.5192710179
  0
LINE
  8
0
 62
7
  6
CONTINUOUS
 10
472.4651626853
 20
540.7394554961
 11
473.8928107161
 21
419.3115730564
  0
LINE
  8
0
 62
7
  6
CONTINUOUS
 10
558.3458633958
 20
253.4153786261
 11
558.3202941337
 21
255.7434383279
  0
LINE
  8
0
 62
7
  6
CONTINUOUS
 10
468.9904359097
 20
764.0731117401
 11
468.9908450269
 21
764.0355317597
  0
LINE
  8
0
 62
7
  6
CONTINUOUS
 10
468.9871684719
 20
764.5192710179
 11
468.989112979
 21
764.2864623446
  0
LINE
  8
0
 62
7
  6
CONTINUOUS
 10
623.5179798651
 20
410.3742741008
 11
623.5146926006
 21
410.7716018466
  0
LINE
  8
0
 62
7
  6
CONTINUOUS
 10
558.3166154237
 20
256.6791420581
 11
558.3322783479
 21
254.3925700343
  0
LINE
  8
0
 62
7
  6
CONTINUOUS
 10
468.989112979
 20
764.2864623446
 11
468.9904359097
 21
764.0731117401
  0
LINE
  8
0
 62
7
  6
CONTINUOUS
 10
558.3202941337
 20
255.7434383279
 11
558.3181441559
 21
258.0716378688
  0
LINE
  8
0
 62
7
  6
CONTINUOUS
 10
595.1184103896
 20
12.5004434286
 11
595.1184103896
 21
12.5008861731
  0
LINE
  8
0
 62
7
  6
CONTINUOUS
 10
558.3235421928
 20
258.9657574832
 11
558.3166154237
 21
256.6791420581
  0
LINE
  8
0
 62
7
  6
CONTINUOUS
 10
558.4287346645
 20
265.8633910779
 11
558.3733808023
 21
249.7721639384
  0
LINE
  8
0
 62
7
  6
CONTINUOUS
 10
626.2928163643
 20
414.5484550228
 11
628.2371427326
 21
811.9898080996
  0
LINE
  8
0
 62
7
  6
CONTINUOUS
 10
558.3181441559
 20
258.0716378688
 11
558.3394117705
 21
260.3997412579
  0
LINE
  8
0
 62
7
  6
CONTINUOUS
 10
558.3530570522
 20
261.252192737
 11
558.3235421928
 21
258.9657574832
  0
LINE
  8
0
 62
7
  6
CONTINUOUS
 10
558.3394117705
 20
260.3997412579
 11
558.3840952854
 21
262.7275125046
  0
LINE
  8
0
 62
7
  6
CONTINUOUS
 10
558.4051583989
 20
263.5382242467
 11
558.3530570522
 21
261.252192737
  0
LINE
  8
0
 62
7
  6
CONTINUOUS
 10
558.3840952854
 20
262.7275125046
 11
558.4521930086
 21
265.0547156183
  0
LINE
  8
0
 62
7
  6
CONTINUOUS
 10
558.4816039888
 20
265.8702612418
 11
558.4051583989
 21
263.5382242467
  0
LINE
  8
0
 62
7
  6
CONTINUOUS
 10
558.4521930086
 20
265.0547156183
 11
558.5500017543
 21
267.5220774326
  0
LINE
  8
0
 62
7
  6
CONTINUOUS
 10
470.53964706
 20
410.5219967317
 11
470.4430101096
 21
408.1896773106
  0
LINE
  8
0
 62
7
  6
CONTINUOUS
 10
621.4771492314
 20
359.7882085
 11
623.5735930154
 21
410.3743229637
  0
LINE
  8
0
 62
7
  6
CONTINUOUS
 10
558.5815639983
 20
268.2014075119
 11
558.4816039888
 21
265.8702612418
  0
LINE
  8
0
 62
7
  6
CONTINUOUS
 10
469.1316986303
 20
771.4845144233
 11
468.9348611123
 21
766.9517953885
  0
LINE
  8
0
 62
7
  6
CONTINUOUS
 10
558.5500017543
 20
267.5220774326
 11
558.6741448749
 21
269.9882531489
  0
LINE
  8
0
 62
7
  6
CONTINUOUS
 10
558.7050367244
 20
270.5314255149
 11
558.5815639983
 21
268.2014075119
  0
LINE
  8
0
 62
7
  6
CONTINUOUS
 10
558.6741448749
 20
269.9882531489
 11
558.8246203515
 21
272.4529612163
  0
LINE
  8
0
 62
7
  6
CONTINUOUS
 10
558.8520204639
 20
272.8600777087
 11
558.7050367244
 21
270.5314255149
  0
LINE
  8
0
 62
7
  6
CONTINUOUS
 10
469.2933157871
 20
755.0053727678
 11
469.2270506104
 21
754.0379890155
  0
LINE
  8
0
 62
7
  6
CONTINUOUS
 10
559.4986316213
 20
280.8533829159
 11
558.4287346645
 21
265.8633910779
  0
LINE
  8
0
 62
7
  6
CONTINUOUS
 10
558.8246203515
 20
272.4529612163
 11
559.0014261657
 21
274.9159200836
  0
LINE
  8
0
 62
7
  6
CONTINUOUS
 10
559.0225135138
 20
275.1871265512
 11
558.8520204639
 21
272.8600777087
  0
LINE
  8
0
 62
7
  6
CONTINUOUS
 10
470.487628895
 20
408.1897285037
 11
470.4632464229
 21
407.8851657939
  0
LINE
  8
0
 62
7
  6
CONTINUOUS
 10
559.0014261657
 20
274.9159200836
 11
559.2045602987
 21
277.3768481997
  0
LINE
  8
0
 62
7
  6
CONTINUOUS
 10
559.2165141708
 20
277.5123345002
 11
559.0225135138
 21
275.1871265512
  0
LINE
  8
0
 62
7
  6
CONTINUOUS
 10
559.2045602987
 20
277.3768481997
 11
559.2106884513
 21
277.4425099471
  0
LINE
  8
0
 62
7
  6
CONTINUOUS
 10
559.4340207318
 20
279.8354640137
 11
559.2165141708
 21
277.5123345002
  0
LINE
  8
0
 62
7
  6
CONTINUOUS
 10
470.5824036848
 20
410.9627972802
 11
470.5395980725
 21
410.5219986724
  0
LINE
  8
0
 62
7
  6
CONTINUOUS
 10
559.5657018947
 20
281.0423096172
 11
559.4340207318
 21
279.8354640137
  0
LINE
  8
0
 62
7
  6
CONTINUOUS
 10
559.5610358255
 20
280.9995455275
 11
559.6974126945
 21
282.0682779805
  0
LINE
  8
0
 62
7
  6
CONTINUOUS
 10
559.7221093346
 20
282.2461986295
 11
559.5657018947
 21
281.0423096172
  0
LINE
  8
0
 62
7
  6
CONTINUOUS
 10
559.6974126945
 20
282.0682779805
 11
559.86084396
 21
283.1805331567
  0
LINE
  8
0
 62
7
  6
CONTINUOUS
 10
559.9031437531
 20
283.4466319494
 11
559.7221093346
 21
282.2461986295
  0
LINE
  8
0
 62
7
  6
CONTINUOUS
 10
470.4632464229
 20
407.8851657939
 11
470.4156704999
 21
407.5833543843
  0
LINE
  8
0
 62
7
  6
CONTINUOUS
 10
559.86084396
 20
283.1805331567
 11
560.0453269476
 21
284.2894920299
  0
LINE
  8
0
 62
7
  6
CONTINUOUS
 10
560.1087058519
 20
284.6431104761
 11
559.9031437531
 21
283.4466319494
  0
LINE
  8
0
 62
7
  6
CONTINUOUS
 10
560.0453269476
 20
284.2894920299
 11
560.2547120063
 21
285.4148173785
  0
LINE
  8
0
 62
7
  6
CONTINUOUS
 10
621.1997725971
 20
358.3406087707
 11
621.477149205
 21
359.7882085463
  0
LINE
  8
0
 62
7
  6
CONTINUOUS
 10
560.3386963324
 20
285.8351351084
 11
560.1087058519
 21
284.6431104761
  0
LINE
  8
0
 62
7
  6
CONTINUOUS
 10
560.2547120063
 20
285.4148173785
 11
560.4857562898
 21
286.5358962652
  0
LINE
  8
0
 62
7
  6
CONTINUOUS
 10
560.5930158965
 20
287.0222067453
 11
560.3386963324
 21
285.8351351084
  0
LINE
  8
0
 62
7
  6
CONTINUOUS
 10
560.4857562898
 20
286.5358962652
 11
560.7383765683
 21
287.6523103532
  0
LINE
  8
0
 62
7
  6
CONTINUOUS
 10
560.8549971516
 20
288.1364607494
 11
560.5930158965
 21
287.0222067453
  0
LINE
  8
0
 62
7
  6
CONTINUOUS
 10
470.4156704999
 20
407.5833543843
 11
470.3453104857
 21
407.286024163
  0
LINE
  8
0
 62
7
  6
CONTINUOUS
 10
562.8901109916
 20
294.7915253633
 11
559.4986316213
 21
280.8533829159
  0
LINE
  8
0
 62
7
  6
CONTINUOUS
 10
560.7383765683
 20
287.6523103532
 11
561.0124896116
 21
288.7636413055
  0
LINE
  8
0
 62
7
  6
CONTINUOUS
 10
561.1384349612
 20
289.2454496141
 11
560.8549971516
 21
288.1364607494
  0
LINE
  8
0
 62
7
  6
CONTINUOUS
 10
561.0124896116
 20
288.7636413055
 11
561.30801219
 21
289.8694707854
  0
LINE
  8
0
 62
7
  6
CONTINUOUS
 10
561.4432460953
 20
290.3487550026
 11
561.1384349612
 21
289.2454496141
  0
LINE
  8
0
 62
7
  6
CONTINUOUS
 10
561.30801219
 20
289.8694707854
 11
561.6248610732
 21
290.9693804559
  0
LINE
  8
0
 62
7
  6
CONTINUOUS
 10
561.7693471109
 20
291.4459583689
 11
561.4432460953
 21
290.3487550026
  0
LINE
  8
0
 62
7
  6
CONTINUOUS
 10
561.6248610732
 20
290.9693804559
 11
561.9629456722
 21
292.0629506706
  0
LINE
  8
0
 62
7
  6
CONTINUOUS
 10
562.1166290149
 20
292.5366414354
 11
561.7693471109
 21
291.4459583689
  0
LINE
  8
0
 62
7
  6
CONTINUOUS
 10
561.9629456722
 20
292.0629506706
 11
562.3221243577
 21
293.1497730464
  0
LINE
  8
0
 62
7
  6
CONTINUOUS
 10
562.4849341129
 20
293.6204049005
 11
562.1166290149
 21
292.5366414354
  0
LINE
  8
0
 62
7
  6
CONTINUOUS
 10
562.3221243577
 20
293.1497730464
 11
562.7022341034
 21
294.2294531654
  0
LINE
  8
0
 62
7
  6
CONTINUOUS
 10
562.8740993173
 20
294.6968546384
 11
562.4849341129
 21
293.6204049005
  0
LINE
  8
0
 62
7
  6
CONTINUOUS
 10
562.7022341034
 20
294.2294531654
 11
563.1031118216
 21
295.3015969015
  0
LINE
  8
0
 62
7
  6
CONTINUOUS
 10
563.2839615405
 20
295.7655965231
 11
562.8740993173
 21
294.6968546384
  0
LINE
  8
0
 62
7
  6
CONTINUOUS
 10
563.1031118216
 20
295.3015969015
 11
563.5507974569
 21
296.4300443165
  0
LINE
  8
0
 62
7
  6
CONTINUOUS
 10
563.7143576948
 20
296.8262364288
 11
563.2839615405
 21
295.7655965231
  0
LINE
  8
0
 62
7
  6
CONTINUOUS
 10
563.5507974569
 20
296.4300443165
 11
564.0214666492
 21
297.5491006038
  0
LINE
  8
0
 62
7
  6
CONTINUOUS
 10
564.1651246928
 20
297.8783802297
 11
563.7143576948
 21
296.8262364288
  0
LINE
  8
0
 62
7
  6
CONTINUOUS
 10
564.0214666492
 20
297.5491006038
 11
564.5149248253
 21
298.6582955476
  0
LINE
  8
0
 62
7
  6
CONTINUOUS
 10
564.6275129237
 20
298.9030845149
 11
564.1651246928
 21
297.8783802297
  0
LINE
  8
0
 62
7
  6
CONTINUOUS
 10
564.5149248253
 20
298.6582955476
 11
565.0309774119
 21
299.7571589319
  0
LINE
  8
0
 62
7
  6
CONTINUOUS
 10
565.109239143
 20
299.918839856
 11
564.6275129237
 21
298.9030845149
  0
LINE
  8
0
 62
7
  6
CONTINUOUS
 10
569.1208152072
 20
307.5318833605
 11
562.8901109916
 21
294.7915253633
  0
LINE
  8
0
 62
7
  6
CONTINUOUS
 10
565.0309774119
 20
299.7571589319
 11
565.5694298357
 21
300.8452205409
  0
LINE
  8
0
 62
7
  6
CONTINUOUS
 10
565.6101488448
 20
300.9252728663
 11
565.109239143
 21
299.918839856
  0
LINE
  8
0
 62
7
  6
CONTINUOUS
 10
565.5694298357
 20
300.8452205409
 11
565.5892965159
 21
300.883376149
  0
LINE
  8
0
 62
7
  6
CONTINUOUS
 10
566.1300875233
 20
301.9220101588
 11
565.6101488448
 21
300.9252728663
  0
LINE
  8
0
 62
7
  6
CONTINUOUS
 10
591.1854280218
 20
348.8670155714
 11
569.1208152072
 21
307.5318833605
  0
LINE
  8
0
 62
7
  6
CONTINUOUS
 10
620.4170185863
 20
356.8943421041
 11
621.1997725971
 21
358.3406087707
  0
LINE
  8
0
 62
5
  6
CONTINUOUS
 10
640.7371426345
 20
25.0
 11
615.7371426345
 21
0.0
  0
LINE
  8
0
 62
7
  6
CONTINUOUS
 10
561.7679130683
 20
814.4494619366
 11
556.152906846
 21
812.9162792682
  0
LINE
  8
0
 62
7
  6
CONTINUOUS
 10
6.4190475423
 20
444.8372850943
 11
6.7355529466
 21
444.9182364593
  0
LINE
  8
0
 62
7
  6
CONTINUOUS
 10
3.5341760484
 20
403.6213465566
 11
3.8067533699
 21
403.6878834633
  0
LINE
  8
0
 62
7
  6
CONTINUOUS
 10
3.6301623807
 20
403.6475160596
 11
3.6529776763
 21
403.653085915
  0
LINE
  8
0
 62
7
  6
CONTINUOUS
 10
3.6529776763
 20
403.653085915
 11
3.6654350386
 21
403.656077931
  0
LINE
  8
0
 62
7
  6
CONTINUOUS
 10
6.7355529466
 20
444.9182364593
 11
6.9809988932
 21
444.9661766903
  0
LINE
  8
0
 62
7
  6
CONTINUOUS
 10
467.4056595583
 20
404.4613058561
 11
467.105826689
 21
404.4029167621
  0
LINE
  8
0
 62
7
  6
CONTINUOUS
 10
474.5311070495
 20
414.3564022872
 11
473.1428979144
 21
414.1059094858
  0
LINE
  8
0
 62
7
  6
CONTINUOUS
 10
518.1797771884
 20
805.900392282
 11
497.0827894405
 21
802.0949200266
  0
LINE
  8
0
 62
7
  6
CONTINUOUS
 10
6.9809988932
 20
444.9661766903
 11
7.0566531992
 21
444.9784088704
  0
LINE
  8
0
 62
7
  6
CONTINUOUS
 10
7.0505709874
 20
444.9777182481
 11
6.8632750747
 21
444.948964172
  0
LINE
  8
0
 62
7
  6
CONTINUOUS
 10
7.0566531992
 20
444.9784088704
 11
7.2029263005
 21
444.9987064762
  0
LINE
  8
0
 62
7
  6
CONTINUOUS
 10
539.6021259864
 20
808.8675275577
 11
518.1809003885
 21
805.8933455425
  0
LINE
  8
0
 62
7
  6
CONTINUOUS
 10
467.105826689
 20
404.4029167621
 11
466.8024319306
 21
404.367479521
  0
LINE
  8
0
 62
7
  6
CONTINUOUS
 10
562.8965752792
 20
811.111237296
 11
539.6021259864
 21
808.8675275577
  0
LINE
  8
0
 62
7
  6
CONTINUOUS
 10
10.5741820464
 20
445.2658666167
 11
6.9809988932
 21
444.9661766903
  0
LINE
  8
0
 62
7
  6
CONTINUOUS
 10
428.3253344654
 20
410.5741960678
 11
430.075079785
 21
410.6935989682
  0
LINE
  8
0
 62
7
  6
CONTINUOUS
 10
584.4852079532
 20
812.2810877307
 11
562.8965752792
 21
811.111237296
  0
LINE
  8
0
 62
7
  6
CONTINUOUS
 10
17.7511266648
 20
445.6019270924
 11
10.5741820464
 21
445.2658666167
  0
LINE
  8
0
 62
7
  6
CONTINUOUS
 10
466.8024319306
 20
404.367479521
 11
466.4972197317
 21
404.3553338447
  0
LINE
  8
0
 62
7
  6
CONTINUOUS
 10
26.7371752186
 20
445.939626963
 11
17.7511266648
 21
445.6019270924
  0
LINE
  8
0
 62
7
  6
CONTINUOUS
 10
26.8039738412
 20
445.9413900705
 11
27.8193916488
 21
445.9768227189
  0
LINE
  8
0
 62
7
  6
CONTINUOUS
 10
27.8193916488
 20
445.9768227189
 11
28.8447874283
 21
446.0121920285
  0
LINE
  8
0
 62
7
  6
CONTINUOUS
 10
28.8447874283
 20
446.0121920285
 11
29.8936093614
 21
446.0479698185
  0
LINE
  8
0
 62
7
  6
CONTINUOUS
 10
29.8936093614
 20
446.0479698185
 11
30.9656807671
 21
446.0841500823
  0
LINE
  8
0
 62
7
  6
CONTINUOUS
 10
30.9656807671
 20
446.0841500823
 11
32.0608058744
 21
446.1207265186
  0
LINE
  8
0
 62
7
  6
CONTINUOUS
 10
32.0608058744
 20
446.1207265186
 11
33.1787885134
 21
446.1576928253
  0
LINE
  8
0
 62
7
  6
CONTINUOUS
 10
33.1787885134
 20
446.1576928253
 11
34.3194325139
 21
446.1950427002
  0
LINE
  8
0
 62
7
  6
CONTINUOUS
 10
34.3194325139
 20
446.1950427002
 11
35.4291885142
 21
446.2310468757
  0
LINE
  8
0
 62
7
  6
CONTINUOUS
 10
35.4291885142
 20
446.2310468757
 11
36.5592432143
 21
446.2673893185
  0
LINE
  8
0
 62
7
  6
CONTINUOUS
 10
36.5592432143
 20
446.2673893185
 11
37.7094259971
 21
446.3040645476
  0
LINE
  8
0
 62
7
  6
CONTINUOUS
 10
37.7094259971
 20
446.3040645476
 11
38.8795662454
 21
446.3410670816
  0
LINE
  8
0
 62
7
  6
CONTINUOUS
 10
38.8795662454
 20
446.3410670816
 11
40.069493342
 21
446.3783914393
  0
LINE
  8
0
 62
7
  6
CONTINUOUS
 10
40.069493342
 20
446.3783914393
 11
41.2790366699
 21
446.4160321395
  0
LINE
  8
0
 62
7
  6
CONTINUOUS
 10
41.2790366699
 20
446.4160321395
 11
42.5080256119
 21
446.453983701
  0
LINE
  8
0
 62
7
  6
CONTINUOUS
 10
42.5080256119
 20
446.453983701
 11
43.7562895509
 21
446.4922406425
  0
LINE
  8
0
 62
7
  6
CONTINUOUS
 10
43.7562895509
 20
446.4922406425
 11
45.0080164197
 21
446.5303234155
  0
LINE
  8
0
 62
7
  6
CONTINUOUS
 10
45.0080164197
 20
446.5303234155
 11
46.2781791244
 21
446.5686928342
  0
LINE
  8
0
 62
7
  6
CONTINUOUS
 10
46.2781791244
 20
446.5686928342
 11
47.5665779726
 21
446.6073430628
  0
LINE
  8
0
 62
7
  6
CONTINUOUS
 10
47.5665779726
 20
446.6073430628
 11
48.8730132717
 21
446.6462682654
  0
LINE
  8
0
 62
7
  6
CONTINUOUS
 10
48.8730132717
 20
446.6462682654
 11
50.1972853294
 21
446.6854626061
  0
LINE
  8
0
 62
7
  6
CONTINUOUS
 10
50.1972853294
 20
446.6854626061
 11
51.6210847181
 21
446.7273199548
  0
LINE
  8
0
 62
7
  6
CONTINUOUS
 10
51.6210847181
 20
446.7273199548
 11
53.0644855365
 21
446.7694665258
  0
LINE
  8
0
 62
7
  6
CONTINUOUS
 10
53.0644855365
 20
446.7694665258
 11
54.5272495394
 21
446.8118953564
  0
LINE
  8
0
 62
7
  6
CONTINUOUS
 10
54.5272495394
 20
446.8118953564
 11
56.0091384817
 21
446.8545994841
  0
LINE
  8
0
 62
7
  6
CONTINUOUS
 10
56.0091384817
 20
446.8545994841
 11
57.5099141182
 21
446.8975719463
  0
LINE
  8
0
 62
7
  6
CONTINUOUS
 10
57.5099141182
 20
446.8975719463
 11
59.0293382038
 21
446.9408057804
  0
LINE
  8
0
 62
7
  6
CONTINUOUS
 10
59.0293382038
 20
446.9408057804
 11
60.5671724933
 21
446.9842940239
  0
LINE
  8
0
 62
7
  6
CONTINUOUS
 10
60.5671724933
 20
446.9842940239
 11
62.1231770529
 21
447.0280296806
  0
LINE
  8
0
 62
7
  6
CONTINUOUS
 10
62.1231770529
 20
447.0280296806
 11
63.6970906276
 21
447.0720054208
  0
LINE
  8
0
 62
7
  6
CONTINUOUS
 10
63.6970906276
 20
447.0720054208
 11
65.2886387765
 21
447.1162137847
  0
LINE
  8
0
 62
7
  6
CONTINUOUS
 10
65.2886387765
 20
447.1162137847
 11
66.8975470103
 21
447.1606473198
  0
LINE
  8
0
 62
7
  6
CONTINUOUS
 10
66.8975470103
 20
447.1606473198
 11
68.5235408399
 21
447.2052985734
  0
LINE
  8
0
 62
7
  6
CONTINUOUS
 10
68.5235408399
 20
447.2052985734
 11
70.0913120003
 21
447.2481164768
  0
LINE
  8
0
 62
7
  6
CONTINUOUS
 10
71.6741619841
 20
447.2911194838
 11
73.2718520569
 21
447.3343011123
  0
LINE
  8
0
 62
7
  6
CONTINUOUS
 10
70.0913120003
 20
447.2481164768
 11
71.6741619841
 21
447.2911194838
  0
LINE
  8
0
 62
7
  6
CONTINUOUS
 10
73.2718520569
 20
447.3343011123
 11
74.8841434843
 21
447.3776548808
  0
LINE
  8
0
 62
7
  6
CONTINUOUS
 10
74.8841434843
 20
447.3776548808
 11
76.5107975317
 21
447.4211743073
  0
LINE
  8
0
 62
7
  6
CONTINUOUS
 10
78.1515754647
 20
447.4648529101
 11
79.8062385489
 21
447.5086842072
  0
LINE
  8
0
 62
7
  6
CONTINUOUS
 10
76.5107975317
 20
447.4211743073
 11
78.1515754647
 21
447.4648529101
  0
LINE
  8
0
 62
7
  6
CONTINUOUS
 10
79.8062385489
 20
447.5086842072
 11
81.4745480498
 21
447.552661717
  0
LINE
  8
0
 62
7
  6
CONTINUOUS
 10
81.4745480498
 20
447.552661717
 11
83.1355859611
 21
447.596237817
  0
LINE
  8
0
 62
7
  6
CONTINUOUS
 10
84.8094452623
 20
447.6399436073
 11
86.4958711337
 21
447.6837725836
  0
LINE
  8
0
 62
7
  6
CONTINUOUS
 10
83.1355859611
 20
447.596237817
 11
84.8094452623
 21
447.6399436073
  0
LINE
  8
0
 62
7
  6
CONTINUOUS
 10
86.4958711337
 20
447.6837725836
 11
88.1946087556
 21
447.7277182413
  0
LINE
  8
0
 62
7
  6
CONTINUOUS
 10
89.9054033082
 20
447.771774076
 11
91.7327734593
 21
447.8186131054
  0
LINE
  8
0
 62
7
  6
CONTINUOUS
 10
88.1946087556
 20
447.7277182413
 11
89.9054033082
 21
447.771774076
  0
LINE
  8
0
 62
7
  6
CONTINUOUS
 10
91.7327734593
 20
447.8186131054
 11
93.5731156155
 21
447.8655609944
  0
LINE
  8
0
 62
7
  6
CONTINUOUS
 10
95.4261257615
 20
447.9126099827
 11
97.2914998822
 21
447.9597523101
  0
LINE
  8
0
 62
7
  6
CONTINUOUS
 10
93.5731156155
 20
447.8655609944
 11
95.4261257615
 21
447.9126099827
  0
LINE
  8
0
 62
7
  6
CONTINUOUS
 10
97.2914998822
 20
447.9597523101
 11
99.1689339623
 21
448.0069802164
  0
LINE
  8
0
 62
7
  6
CONTINUOUS
 10
101.0581239866
 20
448.0542859414
 11
102.95876594
 21
448.1016617249
  0
LINE
  8
0
 62
7
  6
CONTINUOUS
 10
99.1689339623
 20
448.0069802164
 11
101.0581239866
 21
448.0542859414
  0
LINE
  8
0
 62
7
  6
CONTINUOUS
 10
102.95876594
 20
448.1016617249
 11
104.8705543178
 21
448.149099781
  0
LINE
  8
0
 62
7
  6
CONTINUOUS
 10
106.793168711
 20
448.1965921704
 11
108.7262827117
 21
448.2441310005
  0
LINE
  8
0
 62
7
  6
CONTINUOUS
 10
104.8705543178
 20
448.149099781
 11
106.793168711
 21
448.1965921704
  0
LINE
  8
0
 62
7
  6
CONTINUOUS
 10
108.7262827117
 20
448.2441310005
 11
110.6695702194
 21
448.2917083935
  0
LINE
  8
0
 62
7
  6
CONTINUOUS
 10
112.6227051333
 20
448.3393164714
 11
114.4959477586
 21
448.3847819327
  0
LINE
  8
0
 62
7
  6
CONTINUOUS
 10
110.6695702194
 20
448.2917083935
 11
112.6227051333
 21
448.3393164714
  0
LINE
  8
0
 62
7
  6
CONTINUOUS
 10
116.3775821656
 20
448.4302613231
 11
118.2673247313
 21
448.4757477908
  0
LINE
  8
0
 62
7
  6
CONTINUOUS
 10
114.4959477586
 20
448.3847819327
 11
116.3775821656
 21
448.4302613231
  0
LINE
  8
0
 62
7
  6
CONTINUOUS
 10
120.1648918328
 20
448.5212344842
 11
122.0699998472
 21
448.5667145515
  0
LINE
  8
0
 62
7
  6
CONTINUOUS
 10
118.2673247313
 20
448.4757477908
 11
120.1648918328
 21
448.5212344842
  0
LINE
  8
0
 62
7
  6
CONTINUOUS
 10
122.0699998472
 20
448.5667145515
 11
123.9823651515
 21
448.6121811409
  0
LINE
  8
0
 62
7
  6
CONTINUOUS
 10
125.9017041227
 20
448.6576274009
 11
127.8277331379
 21
448.7030464795
  0
LINE
  8
0
 62
7
  6
CONTINUOUS
 10
123.9823651515
 20
448.6121811409
 11
125.9017041227
 21
448.6576274009
  0
LINE
  8
0
 62
7
  6
CONTINUOUS
 10
135.7008373104
 20
448.887609073
 11
133.0712331061
 21
448.8261252411
  0
LINE
  8
0
 62
7
  6
CONTINUOUS
 10
133.0712331061
 20
448.8261252411
 11
130.560009252
 21
448.7672567215
  0
LINE
  8
0
 62
7
  6
CONTINUOUS
 10
130.560009252
 20
448.7672567215
 11
127.8277331379
 21
448.7030464795
  0
LINE
  8
0
 62
7
  6
CONTINUOUS
 10
595.5857658821
 20
812.5556175341
 11
584.4847357076
 21
812.294608687
  0
LINE
  8
0
 62
7
  6
CONTINUOUS
 10
143.5737831616
 20
449.070742756
 11
140.9757541593
 21
449.0104656389
  0
LINE
  8
0
 62
7
  6
CONTINUOUS
 10
140.9757541593
 20
449.0104656389
 11
138.3356776614
 21
448.9490558722
  0
LINE
  8
0
 62
7
  6
CONTINUOUS
 10
138.3356776614
 20
448.9490558722
 11
135.7008373104
 21
448.887609073
  0
LINE
  8
0
 62
7
  6
CONTINUOUS
 10
151.3930149761
 20
449.2512402571
 11
148.7828665973
 21
449.1911405603
  0
LINE
  8
0
 62
7
  6
CONTINUOUS
 10
148.7828665973
 20
449.1911405603
 11
146.1764559609
 21
449.1309747254
  0
LINE
  8
0
 62
7
  6
CONTINUOUS
 10
146.1764559609
 20
449.1309747254
 11
143.5737831616
 21
449.070742756
  0
LINE
  8
0
 62
7
  6
CONTINUOUS
 10
159.4064995193
 20
449.4348077961
 11
156.7314461449
 21
449.3736874816
  0
LINE
  8
0
 62
7
  6
CONTINUOUS
 10
156.7314461449
 20
449.3736874816
 11
154.0602846305
 21
449.3124983019
  0
LINE
  8
0
 62
7
  6
CONTINUOUS
 10
154.0602846305
 20
449.3124983019
 11
151.3930149761
 21
449.2512402571
  0
LINE
  8
0
 62
7
  6
CONTINUOUS
 10
167.4525036763
 20
449.6176984035
 11
164.76733252
 21
449.5568201953
  0
LINE
  8
0
 62
7
  6
CONTINUOUS
 10
164.76733252
 20
449.5568201953
 11
162.085349183
 21
449.4958570685
  0
LINE
  8
0
 62
7
  6
CONTINUOUS
 10
162.085349183
 20
449.4958570685
 11
159.4064995193
 21
449.4348077961
  0
LINE
  8
0
 62
7
  6
CONTINUOUS
 10
175.5271440607
 20
449.7998235167
 11
172.8324094467
 21
449.7392000642
  0
LINE
  8
0
 62
7
  6
CONTINUOUS
 10
172.8324094467
 20
449.7392000642
 11
170.1408626519
 21
449.6784916932
  0
LINE
  8
0
 62
7
  6
CONTINUOUS
 10
170.1408626519
 20
449.6784916932
 11
167.4525036763
 21
449.6176984035
  0
LINE
  8
0
 62
7
  6
CONTINUOUS
 10
183.6273063549
 20
449.9811133433
 11
180.925316364
 21
449.9207963828
  0
LINE
  8
0
 62
7
  6
CONTINUOUS
 10
180.925316364
 20
449.9207963828
 11
178.2250664939
 21
449.8603620507
  0
LINE
  8
0
 62
7
  6
CONTINUOUS
 10
178.2250664939
 20
449.8603620507
 11
175.5271440607
 21
449.7998235167
  0
LINE
  8
0
 62
7
  6
CONTINUOUS
 10
192.0147259727
 20
450.1673543285
 11
189.0365974206
 21
450.1013971813
  0
LINE
  8
0
 62
7
  6
CONTINUOUS
 10
189.0365974206
 20
450.1013971813
 11
186.3310667071
 21
450.0413136094
  0
LINE
  8
0
 62
7
  6
CONTINUOUS
 10
186.3310667071
 20
450.0413136094
 11
183.6273063549
 21
449.9811133433
  0
LINE
  8
0
 62
7
  6
CONTINUOUS
 10
200.9599455575
 20
450.3643340405
 11
197.9768637004
 21
450.2988329877
  0
LINE
  8
0
 62
7
  6
CONTINUOUS
 10
197.9768637004
 20
450.2988329877
 11
194.994996662
 21
450.2331702756
  0
LINE
  8
0
 62
7
  6
CONTINUOUS
 10
194.994996662
 20
450.2331702756
 11
192.0147259727
 21
450.1673543285
  0
LINE
  8
0
 62
7
  6
CONTINUOUS
 10
203.944307551
 20
450.4296748727
 11
200.9599455575
 21
450.3643340405
  0
LINE
  8
0
 62
7
  6
CONTINUOUS
 10
206.6584747708
 20
450.4889365949
 11
203.944307551
 21
450.4296748727
  0
LINE
  8
0
 62
7
  6
CONTINUOUS
 10
209.3736999545
 20
450.5480659034
 11
206.6584747708
 21
450.4889365949
  0
LINE
  8
0
 62
7
  6
CONTINUOUS
 10
212.0899831021
 20
450.6070627982
 11
209.3736999545
 21
450.5480659034
  0
LINE
  8
0
 62
7
  6
CONTINUOUS
 10
214.8067284345
 20
450.6659143615
 11
212.0899831021
 21
450.6070627982
  0
LINE
  8
0
 62
7
  6
CONTINUOUS
 10
217.5230648828
 20
450.7246016995
 11
214.8067284345
 21
450.6659143615
  0
LINE
  8
0
 62
7
  6
CONTINUOUS
 10
119.7786492028
 20
403.9165653948
 11
220.130143585
 21
406.0818461517
  0
LINE
  8
0
 62
7
  6
CONTINUOUS
 10
220.130143585
 20
406.0818461517
 11
428.3253344654
 21
410.5741960678
  0
LINE
  8
0
 62
7
  6
CONTINUOUS
 10
220.2390325097
 20
450.7831256798
 11
217.5230648828
 21
450.7246016995
  0
LINE
  8
0
 62
7
  6
CONTINUOUS
 10
222.9546313152
 20
450.8414863022
 11
220.2390325097
 21
450.7831256798
  0
LINE
  8
0
 62
7
  6
CONTINUOUS
 10
225.9413640126
 20
450.9054943086
 11
222.9546313152
 21
450.8414863022
  0
LINE
  8
0
 62
7
  6
CONTINUOUS
 10
228.9276504361
 20
450.9693046521
 11
225.9413640126
 21
450.9054943086
  0
LINE
  8
0
 62
7
  6
CONTINUOUS
 10
231.9131053544
 20
451.0329091186
 11
228.9276504361
 21
450.9693046521
  0
LINE
  8
0
 62
7
  6
CONTINUOUS
 10
234.8971670714
 20
451.0962957198
 11
231.9131053544
 21
451.0329091186
  0
LINE
  8
0
 62
7
  6
CONTINUOUS
 10
237.8799190127
 20
451.1594662319
 11
234.8971670714
 21
451.0962957198
  0
LINE
  8
0
 62
7
  6
CONTINUOUS
 10
240.8613611782
 20
451.2224206548
 11
237.8799190127
 21
451.1594662319
  0
LINE
  8
0
 62
7
  6
CONTINUOUS
 10
243.841493568
 20
451.2851589884
 11
240.8613611782
 21
451.2224206548
  0
LINE
  8
0
 62
7
  6
CONTINUOUS
 10
246.8203161821
 20
451.3476812329
 11
243.841493568
 21
451.2851589884
  0
LINE
  8
0
 62
7
  6
CONTINUOUS
 10
249.7969775286
 20
451.4099695436
 11
246.8203161821
 21
451.3476812329
  0
LINE
  8
0
 62
7
  6
CONTINUOUS
 10
252.7705524695
 20
451.4720045265
 11
249.7969775286
 21
451.4099695436
  0
LINE
  8
0
 62
7
  6
CONTINUOUS
 10
255.6880461813
 20
451.5326856313
 11
252.7705524695
 21
451.4720045265
  0
LINE
  8
0
 62
7
  6
CONTINUOUS
 10
258.6025850782
 20
451.5931228427
 11
255.6880461813
 21
451.5326856313
  0
LINE
  8
0
 62
7
  6
CONTINUOUS
 10
261.5141691604
 20
451.6533161607
 11
258.6025850782
 21
451.5931228427
  0
LINE
  8
0
 62
7
  6
CONTINUOUS
 10
264.4227984279
 20
451.7132655853
 11
261.5141691604
 21
451.6533161607
  0
LINE
  8
0
 62
7
  6
CONTINUOUS
 10
269.8014069021
 20
451.8238683718
 11
264.4227984279
 21
451.7132655853
  0
LINE
  8
0
 62
7
  6
CONTINUOUS
 10
275.1761207148
 20
451.9342193748
 11
269.8014069021
 21
451.8238683718
  0
LINE
  8
0
 62
7
  6
CONTINUOUS
 10
280.5469398659
 20
452.044318594
 11
275.1761207148
 21
451.9342193748
  0
LINE
  8
0
 62
7
  6
CONTINUOUS
 10
285.9138643554
 20
452.1541660296
 11
280.5469398659
 21
452.044318594
  0
LINE
  8
0
 62
7
  6
CONTINUOUS
 10
291.2768941833
 20
452.2637616815
 11
285.9138643554
 21
452.1541660296
  0
LINE
  8
0
 62
7
  6
CONTINUOUS
 10
296.5403646601
 20
452.3711551887
 11
291.2768941833
 21
452.2637616815
  0
LINE
  8
0
 62
7
  6
CONTINUOUS
 10
301.8000783285
 20
452.4783058241
 11
296.5403646601
 21
452.3711551887
  0
LINE
  8
0
 62
7
  6
CONTINUOUS
 10
307.0560351885
 20
452.5852135878
 11
301.8000783285
 21
452.4783058241
  0
LINE
  8
0
 62
7
  6
CONTINUOUS
 10
312.30823524
 20
452.6918784799
 11
307.0560351885
 21
452.5852135878
  0
LINE
  8
0
 62
7
  6
CONTINUOUS
 10
317.6637504526
 20
452.8004698494
 11
312.30823524
 21
452.6918784799
  0
LINE
  8
0
 62
7
  6
CONTINUOUS
 10
323.0153539529
 20
452.9088083329
 11
317.6637504526
 21
452.8004698494
  0
LINE
  8
0
 62
7
  6
CONTINUOUS
 10
328.3630457409
 20
453.0168939304
 11
323.0153539529
 21
452.9088083329
  0
LINE
  8
0
 62
7
  6
CONTINUOUS
 10
333.7068258167
 20
453.124726642
 11
328.3630457409
 21
453.0168939304
  0
LINE
  8
0
 62
7
  6
CONTINUOUS
 10
339.0466941802
 20
453.2323064676
 11
333.7068258167
 21
453.124726642
  0
LINE
  8
0
 62
7
  6
CONTINUOUS
 10
344.3822453571
 20
453.3396252477
 11
339.0466941802
 21
453.2323064676
  0
LINE
  8
0
 62
7
  6
CONTINUOUS
 10
349.7125059449
 20
453.4466633932
 11
344.3822453571
 21
453.3396252477
  0
LINE
  8
0
 62
7
  6
CONTINUOUS
 10
355.0374364489
 20
453.5534201093
 11
349.7125059449
 21
453.4466633932
  0
LINE
  8
0
 62
7
  6
CONTINUOUS
 10
360.3570368692
 20
453.6598953961
 11
355.0374364489
 21
453.5534201093
  0
LINE
  8
0
 62
7
  6
CONTINUOUS
 10
365.6713072057
 20
453.7660892535
 11
360.3570368692
 21
453.6598953961
  0
LINE
  8
0
 62
7
  6
CONTINUOUS
 10
370.9802474585
 20
453.8720016815
 11
365.6713072057
 21
453.7660892535
  0
LINE
  8
0
 62
7
  6
CONTINUOUS
 10
376.2838576275
 20
453.97763268
 11
370.9802474585
 21
453.8720016815
  0
LINE
  8
0
 62
7
  6
CONTINUOUS
 10
381.5821377128
 20
454.0829822493
 11
376.2838576275
 21
453.97763268
  0
LINE
  8
0
 62
7
  6
CONTINUOUS
 10
386.8750877144
 20
454.1880503891
 11
381.5821377128
 21
454.0829822493
  0
LINE
  8
0
 62
7
  6
CONTINUOUS
 10
391.7222762187
 20
454.2841156227
 11
386.8750877144
 21
454.1880503891
  0
LINE
  8
0
 62
7
  6
CONTINUOUS
 10
396.564985972
 20
454.3799443774
 11
391.7222762187
 21
454.2841156227
  0
LINE
  8
0
 62
7
  6
CONTINUOUS
 10
401.4032169745
 20
454.4755366533
 11
396.564985972
 21
454.3799443774
  0
LINE
  8
0
 62
7
  6
CONTINUOUS
 10
406.236969226
 20
454.5708924504
 11
401.4032169745
 21
454.4755366533
  0
LINE
  8
0
 62
7
  6
CONTINUOUS
 10
410.8425407171
 20
454.6616056435
 11
406.236969226
 21
454.5708924504
  0
LINE
  8
0
 62
7
  6
CONTINUOUS
 10
415.8910374762
 20
454.7608946078
 11
410.8425407171
 21
454.6616056435
  0
LINE
  8
0
 62
7
  6
CONTINUOUS
 10
416.0181966107
 20
454.7635279804
 11
415.9005479552
 21
454.7612206547
  0
LINE
  8
0
 62
7
  6
CONTINUOUS
 10
416.4489681694
 20
454.7717547625
 11
416.0083110664
 21
454.7631946096
  0
LINE
  8
0
 62
7
  6
CONTINUOUS
 10
417.0121636816
 20
454.7825015411
 11
416.4489681694
 21
454.7717547625
  0
LINE
  8
0
 62
7
  6
CONTINUOUS
 10
417.5201279316
 20
454.7920102631
 11
417.0121636816
 21
454.7825015411
  0
LINE
  8
0
 62
7
  6
CONTINUOUS
 10
418.0460917041
 20
454.8016494757
 11
417.5201279316
 21
454.7920102631
  0
LINE
  8
0
 62
7
  6
CONTINUOUS
 10
418.5592439531
 20
454.810843758
 11
418.0460917041
 21
454.8016494757
  0
LINE
  8
0
 62
7
  6
CONTINUOUS
 10
419.0591577852
 20
454.8195852579
 11
418.5592439531
 21
454.810843758
  0
LINE
  8
0
 62
7
  6
CONTINUOUS
 10
419.6182953548
 20
454.8290882875
 11
419.0591577852
 21
454.8195852579
  0
LINE
  8
0
 62
7
  6
CONTINUOUS
 10
420.1480604066
 20
454.8379873245
 11
419.6422716997
 21
454.8296773669
  0
LINE
  8
0
 62
7
  6
CONTINUOUS
 10
420.8104795913
 20
454.8484585556
 11
420.1480604066
 21
454.8379873245
  0
LINE
  8
0
 62
7
  6
CONTINUOUS
 10
421.4518006783
 20
454.8580329548
 11
420.8104795913
 21
454.8484585556
  0
LINE
  8
0
 62
7
  6
CONTINUOUS
 10
422.0404717067
 20
454.866246381
 11
421.4518006783
 21
454.8580329548
  0
LINE
  8
0
 62
7
  6
CONTINUOUS
 10
12.2570073522
 20
403.7373353438
 11
12.5724829776
 21
403.741451445
  0
LINE
  8
0
 62
7
  6
CONTINUOUS
 10
11.049523998
 20
403.7213599842
 11
12.2570073522
 21
403.7373353438
  0
LINE
  8
0
 62
7
  6
CONTINUOUS
 10
10.7612639623
 20
403.7176371106
 11
11.049523998
 21
403.7213599842
  0
LINE
  8
0
 62
7
  6
CONTINUOUS
 10
12.5724829776
 20
403.741451445
 11
12.8934071891
 21
403.7455565893
  0
LINE
  8
0
 62
7
  6
CONTINUOUS
 10
422.5772179459
 20
454.8731393724
 11
422.0404717067
 21
454.866246381
  0
LINE
  8
0
 62
7
  6
CONTINUOUS
 10
10.4784611199
 20
403.714078558
 11
10.7612639623
 21
403.7176371106
  0
LINE
  8
0
 62
7
  6
CONTINUOUS
 10
12.8934071891
 20
403.7455565893
 11
13.2197876089
 21
403.7496217404
  0
LINE
  8
0
 62
7
  6
CONTINUOUS
 10
3.8160156263
 20
403.6879892953
 11
3.8937311821
 21
403.6889454659
  0
LINE
  8
0
 62
7
  6
CONTINUOUS
 10
13.2197876089
 20
403.7496217404
 11
13.5516337773
 21
403.7536191718
  0
LINE
  8
0
 62
7
  6
CONTINUOUS
 10
10.1044602169
 20
403.7095672433
 11
10.4784611199
 21
403.714078558
  0
LINE
  8
0
 62
7
  6
CONTINUOUS
 10
13.5516337773
 20
403.7536191718
 11
13.8889574617
 21
403.7575221098
  0
LINE
  8
0
 62
7
  6
CONTINUOUS
 10
423.0629231318
 20
454.878751482
 11
422.5772179459
 21
454.8731393724
  0
LINE
  8
0
 62
7
  6
CONTINUOUS
 10
9.8347655833
 20
403.7064887052
 11
10.1044602169
 21
403.7095672433
  0
LINE
  8
0
 62
7
  6
CONTINUOUS
 10
13.8889574617
 20
403.7575221098
 11
14.2317731325
 21
403.7613055092
  0
LINE
  8
0
 62
7
  6
CONTINUOUS
 10
9.5708387657
 20
403.703646061
 11
9.8347655833
 21
403.7064887052
  0
LINE
  8
0
 62
7
  6
CONTINUOUS
 10
14.2317731325
 20
403.7613055092
 11
14.5800965767
 21
403.7649450926
  0
LINE
  8
0
 62
7
  6
CONTINUOUS
 10
3.8937311821
 20
403.6889454659
 11
3.9578735375
 21
403.6896065857
  0
LINE
  8
0
 62
7
  6
CONTINUOUS
 10
9.3126602418
 20
403.7010511503
 11
9.5708387657
 21
403.703646061
  0
LINE
  8
0
 62
7
  6
CONTINUOUS
 10
3.9676345068
 20
403.7163347578
 11
3.9583450074
 21
403.7162423698
  0
LINE
  8
0
 62
7
  6
CONTINUOUS
 10
423.4990776115
 20
454.88313161
 11
423.0629231318
 21
454.878751482
  0
LINE
  8
0
 62
7
  6
CONTINUOUS
 10
14.5800965767
 20
403.7649450926
 11
14.9339522899
 21
403.7684180353
  0
LINE
  8
0
 62
7
  6
CONTINUOUS
 10
9.060212565
 20
403.6987107659
 11
9.3126602418
 21
403.7010511503
  0
LINE
  8
0
 62
7
  6
CONTINUOUS
 10
14.9339522899
 20
403.7684180353
 11
15.2933738064
 21
403.7717016279
  0
LINE
  8
0
 62
7
  6
CONTINUOUS
 10
3.9578735375
 20
403.6896065857
 11
4.0276530557
 21
403.6902157968
  0
LINE
  8
0
 62
7
  6
CONTINUOUS
 10
15.2933738064
 20
403.7717016279
 11
15.4040818702
 21
403.7726617722
  0
LINE
  8
0
 62
7
  6
CONTINUOUS
 10
8.813480579
 20
403.6966299591
 11
9.060212565
 21
403.6987107659
  0
LINE
  8
0
 62
7
  6
CONTINUOUS
 10
15.4040818702
 20
403.7726617722
 11
15.7678712343
 21
403.7756416486
  0
LINE
  8
0
 62
7
  6
CONTINUOUS
 10
423.8873879574
 20
454.8863233428
 11
423.4990776115
 21
454.88313161
  0
LINE
  8
0
 62
7
  6
CONTINUOUS
 10
8.5724511328
 20
403.6948075711
 11
8.813480579
 21
403.6966299591
  0
LINE
  8
0
 62
7
  6
CONTINUOUS
 10
15.7678712343
 20
403.7756416486
 11
16.1371342735
 21
403.7783833477
  0
LINE
  8
0
 62
7
  6
CONTINUOUS
 10
4.0276530557
 20
403.6902157968
 11
4.1030601208
 21
403.6907621403
  0
LINE
  8
0
 62
7
  6
CONTINUOUS
 10
8.3371133039
 20
403.6932394298
 11
8.5724511328
 21
403.6948075711
  0
LINE
  8
0
 62
7
  6
CONTINUOUS
 10
16.1371342735
 20
403.7783833477
 11
16.5118926215
 21
403.7808636995
  0
LINE
  8
0
 62
7
  6
CONTINUOUS
 10
424.2300650498
 20
454.8883593013
 11
423.8873879574
 21
454.8863233428
  0
LINE
  8
0
 62
7
  6
CONTINUOUS
 10
8.1074581588
 20
403.6919202922
 11
8.3371133039
 21
403.6932394298
  0
LINE
  8
0
 62
7
  6
CONTINUOUS
 10
4.1030601208
 20
403.6907621403
 11
4.1840887139
 21
403.6912357838
  0
LINE
  8
0
 62
7
  6
CONTINUOUS
 10
16.5118926215
 20
403.7808636995
 11
16.8921616671
 21
403.783057974
  0
LINE
  8
0
 62
7
  6
CONTINUOUS
 10
16.8921616671
 20
403.783057974
 11
17.2779568192
 21
403.7849382951
  0
LINE
  8
0
 62
7
  6
CONTINUOUS
 10
7.8834781747
 20
403.6908431789
 11
8.1074581588
 21
403.6919202922
  0
LINE
  8
0
 62
7
  6
CONTINUOUS
 10
4.1840887139
 20
403.6912357838
 11
4.2707351422
 21
403.6916312762
  0
LINE
  8
0
 62
7
  6
CONTINUOUS
 10
7.6651668081
 20
403.6899951104
 11
7.8834781747
 21
403.6908431789
  0
LINE
  8
0
 62
7
  6
CONTINUOUS
 10
17.2779568192
 20
403.7849382951
 11
17.6692963647
 21
403.7864731679
  0
LINE
  8
0
 62
7
  6
CONTINUOUS
 10
4.2707351422
 20
403.6916312762
 11
4.3629952353
 21
403.6919442343
  0
LINE
  8
0
 62
7
  6
CONTINUOUS
 10
7.4525187132
 20
403.6893604836
 11
7.6651668081
 21
403.6899951104
  0
LINE
  8
0
 62
7
  6
CONTINUOUS
 10
424.5265851956
 20
454.8892429869
 11
424.2300650498
 21
454.8883593013
  0
LINE
  8
0
 62
7
  6
CONTINUOUS
 10
17.6692963647
 20
403.7864731679
 11
18.0662046316
 21
403.7876270236
  0
LINE
  8
0
 62
7
  6
CONTINUOUS
 10
564.6066632421
 20
818.1120232408
 11
564.6803946892
 21
818.1122325997
  0
LINE
  8
0
 62
7
  6
CONTINUOUS
 10
4.3629952353
 20
403.6919442343
 11
4.4608649345
 21
403.6921703174
  0
LINE
  8
0
 62
7
  6
CONTINUOUS
 10
7.2455295612
 20
403.6889231147
 11
7.4525187132
 21
403.6893604836
  0
LINE
  8
0
 62
7
  6
CONTINUOUS
 10
18.0662046316
 20
403.7876270236
 11
18.46809164
 21
403.7883580241
  0
LINE
  8
0
 62
7
  6
CONTINUOUS
 10
561.7679130683
 20
814.4494619366
 11
562.015702575
 21
814.4498723637
  0
LINE
  8
0
 62
7
  6
CONTINUOUS
 10
7.0441957471
 20
403.6886662209
 11
7.2455295612
 21
403.6889231147
  0
LINE
  8
0
 62
7
  6
CONTINUOUS
 10
4.4608649345
 20
403.6921703174
 11
4.5643431875
 21
403.6923062621
  0
LINE
  8
0
 62
7
  6
CONTINUOUS
 10
18.4680980293
 20
403.7883580322
 11
466.4972197317
 21
404.3553338447
  0
LINE
  8
0
 62
7
  6
CONTINUOUS
 10
626.2928163643
 20
414.5484550228
 11
474.531108519
 21
414.3564022891
  0
LINE
  8
0
 62
7
  6
CONTINUOUS
 10
564.6803946892
 20
818.1122325997
 11
565.1281025587
 21
818.1125770165
  0
LINE
  8
0
 62
7
  6
CONTINUOUS
 10
6.8485133269
 20
403.6885697151
 11
7.0441957471
 21
403.6886662209
  0
LINE
  8
0
 62
7
  6
CONTINUOUS
 10
562.015702575
 20
814.4498723637
 11
562.6886527207
 21
814.4502479785
  0
LINE
  8
0
 62
7
  6
CONTINUOUS
 10
4.5643431875
 20
403.6923062621
 11
4.6734316166
 21
403.6923534785
  0
LINE
  8
0
 62
7
  6
CONTINUOUS
 10
562.6886527207
 20
814.4502479785
 11
563.7743628564
 21
814.4506077739
  0
LINE
  8
0
 62
7
  6
CONTINUOUS
 10
565.1281025587
 20
818.1125770165
 11
565.9725642606
 21
818.1129092913
  0
LINE
  8
0
 62
7
  6
CONTINUOUS
 10
563.7743628564
 20
814.4506077739
 11
565.2510175605
 21
814.4509445205
  0
LINE
  8
0
 62
7
  6
CONTINUOUS
 10
565.2510175605
 20
814.4509445205
 11
567.0889460726
 21
814.4512514518
  0
LINE
  8
0
 62
7
  6
CONTINUOUS
 10
565.9725642606
 20
818.1129092913
 11
567.1952719653
 21
818.1132221417
  0
LINE
  8
0
 62
7
  6
CONTINUOUS
 10
567.1952719653
 20
818.1132221417
 11
568.7694279323
 21
818.1135087111
  0
LINE
  8
0
 62
7
  6
CONTINUOUS
 10
568.7694279323
 20
818.1135087111
 11
570.6605318281
 21
818.1137627188
  0
LINE
  8
0
 62
7
  6
CONTINUOUS
 10
567.0889460726
 20
814.4512514518
 11
569.2512184752
 21
814.4515224007
  0
LINE
  8
0
 62
7
  6
CONTINUOUS
 10
569.2512184752
 20
814.4515224007
 11
571.6943877349
 21
814.4517519229
  0
LINE
  8
0
 62
7
  6
CONTINUOUS
 10
571.6943877349
 20
814.4517519229
 11
574.3693626935
 21
814.4519354065
  0
LINE
  8
0
 62
7
  6
CONTINUOUS
 10
574.3693626935
 20
814.4519354065
 11
577.2223944681
 21
814.4520691649
  0
LINE
  8
0
 62
7
  6
CONTINUOUS
 10
577.2223944681
 20
814.4520691649
 11
580.1961564393
 21
814.4521505103
  0
LINE
  8
0
 62
7
  6
CONTINUOUS
 10
580.1961564393
 20
814.4521505103
 11
583.2308961284
 21
814.4521778083
  0
LINE
  8
0
 62
7
  6
CONTINUOUS
 10
583.2308961284
 20
814.4521778083
 11
586.2656358176
 21
814.4521505103
  0
LINE
  8
0
 62
7
  6
CONTINUOUS
 10
586.2656358176
 20
814.4521505103
 11
589.2393977888
 21
814.4520691649
  0
LINE
  8
0
 62
7
  6
CONTINUOUS
 10
570.6605318281
 20
818.1137627188
 11
572.8271368609
 21
818.1139785977
  0
LINE
  8
0
 62
7
  6
CONTINUOUS
 10
572.8271368609
 20
818.1139785977
 11
575.2217581578
 21
818.1141516166
  0
LINE
  8
0
 62
7
  6
CONTINUOUS
 10
575.2217581578
 20
818.1141516166
 11
577.7919134777
 21
818.1142779834
  0
LINE
  8
0
 62
7
  6
CONTINUOUS
 10
577.7919134777
 20
818.1142779834
 11
580.4812734498
 21
818.1143549285
  0
LINE
  8
0
 62
7
  6
CONTINUOUS
 10
580.4812734498
 20
818.1143549285
 11
583.2308961284
 21
818.1143807656
  0
LINE
  8
0
 62
7
  6
CONTINUOUS
 10
583.2308961284
 20
818.1143807656
 11
585.980518807
 21
818.1143549285
  0
LINE
  8
0
 62
7
  6
CONTINUOUS
 10
585.980518807
 20
818.1143549285
 11
588.6698787792
 21
818.1142779834
  0
LINE
  8
0
 62
7
  6
CONTINUOUS
 10
6.6584791255
 20
403.6886114323
 11
6.8485133269
 21
403.6885697151
  0
LINE
  8
0
 62
7
  6
CONTINUOUS
 10
589.2393977888
 20
814.4520691649
 11
592.0924295633
 21
814.4519354065
  0
LINE
  8
0
 62
7
  6
CONTINUOUS
 10
592.0924295633
 20
814.4519354065
 11
594.767404522
 21
814.4517519229
  0
LINE
  8
0
 62
7
  6
CONTINUOUS
 10
594.767404522
 20
814.4517519229
 11
597.2105737816
 21
814.4515224007
  0
LINE
  8
0
 62
7
  6
CONTINUOUS
 10
597.2105737816
 20
814.4515224007
 11
599.3728461842
 21
814.4512514518
  0
LINE
  8
0
 62
7
  6
CONTINUOUS
 10
599.3728461842
 20
814.4512514518
 11
601.2107746963
 21
814.4509445205
  0
LINE
  8
0
 62
7
  6
CONTINUOUS
 10
588.6698787792
 20
818.1142779834
 11
591.2400340991
 21
818.1141516166
  0
LINE
  8
0
 62
7
  6
CONTINUOUS
 10
591.2400340991
 20
818.1141516166
 11
593.634655396
 21
818.1139785977
  0
LINE
  8
0
 62
7
  6
CONTINUOUS
 10
593.634655396
 20
818.1139785977
 11
595.8012604288
 21
818.1137627188
  0
LINE
  8
0
 62
7
  6
CONTINUOUS
 10
595.8012604288
 20
818.1137627188
 11
597.6923643246
 21
818.1135087111
  0
LINE
  8
0
 62
7
  6
CONTINUOUS
 10
597.6923643246
 20
818.1135087111
 11
599.2665202915
 21
818.1132221417
  0
LINE
  8
0
 62
7
  6
CONTINUOUS
 10
4.6734316166
 20
403.6923534785
 11
4.7881322375
 21
403.6923140933
  0
LINE
  8
0
 62
7
  6
CONTINUOUS
 10
601.2107746963
 20
814.4509445205
 11
602.6874294005
 21
814.4506077739
  0
LINE
  8
0
 62
7
  6
CONTINUOUS
 10
602.6874294005
 20
814.4506077739
 11
603.7731395362
 21
814.4502479785
  0
LINE
  8
0
 62
7
  6
CONTINUOUS
 10
599.2665202915
 20
818.1132221417
 11
600.4892279963
 21
818.1129092913
  0
LINE
  8
0
 62
7
  6
CONTINUOUS
 10
600.4892279963
 20
818.1129092913
 11
601.3336896982
 21
818.1125770165
  0
LINE
  8
0
 62
7
  6
CONTINUOUS
 10
603.7731395362
 20
814.4502479785
 11
604.4460896818
 21
814.4498723637
  0
LINE
  8
0
 62
7
  6
CONTINUOUS
 10
601.3336896982
 20
818.1125770165
 11
601.7813975677
 21
818.1122325997
  0
LINE
  8
0
 62
7
  6
CONTINUOUS
 10
4.7881322375
 20
403.6923140933
 11
4.9084496726
 21
403.6921925047
  0
LINE
  8
0
 62
7
  6
CONTINUOUS
 10
6.4223436303
 20
403.6888326481
 11
6.6584791255
 21
403.6886114323
  0
LINE
  8
0
 62
7
  6
CONTINUOUS
 10
424.7779692691
 20
454.8889868489
 11
424.5265851956
 21
454.8892429869
  0
LINE
  8
0
 62
7
  6
CONTINUOUS
 10
4.9084496726
 20
403.6921925047
 11
5.0343888599
 21
403.6919949984
  0
LINE
  8
0
 62
7
  6
CONTINUOUS
 10
6.2454106334
 20
403.6891068119
 11
6.4223436303
 21
403.6888326481
  0
LINE
  8
0
 62
7
  6
CONTINUOUS
 10
604.4460896818
 20
814.4498723637
 11
604.6938791886
 21
814.4494619366
  0
LINE
  8
0
 62
7
  6
CONTINUOUS
 10
5.0343888599
 20
403.6919949984
 11
5.1659576564
 21
403.6917291317
  0
LINE
  8
0
 62
7
  6
CONTINUOUS
 10
6.0741658494
 20
403.6894457795
 11
6.2454106334
 21
403.6891068119
  0
LINE
  8
0
 62
7
  6
CONTINUOUS
 10
5.1659576564
 20
403.6917291317
 11
5.4460231463
 21
403.6910416122
  0
LINE
  8
0
 62
7
  6
CONTINUOUS
 10
5.7487275501
 20
403.6902354266
 11
6.0741658494
 21
403.6894457795
  0
LINE
  8
0
 62
7
  6
CONTINUOUS
 10
5.4460231463
 20
403.6910416122
 11
5.7487275501
 21
403.6902354266
  0
LINE
  8
0
 62
7
  6
CONTINUOUS
 10
601.7813975677
 20
818.1122325997
 11
601.8551290148
 21
818.1120232408
  0
LINE
  8
0
 62
7
  6
CONTINUOUS
 10
523.4577130619
 20
755.6004866721
 11
627.9579648899
 21
754.9228355177
  0
LINE
  8
0
 62
7
  6
CONTINUOUS
 10
424.9896954082
 20
454.8875830766
 11
424.7779692691
 21
454.8889868489
  0
LINE
  8
0
 62
7
  6
CONTINUOUS
 10
515.9374859706
 20
755.6637207577
 11
523.4575746806
 21
755.6004747447
  0
LINE
  8
0
 62
7
  6
CONTINUOUS
 10
508.1413921885
 20
755.7621708714
 11
515.9374859706
 21
755.6637207577
  0
LINE
  8
0
 62
7
  6
CONTINUOUS
 10
425.1737284166
 20
454.8848137535
 11
424.9896954082
 21
454.8875830766
  0
LINE
  8
0
 62
7
  6
CONTINUOUS
 10
628.2371426345
 20
811.9897880454
 11
595.5857658821
 21
812.5556175341
  0
LINE
  8
0
 62
7
  6
CONTINUOUS
 10
500.9548346006
 20
755.8887364541
 11
508.1413921885
 21
755.7621708714
  0
LINE
  8
0
 62
7
  6
CONTINUOUS
 10
494.6055164103
 20
756.0397203478
 11
500.9548346006
 21
755.8887364541
  0
LINE
  8
0
 62
7
  6
CONTINUOUS
 10
425.3555461198
 20
454.8795147641
 11
425.1737284166
 21
454.8848137535
  0
LINE
  8
0
 62
7
  6
CONTINUOUS
 10
489.2877152596
 20
756.2113811066
 11
494.6055164103
 21
756.0397203478
  0
LINE
  8
0
 62
7
  6
CONTINUOUS
 10
485.128638907
 20
756.4029128829
 11
489.2877152596
 21
756.2113811066
  0
LINE
  8
0
 62
7
  6
CONTINUOUS
 10
619.9136778039
 20
414.5206472607
 11
619.5168523133
 21
414.5398801165
  0
LINE
  8
0
 62
7
  6
CONTINUOUS
 10
478.2625742625
 20
414.3952903648
 11
478.8742585269
 21
414.3618984966
  0
LINE
  8
0
 62
7
  6
CONTINUOUS
 10
425.604611895
 20
454.8651863827
 11
425.3555461198
 21
454.8795147641
  0
LINE
  8
0
 62
7
  6
CONTINUOUS
 10
482.073226555
 20
756.6408888873
 11
485.128638907
 21
756.4029128829
  0
LINE
  8
0
 62
7
  6
CONTINUOUS
 10
482.0732265904
 20
756.6408888832
 11
482.0891137118
 21
756.6390302295
  0
LINE
  8
0
 62
7
  6
CONTINUOUS
 10
426.0768857047
 20
454.8071674232
 11
425.604611895
 21
454.8651863827
  0
LINE
  8
0
 62
7
  6
CONTINUOUS
 10
477.7643780887
 20
757.24580045
 11
482.0891136771
 21
756.6390302335
  0
LINE
  8
0
 62
7
  6
CONTINUOUS
 10
620.2758924301
 20
414.4681617495
 11
619.9136778039
 21
414.5206472607
  0
LINE
  8
0
 62
7
  6
CONTINUOUS
 10
621.0144950639
 20
414.2727369997
 11
619.5719617017
 21
414.5399498569
  0
LINE
  8
0
 62
7
  6
CONTINUOUS
 10
477.5180135146
 20
414.5369934446
 11
478.2625742625
 21
414.3952903648
  0
LINE
  8
0
 62
7
  6
CONTINUOUS
 10
474.8099877822
 20
757.9027711171
 11
477.7643780887
 21
757.24580045
  0
LINE
  8
0
 62
7
  6
CONTINUOUS
 10
620.6102707778
 20
414.3889323189
 11
620.2758924301
 21
414.4681617495
  0
LINE
  8
0
 62
7
  6
CONTINUOUS
 10
426.7694226914
 20
454.6391038161
 11
426.0768857047
 21
454.8071674232
  0
LINE
  8
0
 62
7
  6
CONTINUOUS
 10
604.6938791886
 20
814.4494619366
 11
610.3088854108
 21
812.9162792682
  0
LINE
  8
0
 62
7
  6
CONTINUOUS
 10
620.9211314303
 20
414.287108081
 11
620.6102707778
 21
414.3889323189
  0
LINE
  8
0
 62
7
  6
CONTINUOUS
 10
426.9583986876
 20
454.5746302508
 11
426.7694226914
 21
454.6391038161
  0
LINE
  8
0
 62
7
  6
CONTINUOUS
 10
476.8461629346
 20
414.7718531859
 11
477.5180135146
 21
414.5369934446
  0
LINE
  8
0
 62
7
  6
CONTINUOUS
 10
429.1042467671
 20
453.7792246047
 11
429.0944509383
 21
453.7827870356
  0
LINE
  8
0
 62
7
  6
CONTINUOUS
 10
429.1459941904
 20
453.7640421512
 11
429.1042467671
 21
453.7792246047
  0
LINE
  8
0
 62
7
  6
CONTINUOUS
 10
426.9873769479
 20
454.5639891336
 11
426.9583986876
 21
454.5746302508
  0
LINE
  8
0
 62
7
  6
CONTINUOUS
 10
426.9873769479
 20
454.5639891336
 11
429.118264196
 21
453.7739495245
  0
LINE
  8
0
 62
7
  6
CONTINUOUS
 10
429.118264196
 20
453.7739495245
 11
429.1838675363
 21
453.7489594753
  0
LINE
  8
0
 62
7
  6
CONTINUOUS
 10
472.5571404215
 20
758.8007118311
 11
474.8099877822
 21
757.9027711171
  0
LINE
  8
0
 62
7
  6
CONTINUOUS
 10
621.2113823946
 20
414.1654829259
 11
620.9211314303
 21
414.287108081
  0
LINE
  8
0
 62
7
  6
CONTINUOUS
 10
429.1838675363
 20
453.7489594753
 11
429.4846372784
 21
453.6203463639
  0
LINE
  8
0
 62
7
  6
CONTINUOUS
 10
621.4389916746
 20
414.0504219572
 11
621.2113823946
 21
414.1654829259
  0
LINE
  8
0
 62
7
  6
CONTINUOUS
 10
429.4846372784
 20
453.6203463639
 11
429.7763250888
 21
453.4722858711
  0
LINE
  8
0
 62
7
  6
CONTINUOUS
 10
476.2711622564
 20
415.0670636518
 11
476.8461629346
 21
414.7718531859
  0
LINE
  8
0
 62
7
  6
CONTINUOUS
 10
430.6218995689
 20
452.9196183858
 11
429.1459941904
 21
453.7640421512
  0
LINE
  8
0
 62
7
  6
CONTINUOUS
 10
621.6545439336
 20
413.9237771126
 11
621.4389916746
 21
414.0504219572
  0
LINE
  8
0
 62
7
  6
CONTINUOUS
 10
429.7763250888
 20
453.4722858711
 11
430.0577536078
 21
453.3055284161
  0
LINE
  8
0
 62
7
  6
CONTINUOUS
 10
622.2632717956
 20
413.5037463917
 11
621.0144950639
 21
414.2727369997
  0
LINE
  8
0
 62
7
  6
CONTINUOUS
 10
621.8586619448
 20
413.7861467261
 11
621.6545439336
 21
413.9237771126
  0
LINE
  8
0
 62
7
  6
CONTINUOUS
 10
430.0577536078
 20
453.3055284161
 11
430.3277454755
 21
453.1208244184
  0
LINE
  8
0
 62
7
  6
CONTINUOUS
 10
475.7612223402
 20
415.4243673205
 11
476.2711622564
 21
415.0670636518
  0
LINE
  8
0
 62
7
  6
CONTINUOUS
 10
622.0517938519
 20
413.6379613553
 11
621.8586619448
 21
413.7861467261
  0
LINE
  8
0
 62
7
  6
CONTINUOUS
 10
430.3277454755
 20
453.1208244184
 11
430.5851233324
 21
452.9189242974
  0
LINE
  8
0
 62
7
  6
CONTINUOUS
 10
470.523087109
 20
760.4955123433
 11
472.5571404215
 21
758.8007118311
  0
LINE
  8
0
 62
7
  6
CONTINUOUS
 10
622.2342420982
 20
413.4795115748
 11
622.0517938519
 21
413.6379613553
  0
LINE
  8
0
 62
7
  6
CONTINUOUS
 10
430.5851233324
 20
452.9189242974
 11
430.8287098185
 21
452.7005784725
  0
LINE
  8
0
 62
7
  6
CONTINUOUS
 10
475.3193469817
 20
415.8319471123
 11
475.7612223402
 21
415.4243673205
  0
LINE
  8
0
 62
7
  6
CONTINUOUS
 10
622.4061815374
 20
413.3109653768
 11
622.2342420982
 21
413.4795115748
  0
LINE
  8
0
 62
5
  6
CONTINUOUS
 10
615.7371426345
 20
25.0
 11
640.7371426345
 21
0.0
  0
LINE
  8
0
 62
7
  6
CONTINUOUS
 10
430.8287098185
 20
452.7005784725
 11
431.0573593846
 21
452.4666326348
  0
LINE
  8
0
 62
7
  6
CONTINUOUS
 10
622.5676693942
 20
413.1323777402
 11
622.4061815374
 21
413.3109653768
  0
LINE
  8
0
 62
7
  6
CONTINUOUS
 10
474.9445788423
 20
416.2684032952
 11
475.3193469817
 21
415.8319471123
  0
LINE
  8
0
 62
7
  6
CONTINUOUS
 10
431.7294821367
 20
451.6293872995
 11
430.6218995689
 21
452.9196183858
  0
LINE
  8
0
 62
7
  6
CONTINUOUS
 10
431.0573593846
 20
452.4666326348
 11
431.2701776874
 21
452.2181948333
  0
LINE
  8
0
 62
7
  6
CONTINUOUS
 10
622.7186484439
 20
412.943693686
 11
622.5676693942
 21
413.1323777402
  0
LINE
  8
0
 62
7
  6
CONTINUOUS
 10
601.8551290148
 20
818.1120232408
 11
604.6938813921
 21
814.4494609435
  0
LINE
  8
0
 62
7
  6
CONTINUOUS
 10
469.5884567036
 20
761.7229185329
 11
470.5261501348
 21
760.4915423305
  0
LINE
  8
0
 62
7
  6
CONTINUOUS
 10
623.1510576751
 20
412.33613813
 11
622.2632717956
 21
413.5037463917
  0
LINE
  8
0
 62
7
  6
CONTINUOUS
 10
431.2701776874
 20
452.2181948333
 11
431.4663641761
 21
451.9564090238
  0
LINE
  8
0
 62
7
  6
CONTINUOUS
 10
622.8589438328
 20
412.7447452222
 11
622.7186484439
 21
412.943693686
  0
LINE
  8
0
 62
7
  6
CONTINUOUS
 10
474.6330462239
 20
416.723692876
 11
474.9445788423
 21
416.2684032952
  0
LINE
  8
0
 62
7
  6
CONTINUOUS
 10
431.4663641761
 20
451.9564090238
 11
431.6451183001
 21
451.6824191627
  0
LINE
  8
0
 62
7
  6
CONTINUOUS
 10
622.9882531175
 20
412.535241774
 11
622.8589438328
 21
412.7447452222
  0
LINE
  8
0
 62
7
  6
CONTINUOUS
 10
431.6451183001
 20
451.6824191627
 11
431.8056395086
 21
451.3973692058
  0
LINE
  8
0
 62
7
  6
CONTINUOUS
 10
474.3857161769
 20
417.1814649725
 11
474.6330462239
 21
416.723692876
  0
LINE
  8
0
 62
7
  6
CONTINUOUS
 10
623.1061281545
 20
412.314752784
 11
622.9882531175
 21
412.535241774
  0
LINE
  8
0
 62
7
  6
CONTINUOUS
 10
580.7395483931
 20
164.0730830825
 11
574.5206547339
 21
176.9862320848
  0
LINE
  8
0
 62
7
  6
CONTINUOUS
 10
431.8056395086
 20
451.3973692058
 11
431.9471272509
 21
451.1024031093
  0
LINE
  8
0
 62
7
  6
CONTINUOUS
 10
574.5206547339
 20
176.9862320848
 11
569.11127062
 21
188.3663124853
  0
LINE
  8
0
 62
7
  6
CONTINUOUS
 10
623.2119461705
 20
412.082679918
 11
623.1061281545
 21
412.314752784
  0
LINE
  8
0
 62
7
  6
CONTINUOUS
 10
474.2011418867
 20
417.6217545734
 11
474.3857161769
 21
417.1814649725
  0
LINE
  8
0
 62
7
  6
CONTINUOUS
 10
569.1100256451
 20
188.3692861044
 11
569.1059499463
 21
188.3792479989
  0
LINE
  8
0
 62
7
  6
CONTINUOUS
 10
569.1102337841
 20
188.369366178
 11
569.0674204451
 21
188.4742708464
  0
LINE
  8
0
 62
7
  6
CONTINUOUS
 10
569.0674204451
 20
188.4742708464
 11
568.9747909609
 21
188.702702693
  0
LINE
  8
0
 62
7
  6
CONTINUOUS
 10
568.9747909609
 20
188.702702693
 11
568.866398349
 21
188.9725400574
  0
LINE
  8
0
 62
7
  6
CONTINUOUS
 10
431.9471272509
 20
451.1024031093
 11
432.0688468173
 21
450.7987406784
  0
LINE
  8
0
 62
7
  6
CONTINUOUS
 10
568.866398349
 20
188.9725400574
 11
568.7458037861
 21
189.2760680536
  0
LINE
  8
0
 62
7
  6
CONTINUOUS
 10
568.7458037861
 20
189.2760680536
 11
568.6185508736
 21
189.6003129199
  0
LINE
  8
0
 62
7
  6
CONTINUOUS
 10
568.6185508736
 20
189.6003129199
 11
568.4902409168
 21
189.9315828428
  0
LINE
  8
0
 62
7
  6
CONTINUOUS
 10
432.3396740485
 20
450.0473027471
 11
431.7294821367
 21
451.6293872995
  0
LINE
  8
0
 62
7
  6
CONTINUOUS
 10
568.4902409168
 20
189.9315828428
 11
568.3600009649
 21
190.2725369548
  0
LINE
  8
0
 62
7
  6
CONTINUOUS
 10
568.3600009649
 20
190.2725369548
 11
568.2286053712
 21
190.6216042033
  0
LINE
  8
0
 62
7
  6
CONTINUOUS
 10
623.3218079615
 20
411.7877444716
 11
623.2119461705
 21
412.082679918
  0
LINE
  8
0
 62
7
  6
CONTINUOUS
 10
568.2286053712
 20
190.6216042033
 11
568.0971529914
 21
190.9762574951
  0
LINE
  8
0
 62
7
  6
CONTINUOUS
 10
568.0971529914
 20
190.9762574951
 11
567.9667116079
 21
191.3339079313
  0
LINE
  8
0
 62
7
  6
CONTINUOUS
 10
567.9667116079
 20
191.3339079313
 11
567.8867704386
 21
191.5560773298
  0
LINE
  8
0
 62
7
  6
CONTINUOUS
 10
567.8867704386
 20
191.5560773298
 11
567.8363446964
 21
191.6999918793
  0
LINE
  8
0
 62
7
  6
CONTINUOUS
 10
469.0717765074
 20
763.1970161777
 11
469.5884567036
 21
761.7229185329
  0
LINE
  8
0
 62
7
  6
CONTINUOUS
 10
567.8509090525
 20
191.6569516579
 11
567.4662393628
 21
192.7937179216
  0
LINE
  8
0
 62
7
  6
CONTINUOUS
 10
432.0688468173
 20
450.7987406784
 11
432.1703959551
 21
450.4877479713
  0
LINE
  8
0
 62
7
  6
CONTINUOUS
 10
474.0691808004
 20
418.0380073582
 11
474.2011418867
 21
417.6217545734
  0
LINE
  8
0
 62
7
  6
CONTINUOUS
 10
584.5128956021
 20
151.935348354
 11
580.7395483931
 21
164.0730830825
  0
LINE
  8
0
 62
7
  6
CONTINUOUS
 10
567.4662393628
 20
192.7937179216
 11
567.1888158041
 21
193.6934964206
  0
LINE
  8
0
 62
7
  6
CONTINUOUS
 10
623.5580119343
 20
410.9294813667
 11
623.1510576751
 21
412.33613813
  0
LINE
  8
0
 62
7
  6
CONTINUOUS
 10
567.1888158041
 20
193.6934964206
 11
567.1447025784
 21
193.8471598663
  0
LINE
  8
0
 62
7
  6
CONTINUOUS
 10
567.0855059836
 20
194.0558171021
 11
567.1447212151
 21
193.8471011602
  0
LINE
  8
0
 62
7
  6
CONTINUOUS
 10
623.4110600641
 20
411.4730081079
 11
623.3218079615
 21
411.7877444716
  0
LINE
  8
0
 62
7
  6
CONTINUOUS
 10
566.9329357977
 20
194.5967162125
 11
567.0855059836
 21
194.0558171021
  0
LINE
  8
0
 62
7
  6
CONTINUOUS
 10
566.4793848875
 20
196.2339516903
 11
566.9329356217
 21
194.5967155697
  0
LINE
  8
0
 62
7
  6
CONTINUOUS
 10
565.841691782
 20
198.6194955304
 11
566.4793848875
 21
196.2339516903
  0
LINE
  8
0
 62
7
  6
CONTINUOUS
 10
565.8587225207
 20
198.5557853012
 11
565.2957452176
 21
200.747871744
  0
LINE
  8
0
 62
7
  6
CONTINUOUS
 10
432.1703959551
 20
450.4877479713
 11
432.2514727991
 21
450.1707883239
  0
LINE
  8
0
 62
7
  6
CONTINUOUS
 10
565.2295667239
 20
201.0117246265
 11
565.841691782
 21
198.6194955304
  0
LINE
  8
0
 62
7
  6
CONTINUOUS
 10
565.2957452176
 20
200.747871744
 11
564.738206665
 21
203.013571928
  0
LINE
  8
0
 62
7
  6
CONTINUOUS
 10
564.6430588232
 20
203.410361736
 11
565.2295667239
 21
201.0117246265
  0
LINE
  8
0
 62
7
  6
CONTINUOUS
 10
564.738206665
 20
203.013571928
 11
564.2035775455
 21
205.2847870074
  0
LINE
  8
0
 62
7
  6
CONTINUOUS
 10
564.0822171899
 20
205.8151296164
 11
564.6430588232
 21
203.410361736
  0
LINE
  8
0
 62
7
  6
CONTINUOUS
 10
562.2698750848
 20
214.1539504863
 11
566.4226556121
 21
196.1348998405
  0
LINE
  8
0
 62
7
  6
CONTINUOUS
 10
473.9797668516
 20
418.4297080214
 11
474.0691808004
 21
418.0380073582
  0
LINE
  8
0
 62
7
  6
CONTINUOUS
 10
564.2035775455
 20
205.2847870074
 11
563.6918992928
 21
207.5612830749
  0
LINE
  8
0
 62
7
  6
CONTINUOUS
 10
563.547090934
 20
208.2257510248
 11
564.0822171899
 21
205.8151296164
  0
LINE
  8
0
 62
7
  6
CONTINUOUS
 10
563.6918992928
 20
207.5612830749
 11
563.2032133406
 21
209.8428262235
  0
LINE
  8
0
 62
7
  6
CONTINUOUS
 10
563.0377291654
 20
210.6419487188
 11
563.547090934
 21
208.2257510248
  0
LINE
  8
0
 62
7
  6
CONTINUOUS
 10
563.2032133406
 20
209.8428262235
 11
562.7375611224
 21
212.129182546
  0
LINE
  8
0
 62
7
  6
CONTINUOUS
 10
562.5811160748
 20
212.9249363007
 11
563.0377291654
 21
210.6419487188
  0
LINE
  8
0
 62
7
  6
CONTINUOUS
 10
623.4767944715
 20
411.135676937
 11
623.4110600641
 21
411.4730081079
  0
LINE
  8
0
 62
7
  6
CONTINUOUS
 10
562.7375611224
 20
212.129182546
 11
562.3036092082
 21
214.3742560597
  0
LINE
  8
0
 62
7
  6
CONTINUOUS
 10
562.1474919084
 20
215.2124022441
 11
562.5811160748
 21
212.9249363007
  0
LINE
  8
0
 62
7
  6
CONTINUOUS
 10
432.2514727991
 20
450.1707883239
 11
432.3117754843
 21
449.8492250718
  0
LINE
  8
0
 62
7
  6
CONTINUOUS
 10
562.3036092082
 20
214.3742560597
 11
561.8918576822
 21
216.6235073496
  0
LINE
  8
0
 62
7
  6
CONTINUOUS
 10
561.7368978293
 20
217.5041141696
 11
562.1474919084
 21
215.2124022441
  0
LINE
  8
0
 62
7
  6
CONTINUOUS
 10
561.8918576822
 20
216.6235073496
 11
561.5023455413
 21
218.8767162644
  0
LINE
  8
0
 62
7
  6
CONTINUOUS
 10
561.3493750005
 20
219.7998396979
 11
561.7368978293
 21
217.5041141696
  0
LINE
  8
0
 62
7
  6
CONTINUOUS
 10
561.5023455413
 20
218.8767162644
 11
561.1351117825
 21
221.1336626524
  0
LINE
  8
0
 62
7
  6
CONTINUOUS
 10
560.9849645851
 20
222.0993464494
 11
561.3493750005
 21
219.7998396979
  0
LINE
  8
0
 62
7
  6
CONTINUOUS
 10
473.9299206162
 20
418.7532768445
 11
473.9797668516
 21
418.4297080214
  0
LINE
  8
0
 62
7
  6
CONTINUOUS
 10
561.1351117825
 20
221.1336626524
 11
560.7841310129
 21
223.4352568886
  0
LINE
  8
0
 62
7
  6
CONTINUOUS
 10
560.643707746
 20
224.4024020447
 11
560.9849645851
 21
222.0993464494
  0
LINE
  8
0
 62
7
  6
CONTINUOUS
 10
559.5622050134
 20
232.5155470335
 11
562.2698750848
 21
214.1539504863
  0
LINE
  8
0
 62
7
  6
CONTINUOUS
 10
560.7841310129
 20
223.4352568886
 11
560.4563277042
 21
225.7402651325
  0
LINE
  8
0
 62
7
  6
CONTINUOUS
 10
560.3256456465
 20
226.7087741045
 11
560.643707746
 21
224.4024020447
  0
LINE
  8
0
 62
7
  6
CONTINUOUS
 10
560.4563277042
 20
225.7402651325
 11
560.1517430194
 21
228.0484550047
  0
LINE
  8
0
 62
7
  6
CONTINUOUS
 10
560.0308194494
 20
229.0182302492
 11
560.3256456465
 21
226.7087741045
  0
LINE
  8
0
 62
7
  6
CONTINUOUS
 10
560.1517430194
 20
228.0484550047
 11
559.8704181215
 21
230.3595941257
  0
LINE
  8
0
 62
7
  6
CONTINUOUS
 10
587.2291474468
 20
129.539784959
 11
584.5132857241
 21
151.9354186127
  0
LINE
  8
0
 62
7
  6
CONTINUOUS
 10
432.3117754843
 20
449.8492250718
 11
432.3510021457
 21
449.5244215511
  0
LINE
  8
0
 62
7
  6
CONTINUOUS
 10
559.7592703178
 20
231.3305380994
 11
560.0308194494
 21
229.0182302492
  0
LINE
  8
0
 62
7
  6
CONTINUOUS
 10
559.8704181215
 20
230.3595941257
 11
559.6123941737
 21
232.6734501162
  0
LINE
  8
0
 62
7
  6
CONTINUOUS
 10
432.4359084453
 20
449.1736694138
 11
432.3396740485
 21
450.0473027471
  0
ARC
  8
0
 62
7
  6
CONTINUOUS
 10
583.2308961284
 20
743.1270511867
 40
77.2632392753
 50
76.0515336486
 51
103.9484663514
  0
CIRCLE
  8
0
 62
5
  6
CONTINUOUS
 10
628.2371426345
 20
12.5
 40
12.5
  0
ARC
  8
0
 62
7
  6
CONTINUOUS
 10
610.045480288
 20
811.9515931744
 40
1.0
 50
47.3638101166
 51
74.7276204619
  0
ARC
  8
0
 62
7
  6
CONTINUOUS
 10
556.4163119689
 20
811.9515931744
 40
1.0
 50
105.2723795381
 51
160.0000001476
  0
ENDSEC
  0
EOF
