999
DXF file: C:\Users\FLORIA~1\AppData\Local\Temp\5n8vj9o4\centrocc-372100_50_3.dxf
999
Pro/ENGINEER 2017110 by Parametric Technology Corporation
  0
SECTION
  2
HEADER
  9
$EXTMAX
 10
420.0
 20
297.0
 30
0.0
  9
$EXTMIN
 10
0.0
 20
0.0
 30
0.0
  9
$LIMMIN
 10
0.0
 20
0.0
  9
$LIMMAX
 10
420.0
 20
297.0
  9
$VIEWCTR
 10
210.0
 20
148.5
  9
$VIEWSIZE
 40
297.0
  9
$CLAYER
  8
0
  9
$LTSCALE
 40
23.1
  9
$CELTYPE
  6
BYLAYER
  9
$DIMSCALE
 40
1.0
  9
$DIMASZ
 40
3.0
  9
$DIMEXO
 40
1.0
  9
$DIMDLI
 40
15.96
  9
$DIMEXE
 40
1.0
  9
$DIMCEN
 40
3.78
  9
$DIMLFAC
 40
1.0
  9
$DIMBLK
  1
_FILLED
  9
$DIMALT
 70
0
  9
$DIMALTF
 40
0.0393700787
  9
$DIMTXT
 40
3.0
  9
$AUNITS
 70
0
  9
$PDMODE
 70
3
  9
$PDSIZE
 40
5.0
  9
$TILEMODE
 70
1
  0
ENDSEC
  0
SECTION
  2
TABLES
  0
TABLE
  2
LTYPE
 70
6
  0
LTYPE
  2
BYBLOCK
 70
0
  3

 72
65
 73
0
 40
0.0
  0
LTYPE
  2
BYLAYER
 70
0
  3

 72
65
 73
0
 40
0.0
  0
LTYPE
  2
CONTINUOUS
 70
64
  3
Solid line
 72
65
 73
0
 40
0.0
  0
LTYPE
  2
CENTER
 70
64
  3
____ _ ____ _ ____ _ ____ _ ____ _ ____ _ ____
 72
65
 73
4
 40
0.6
 49
0.375
 49
-0.075
 49
0.075
 49
-0.075
  0
LTYPE
  2
HIDDEN
 70
64
  3
- - - - - - - - - - - - - - - - - - - -
 72
65
 73
2
 40
0.2
 49
0.1
 49
-0.1
  0
LTYPE
  2
PHANTOM
 70
64
  3
_____ _ _ _____ _ _ _____ _ _ _____
 72
65
 73
6
 40
0.8
 49
0.45
 49
-0.05
 49
0.1
 49
-0.05
 49
0.1
 49
-0.05
  0
LTYPE
  2
DOT
 70
64
  3
. . . . . . . . . . . . . . . . . . . .
 72
65
 73
2
 40
0.2
 49
0.1
 49
-0.1
  0
LTYPE
  2
DASHED
 70
64
  3
- - - - - - - - - - - - - - - - - - - -
 72
65
 73
2
 40
0.2
 49
0.1
 49
-0.1
  0
ENDTAB
  0
TABLE
  2
LAYER
 70
36
  0
LAYER
  2
0
 70
0
 62
7
  6
CONTINUOUS
  0
LAYER
  2
DEFAULT_1
 70
0
 62
7
  6
CENTER
  0
LAYER
  2
DEFAULT_2
 70
0
 62
8
  6
HIDDEN
  0
LAYER
  2
DEFAULT_3
 70
0
 62
7
  6
PHANTOM
  0
LAYER
  2
0000_BOM
 70
0
 62
7
  6
CONTINUOUS
  0
LAYER
  2
0000_REV_TABLE
 70
0
 62
7
  6
CONTINUOUS
  0
LAYER
  2
0000_STEVENS_NOTE
 70
0
 62
7
  6
CONTINUOUS
  0
LAYER
  2
CAD-MASTER_ZINC-PL
 70
0
 62
7
  6
CONTINUOUS
  0
LAYER
  2
SHELL
 70
0
 62
7
  6
CONTINUOUS
  0
ENDTAB
  0
TABLE
  2
STYLE
 70
1
  0
STYLE
  2
STANDARD
 70
0
 40
0.0
 41
0.75
 50
0.0
 71
0
 42
0.2
  3
txt
  4

  0
STYLE
  2
TEXTSTYLE_1
 70
0
 40
0.0
 41
0.8
 50
0.0
 71
0
 42
0.2
  3
gdt
  4

  0
ENDTAB
  0
ENDSEC
  0
SECTION
  2
BLOCKS
  0
BLOCK
  8
0
 62
5
  6
CONTINUOUS
  2
PLUMBING_BL0
 70
64
 10
145.6869197475
 20
497.8696893732
  0
CIRCLE
  8
0
 62
5
  6
CONTINUOUS
 10
145.6869197475
 20
497.8696893732
 40
12.5
  0
LINE
  8
0
 62
5
  6
CONTINUOUS
 10
158.1869197475
 20
510.3696893732
 11
133.1869197475
 21
485.3696893732
  0
LINE
  8
0
 62
5
  6
CONTINUOUS
 10
145.6869197475
 20
497.8696893732
 11
133.1869197475
 21
510.3696893732
  0
LINE
  8
0
 62
5
  6
CONTINUOUS
 10
145.6869197475
 20
497.8696893732
 11
158.1869197475
 21
485.3696893732
  0
ENDBLK
  8
0
  6
BYBLOCK
 62
0
  0
ENDSEC
  0
SECTION
  2
ENTITIES
  0
INSERT
  8
0
 62
5
  6
CONTINUOUS
  2
PLUMBING_BL0
 10
145.6869197475
 20
497.8696893732
  0
POLYLINE
  8
0
 62
7
  6
CONTINUOUS
 66
1
 70
0
  0
VERTEX
  8
0
 62
7
  6
CONTINUOUS
 10
-39.7890010381
 20
497.6821312568
  0
VERTEX
  8
0
 62
7
  6
CONTINUOUS
 10
-39.7913522044
 20
497.6812397678
  0
VERTEX
  8
0
 62
7
  6
CONTINUOUS
 10
-39.7927535052
 20
497.6803478246
  0
VERTEX
  8
0
 62
7
  6
CONTINUOUS
 10
-39.7932035713
 20
497.6794554327
  0
VERTEX
  8
0
 62
7
  6
CONTINUOUS
 10
-39.792700979
 20
497.6785625977
  0
VERTEX
  8
0
 62
7
  6
CONTINUOUS
 10
-39.7912442494
 20
497.6776693249
  0
SEQEND
  0
POLYLINE
  8
0
 62
7
  6
CONTINUOUS
 66
1
 70
0
  0
VERTEX
  8
0
 62
7
  6
CONTINUOUS
 10
152.733592667
 20
-130.2917617287
  0
VERTEX
  8
0
 62
7
  6
CONTINUOUS
 10
154.9334112032
 20
-130.1623011211
  0
VERTEX
  8
0
 62
7
  6
CONTINUOUS
 10
166.0986171267
 20
-129.0327849062
  0
VERTEX
  8
0
 62
7
  6
CONTINUOUS
 10
176.563671819
 20
-127.1884043532
  0
VERTEX
  8
0
 62
7
  6
CONTINUOUS
 10
186.1983600743
 20
-124.8385964996
  0
VERTEX
  8
0
 62
7
  6
CONTINUOUS
 10
194.9480886902
 20
-122.298440078
  0
SEQEND
  0
POLYLINE
  8
0
 62
7
  6
CONTINUOUS
 66
1
 70
0
  0
VERTEX
  8
0
 62
7
  6
CONTINUOUS
 10
138.7333432777
 20
-130.2917325407
  0
VERTEX
  8
0
 62
7
  6
CONTINUOUS
 10
139.695847406
 20
-130.3096587626
  0
VERTEX
  8
0
 62
7
  6
CONTINUOUS
 10
142.3444807982
 20
-130.3484464115
  0
VERTEX
  8
0
 62
7
  6
CONTINUOUS
 10
145.2114496906
 20
-130.3671218336
  0
VERTEX
  8
0
 62
7
  6
CONTINUOUS
 10
148.1819427852
 20
-130.3575446745
  0
VERTEX
  8
0
 62
7
  6
CONTINUOUS
 10
151.1686334887
 20
-130.3199795659
  0
VERTEX
  8
0
 62
7
  6
CONTINUOUS
 10
152.7335812577
 20
-130.2917260976
  0
SEQEND
  0
POLYLINE
  8
0
 62
7
  6
CONTINUOUS
 66
1
 70
0
  0
VERTEX
  8
0
 62
7
  6
CONTINUOUS
 10
153.0511241788
 20
-127.5448887237
  0
VERTEX
  8
0
 62
7
  6
CONTINUOUS
 10
177.991931502
 20
-124.2977388125
  0
VERTEX
  8
0
 62
7
  6
CONTINUOUS
 10
203.5068714985
 20
-116.8569332708
  0
VERTEX
  8
0
 62
7
  6
CONTINUOUS
 10
215.3223552199
 20
-111.8430603145
  0
SEQEND
  0
LINE
  8
0
 62
7
  6
CONTINUOUS
 10
152.7406018895
 20
-127.5615405938
 11
153.0511018921
 21
-127.5449025346
  0
POLYLINE
  8
0
 62
7
  6
CONTINUOUS
 66
1
 70
0
  0
VERTEX
  8
0
 62
7
  6
CONTINUOUS
 10
138.7414856628
 20
-127.5615405691
  0
VERTEX
  8
0
 62
7
  6
CONTINUOUS
 10
142.896148349
 20
-127.7150451657
  0
VERTEX
  8
0
 62
7
  6
CONTINUOUS
 10
148.4646538365
 20
-127.7175742526
  0
VERTEX
  8
0
 62
7
  6
CONTINUOUS
 10
152.7406019002
 20
-127.5615405827
  0
SEQEND
  0
LINE
  8
0
 62
7
  6
CONTINUOUS
 10
138.4309350195
 20
-127.5448997251
 11
138.7414856748
 21
-127.5615405802
  0
POLYLINE
  8
0
 62
7
  6
CONTINUOUS
 66
1
 70
0
  0
VERTEX
  8
0
 62
7
  6
CONTINUOUS
 10
87.3925067069
 20
-119.1523615552
  0
VERTEX
  8
0
 62
7
  6
CONTINUOUS
 10
85.5168317869
 20
-118.4768187045
  0
VERTEX
  8
0
 62
7
  6
CONTINUOUS
 10
83.7529704482
 20
-117.8198639719
  0
VERTEX
  8
0
 62
7
  6
CONTINUOUS
 10
81.8915671467
 20
-117.1034951297
  0
VERTEX
  8
0
 62
7
  6
CONTINUOUS
 10
80.0400015751
 20
-116.3671894603
  0
VERTEX
  8
0
 62
7
  6
CONTINUOUS
 10
78.1983006791
 20
-115.611269714
  0
VERTEX
  8
0
 62
7
  6
CONTINUOUS
 10
76.3663774216
 20
-114.8360576538
  0
VERTEX
  8
0
 62
7
  6
CONTINUOUS
 10
74.544013758
 20
-114.0417973456
  0
VERTEX
  8
0
 62
7
  6
CONTINUOUS
 10
72.7308338277
 20
-113.2285371282
  0
VERTEX
  8
0
 62
7
  6
CONTINUOUS
 10
72.516051901
 20
-113.1306667486
  0
SEQEND
  0
POLYLINE
  8
0
 62
7
  6
CONTINUOUS
 66
1
 70
0
  0
VERTEX
  8
0
 62
7
  6
CONTINUOUS
 10
81.0066890589
 20
-116.8796192993
  0
VERTEX
  8
0
 62
7
  6
CONTINUOUS
 10
88.6202993317
 20
-119.7071453319
  0
VERTEX
  8
0
 62
7
  6
CONTINUOUS
 10
96.5627812068
 20
-122.3116108477
  0
VERTEX
  8
0
 62
7
  6
CONTINUOUS
 10
105.3186229091
 20
-124.8519803479
  0
VERTEX
  8
0
 62
7
  6
CONTINUOUS
 10
114.9558565668
 20
-127.1995753744
  0
VERTEX
  8
0
 62
7
  6
CONTINUOUS
 10
125.4207581431
 20
-129.0400222253
  0
VERTEX
  8
0
 62
7
  6
CONTINUOUS
 10
136.5838578738
 20
-130.1655729655
  0
VERTEX
  8
0
 62
7
  6
CONTINUOUS
 10
138.7333642932
 20
-130.2917513453
  0
SEQEND
  0
POLYLINE
  8
0
 62
7
  6
CONTINUOUS
 66
1
 70
0
  0
VERTEX
  8
0
 62
7
  6
CONTINUOUS
 10
75.8883065802
 20
-111.7150337984
  0
VERTEX
  8
0
 62
7
  6
CONTINUOUS
 10
90.6978007236
 20
-117.8642029932
  0
VERTEX
  8
0
 62
7
  6
CONTINUOUS
 10
114.8508457598
 20
-124.5740093068
  0
VERTEX
  8
0
 62
7
  6
CONTINUOUS
 10
138.4309140189
 20
-127.5448859998
  0
SEQEND
  0
LINE
  8
0
 62
7
  6
CONTINUOUS
 10
73.417051865
 20
-113.6692849592
 11
81.0066890589
 21
-116.8796192993
  0
LINE
  8
0
 62
7
  6
CONTINUOUS
 10
65.5955789283
 20
-109.9148696864
 11
73.417051865
 21
-113.6692849592
  0
POLYLINE
  8
0
 62
7
  6
CONTINUOUS
 66
1
 70
0
  0
VERTEX
  8
0
 62
7
  6
CONTINUOUS
 10
331.3571004212
 20
497.6775161362
  0
VERTEX
  8
0
 62
7
  6
CONTINUOUS
 10
331.3580693407
 20
497.6779100642
  0
VERTEX
  8
0
 62
7
  6
CONTINUOUS
 10
331.3593104553
 20
497.6787979009
  0
VERTEX
  8
0
 62
7
  6
CONTINUOUS
 10
331.3596090475
 20
497.6796857446
  0
VERTEX
  8
0
 62
7
  6
CONTINUOUS
 10
331.3589651525
 20
497.6805735895
  0
VERTEX
  8
0
 62
7
  6
CONTINUOUS
 10
331.357382367
 20
497.6814594079
  0
SEQEND
  0
POLYLINE
  8
0
 62
7
  6
CONTINUOUS
 66
1
 70
0
  0
VERTEX
  8
0
 62
7
  6
CONTINUOUS
 10
-11.4201885947
 20
-13.6126328155
  0
VERTEX
  8
0
 62
7
  6
CONTINUOUS
 10
-11.0103230858
 20
-14.7960892669
  0
VERTEX
  8
0
 62
7
  6
CONTINUOUS
 10
-10.2815770968
 20
-16.8330369385
  0
VERTEX
  8
0
 62
7
  6
CONTINUOUS
 10
-9.5266418468
 20
-18.8604242458
  0
VERTEX
  8
0
 62
7
  6
CONTINUOUS
 10
-8.7456380763
 20
-20.8779124635
  0
VERTEX
  8
0
 62
7
  6
CONTINUOUS
 10
-7.9386865259
 20
-22.8851628663
  0
VERTEX
  8
0
 62
7
  6
CONTINUOUS
 10
-7.1059079364
 20
-24.881836729
  0
VERTEX
  8
0
 62
7
  6
CONTINUOUS
 10
-6.2474230483
 20
-26.8675953264
  0
VERTEX
  8
0
 62
7
  6
CONTINUOUS
 10
-5.3633537991
 20
-28.8420995993
  0
VERTEX
  8
0
 62
7
  6
CONTINUOUS
 10
-4.4538477394
 20
-30.8050168298
  0
VERTEX
  8
0
 62
7
  6
CONTINUOUS
 10
-3.5190765163
 20
-32.7560299644
  0
VERTEX
  8
0
 62
7
  6
CONTINUOUS
 10
-2.5592126658
 20
-34.6948234934
  0
VERTEX
  8
0
 62
7
  6
CONTINUOUS
 10
-1.574428724
 20
-36.6210819071
  0
VERTEX
  8
0
 62
7
  6
CONTINUOUS
 10
-0.7280781909
 20
-38.2292210158
  0
VERTEX
  8
0
 62
7
  6
CONTINUOUS
 10
0.1356319544
 20
-39.8281057198
  0
VERTEX
  8
0
 62
7
  6
CONTINUOUS
 10
1.016599449
 20
-41.4175490152
  0
VERTEX
  8
0
 62
7
  6
CONTINUOUS
 10
1.9147220303
 20
-42.9973638982
  0
VERTEX
  8
0
 62
7
  6
CONTINUOUS
 10
2.8466941957
 20
-44.5958167919
  0
VERTEX
  8
0
 62
7
  6
CONTINUOUS
 10
3.796236982
 20
-46.1838967098
  0
VERTEX
  8
0
 62
7
  6
CONTINUOUS
 10
4.7632424464
 20
-47.7614062612
  0
VERTEX
  8
0
 62
7
  6
CONTINUOUS
 10
5.7476026461
 20
-49.3281480556
  0
VERTEX
  8
0
 62
7
  6
CONTINUOUS
 10
6.7492096383
 20
-50.8839247022
  0
VERTEX
  8
0
 62
7
  6
CONTINUOUS
 10
7.8732382809
 20
-52.5860781841
  0
VERTEX
  8
0
 62
7
  6
CONTINUOUS
 10
9.0179139312
 20
-54.2744180413
  0
VERTEX
  8
0
 62
7
  6
CONTINUOUS
 10
10.1830521421
 20
-55.9487057817
  0
VERTEX
  8
0
 62
7
  6
CONTINUOUS
 10
11.3684684842
 20
-57.6087029955
  0
VERTEX
  8
0
 62
7
  6
CONTINUOUS
 10
12.5739785284
 20
-59.2541712725
  0
VERTEX
  8
0
 62
7
  6
CONTINUOUS
 10
13.8743014872
 20
-60.983222683
  0
VERTEX
  8
0
 62
7
  6
CONTINUOUS
 10
15.1968000577
 20
-62.6953780861
  0
VERTEX
  8
0
 62
7
  6
CONTINUOUS
 10
16.5412542047
 20
-64.3903530445
  0
VERTEX
  8
0
 62
7
  6
CONTINUOUS
 10
17.9074438933
 20
-66.0678631206
  0
VERTEX
  8
0
 62
7
  6
CONTINUOUS
 10
19.2951490882
 20
-67.7276238771
  0
VERTEX
  8
0
 62
7
  6
CONTINUOUS
 10
20.7041497544
 20
-69.3693508765
  0
VERTEX
  8
0
 62
7
  6
CONTINUOUS
 10
22.1342258569
 20
-70.9927596814
  0
VERTEX
  8
0
 62
7
  6
CONTINUOUS
 10
23.5851568816
 20
-72.597565785
  0
VERTEX
  8
0
 62
7
  6
CONTINUOUS
 10
25.0567038653
 20
-74.1834948415
  0
VERTEX
  8
0
 62
7
  6
CONTINUOUS
 10
26.5486058214
 20
-75.7502973062
  0
VERTEX
  8
0
 62
7
  6
CONTINUOUS
 10
28.0606006949
 20
-77.2977268967
  0
VERTEX
  8
0
 62
7
  6
CONTINUOUS
 10
28.9772059645
 20
-78.2166566382
  0
SEQEND
  0
POLYLINE
  8
0
 62
7
  6
CONTINUOUS
 66
1
 70
0
  0
VERTEX
  8
0
 62
7
  6
CONTINUOUS
 10
-11.165551624
 20
-14.3568442224
  0
VERTEX
  8
0
 62
7
  6
CONTINUOUS
 10
-10.7665527428
 20
-15.5092888253
  0
VERTEX
  8
0
 62
7
  6
CONTINUOUS
 10
-10.0401763007
 20
-17.5409767573
  0
VERTEX
  8
0
 62
7
  6
CONTINUOUS
 10
-9.2877474971
 20
-19.5631610957
  0
VERTEX
  8
0
 62
7
  6
CONTINUOUS
 10
-8.5093861119
 20
-21.5755058092
  0
VERTEX
  8
0
 62
7
  6
CONTINUOUS
 10
-7.705211925
 20
-23.5776748663
  0
VERTEX
  8
0
 62
7
  6
CONTINUOUS
 10
-6.8753447166
 20
-25.5693322355
  0
VERTEX
  8
0
 62
7
  6
CONTINUOUS
 10
-6.0199042664
 20
-27.5501418853
  0
VERTEX
  8
0
 62
7
  6
CONTINUOUS
 10
-5.1390113306
 20
-29.5197674728
  0
VERTEX
  8
0
 62
7
  6
CONTINUOUS
 10
-4.2328110352
 20
-31.4778783758
  0
VERTEX
  8
0
 62
7
  6
CONTINUOUS
 10
-3.3014734626
 20
-33.4241598273
  0
VERTEX
  8
0
 62
7
  6
CONTINUOUS
 10
-2.3451697753
 20
-35.3582988264
  0
VERTEX
  8
0
 62
7
  6
CONTINUOUS
 10
-1.3640711362
 20
-37.279982372
  0
VERTEX
  8
0
 62
7
  6
CONTINUOUS
 10
-0.5209119605
 20
-38.8843419894
  0
VERTEX
  8
0
 62
7
  6
CONTINUOUS
 10
0.3395203121
 20
-40.4795066685
  0
VERTEX
  8
0
 62
7
  6
CONTINUOUS
 10
1.2171242326
 20
-42.0652908924
  0
VERTEX
  8
0
 62
7
  6
CONTINUOUS
 10
2.1117983523
 20
-43.6415091441
  0
VERTEX
  8
0
 62
7
  6
CONTINUOUS
 10
3.0401729817
 20
-45.2363657036
  0
VERTEX
  8
0
 62
7
  6
CONTINUOUS
 10
3.9860319328
 20
-46.8209171298
  0
VERTEX
  8
0
 62
7
  6
CONTINUOUS
 10
4.9492681221
 20
-48.3949676013
  0
VERTEX
  8
0
 62
7
  6
CONTINUOUS
 10
5.9297744658
 20
-49.9583212972
  0
VERTEX
  8
0
 62
7
  6
CONTINUOUS
 10
6.9274438804
 20
-51.5107823963
  0
VERTEX
  8
0
 62
7
  6
CONTINUOUS
 10
8.047036855
 20
-53.2093664654
  0
VERTEX
  8
0
 62
7
  6
CONTINUOUS
 10
9.187180289
 20
-54.8942272685
  0
VERTEX
  8
0
 62
7
  6
CONTINUOUS
 10
10.3476912066
 20
-56.5651281058
  0
VERTEX
  8
0
 62
7
  6
CONTINUOUS
 10
11.5283866468
 20
-58.2218324624
  0
VERTEX
  8
0
 62
7
  6
CONTINUOUS
 10
12.7290836486
 20
-59.8641038234
  0
VERTEX
  8
0
 62
7
  6
CONTINUOUS
 10
14.0242028161
 20
-61.5898715171
  0
VERTEX
  8
0
 62
7
  6
CONTINUOUS
 10
15.3413973512
 20
-63.2988555186
  0
VERTEX
  8
0
 62
7
  6
CONTINUOUS
 10
16.6804489703
 20
-64.9907736514
  0
VERTEX
  8
0
 62
7
  6
CONTINUOUS
 10
18.0411393902
 20
-66.6653437389
  0
VERTEX
  8
0
 62
7
  6
CONTINUOUS
 10
19.4232503274
 20
-68.3222836046
  0
VERTEX
  8
0
 62
7
  6
CONTINUOUS
 10
20.8265634985
 20
-69.9613110718
  0
VERTEX
  8
0
 62
7
  6
CONTINUOUS
 10
22.2508606201
 20
-71.5821439641
  0
VERTEX
  8
0
 62
7
  6
CONTINUOUS
 10
23.6959232123
 20
-73.1845000411
  0
VERTEX
  8
0
 62
7
  6
CONTINUOUS
 10
25.1615172512
 20
-74.7681048007
  0
VERTEX
  8
0
 62
7
  6
CONTINUOUS
 10
26.6473845586
 20
-76.3327093125
  0
VERTEX
  8
0
 62
7
  6
CONTINUOUS
 10
28.1532651658
 20
-77.8780692509
  0
VERTEX
  8
0
 62
7
  6
CONTINUOUS
 10
29.678899104
 20
-79.4039402898
  0
VERTEX
  8
0
 62
7
  6
CONTINUOUS
 10
30.9755067973
 20
-80.6704321963
  0
VERTEX
  8
0
 62
7
  6
CONTINUOUS
 10
32.2857149226
 20
-81.9228555263
  0
VERTEX
  8
0
 62
7
  6
CONTINUOUS
 10
33.6093693954
 20
-83.1610654668
  0
VERTEX
  8
0
 62
7
  6
CONTINUOUS
 10
34.9463161312
 20
-84.3849172051
  0
VERTEX
  8
0
 62
7
  6
CONTINUOUS
 10
36.3210686939
 20
-85.6161189422
  0
VERTEX
  8
0
 62
7
  6
CONTINUOUS
 10
37.7092788874
 20
-86.8321326311
  0
VERTEX
  8
0
 62
7
  6
CONTINUOUS
 10
39.1107840689
 20
-88.0328054156
  0
VERTEX
  8
0
 62
7
  6
CONTINUOUS
 10
40.5254215953
 20
-89.2179844395
  0
VERTEX
  8
0
 62
7
  6
CONTINUOUS
 10
41.9530288241
 20
-90.3875168463
  0
VERTEX
  8
0
 62
7
  6
CONTINUOUS
 10
43.541663974
 20
-91.6585006367
  0
VERTEX
  8
0
 62
7
  6
CONTINUOUS
 10
45.1456243391
 20
-92.9100958045
  0
VERTEX
  8
0
 62
7
  6
CONTINUOUS
 10
46.7646624401
 20
-94.1421334252
  0
VERTEX
  8
0
 62
7
  6
CONTINUOUS
 10
48.3985308623
 20
-95.3544455347
  0
VERTEX
  8
0
 62
7
  6
CONTINUOUS
 10
50.0469821908
 20
-96.546864169
  0
VERTEX
  8
0
 62
7
  6
CONTINUOUS
 10
51.8109992446
 20
-97.7896248411
  0
VERTEX
  8
0
 62
7
  6
CONTINUOUS
 10
53.5908469003
 20
-99.0096183057
  0
VERTEX
  8
0
 62
7
  6
CONTINUOUS
 10
55.3862299772
 20
-100.2066441715
  0
VERTEX
  8
0
 62
7
  6
CONTINUOUS
 10
57.1968532947
 20
-101.3805020473
  0
VERTEX
  8
0
 62
7
  6
CONTINUOUS
 10
59.0224216722
 20
-102.5309915418
  0
VERTEX
  8
0
 62
7
  6
CONTINUOUS
 10
60.8626399289
 20
-103.657912264
  0
VERTEX
  8
0
 62
7
  6
CONTINUOUS
 10
62.7172128843
 20
-104.7610638227
  0
VERTEX
  8
0
 62
7
  6
CONTINUOUS
 10
64.5858453572
 20
-105.8402458263
  0
VERTEX
  8
0
 62
7
  6
CONTINUOUS
 10
66.4682341448
 20
-106.8952644579
  0
VERTEX
  8
0
 62
7
  6
CONTINUOUS
 10
68.3640576041
 20
-107.925958586
  0
VERTEX
  8
0
 62
7
  6
CONTINUOUS
 10
70.2729926927
 20
-108.9321767441
  0
VERTEX
  8
0
 62
7
  6
CONTINUOUS
 10
72.1947163682
 20
-109.9137674652
  0
VERTEX
  8
0
 62
7
  6
CONTINUOUS
 10
73.8186109429
 20
-110.7191607772
  0
VERTEX
  8
0
 62
7
  6
CONTINUOUS
 10
75.4511097373
 20
-111.5069803199
  0
VERTEX
  8
0
 62
7
  6
CONTINUOUS
 10
75.8874315814
 20
-111.713878245
  0
SEQEND
  0
LINE
  8
0
 62
7
  6
CONTINUOUS
 10
-11.4201886075
 20
-13.6126328199
 11
-11.165551624
 21
-14.3568442224
  0
LINE
  8
0
 62
7
  6
CONTINUOUS
 10
-11.3284547836
 20
-13.8783870181
 11
-11.165551624
 21
-14.3568442224
  0
POLYLINE
  8
0
 62
7
  6
CONTINUOUS
 66
1
 70
0
  0
VERTEX
  8
0
 62
7
  6
CONTINUOUS
 10
-14.6662235774
 20
-2.9896945072
  0
VERTEX
  8
0
 62
7
  6
CONTINUOUS
 10
-14.1231306725
 20
-4.9558295773
  0
VERTEX
  8
0
 62
7
  6
CONTINUOUS
 10
-13.5561365672
 20
-6.9152035703
  0
VERTEX
  8
0
 62
7
  6
CONTINUOUS
 10
-12.9653424638
 20
-8.867532573
  0
VERTEX
  8
0
 62
7
  6
CONTINUOUS
 10
-12.3508495649
 20
-10.8125326727
  0
VERTEX
  8
0
 62
7
  6
CONTINUOUS
 10
-11.7127590729
 20
-12.7499199561
  0
VERTEX
  8
0
 62
7
  6
CONTINUOUS
 10
-11.4201885947
 20
-13.6126328155
  0
SEQEND
  0
POLYLINE
  8
0
 62
7
  6
CONTINUOUS
 66
1
 70
0
  0
VERTEX
  8
0
 62
7
  6
CONTINUOUS
 10
-14.4115865938
 20
-3.7339059098
  0
VERTEX
  8
0
 62
7
  6
CONTINUOUS
 10
-13.8699690304
 20
-5.6948235645
  0
VERTEX
  8
0
 62
7
  6
CONTINUOUS
 10
-13.3045768964
 20
-7.6490167891
  0
VERTEX
  8
0
 62
7
  6
CONTINUOUS
 10
-12.7155105891
 20
-9.5962039285
  0
VERTEX
  8
0
 62
7
  6
CONTINUOUS
 10
-12.1028705057
 20
-11.5361033276
  0
VERTEX
  8
0
 62
7
  6
CONTINUOUS
 10
-11.4667570434
 20
-13.4684333313
  0
VERTEX
  8
0
 62
7
  6
CONTINUOUS
 10
-11.3284547836
 20
-13.8783870181
  0
SEQEND
  0
POLYLINE
  8
0
 62
7
  6
CONTINUOUS
 66
1
 70
0
  0
VERTEX
  8
0
 62
7
  6
CONTINUOUS
 10
-28.3458390203
 20
53.309187913
  0
VERTEX
  8
0
 62
7
  6
CONTINUOUS
 10
-28.1012993771
 20
49.5051288094
  0
VERTEX
  8
0
 62
7
  6
CONTINUOUS
 10
-26.2327020899
 20
32.2637143663
  0
VERTEX
  8
0
 62
7
  6
CONTINUOUS
 10
-23.6308719112
 20
17.1021552776
  0
VERTEX
  8
0
 62
7
  6
CONTINUOUS
 10
-20.5481394238
 20
3.5613543636
  0
VERTEX
  8
0
 62
7
  6
CONTINUOUS
 10
-17.0544649396
 20
-8.6966293022
  0
VERTEX
  8
0
 62
7
  6
CONTINUOUS
 10
-13.1758984359
 20
-19.9164039739
  0
VERTEX
  8
0
 62
7
  6
CONTINUOUS
 10
-8.8501109188
 20
-30.4591466745
  0
VERTEX
  8
0
 62
7
  6
CONTINUOUS
 10
-3.9646217186
 20
-40.6249849179
  0
VERTEX
  8
0
 62
7
  6
CONTINUOUS
 10
2.0038810257
 20
-51.1793292824
  0
VERTEX
  8
0
 62
7
  6
CONTINUOUS
 10
9.0767383188
 20
-61.7542213958
  0
VERTEX
  8
0
 62
7
  6
CONTINUOUS
 10
16.8916403905
 20
-71.5724254454
  0
VERTEX
  8
0
 62
7
  6
CONTINUOUS
 10
24.9265176426
 20
-80.1239869806
  0
VERTEX
  8
0
 62
7
  6
CONTINUOUS
 10
32.935564444
 20
-87.5743822197
  0
VERTEX
  8
0
 62
7
  6
CONTINUOUS
 10
40.9268532083
 20
-94.2111141505
  0
VERTEX
  8
0
 62
7
  6
CONTINUOUS
 10
49.0644431807
 20
-100.1687634222
  0
VERTEX
  8
0
 62
7
  6
CONTINUOUS
 10
57.3974908465
 20
-105.4412642997
  0
VERTEX
  8
0
 62
7
  6
CONTINUOUS
 10
65.5955789283
 20
-109.9148696864
  0
SEQEND
  0
LINE
  8
0
 62
7
  6
CONTINUOUS
 10
-28.3461010827
 20
53.3265608326
 11
-28.3461494014
 21
53.3276192035
  0
LINE
  8
0
 62
7
  6
CONTINUOUS
 10
136.8826803101
 20
433.6884477752
 11
144.1690109981
 21
440.9747784632
  0
LINE
  8
0
 62
7
  6
CONTINUOUS
 10
144.5225643887
 20
440.6212250726
 11
137.1254162091
 21
433.2240768931
  0
POLYLINE
  8
0
 62
7
  6
CONTINUOUS
 66
1
 70
0
  0
VERTEX
  8
0
 62
7
  6
CONTINUOUS
 10
-39.843299229
 20
498.413306376
  0
VERTEX
  8
0
 62
7
  6
CONTINUOUS
 10
-37.2865700257
 20
462.6551448318
  0
VERTEX
  8
0
 62
7
  6
CONTINUOUS
 10
-34.4985836276
 20
426.9657070437
  0
VERTEX
  8
0
 62
7
  6
CONTINUOUS
 10
-31.5442644026
 20
392.1044262669
  0
SEQEND
  0
POLYLINE
  8
0
 62
7
  6
CONTINUOUS
 66
1
 70
0
  0
VERTEX
  8
0
 62
7
  6
CONTINUOUS
 10
-23.4624862816
 20
135.5873187962
  0
VERTEX
  8
0
 62
7
  6
CONTINUOUS
 10
-23.8553605321
 20
132.6363898783
  0
VERTEX
  8
0
 62
7
  6
CONTINUOUS
 10
-24.2230712028
 20
129.6822254317
  0
VERTEX
  8
0
 62
7
  6
CONTINUOUS
 10
-24.5655996162
 20
126.7250405489
  0
VERTEX
  8
0
 62
7
  6
CONTINUOUS
 10
-24.8829270944
 20
123.7650503225
  0
VERTEX
  8
0
 62
7
  6
CONTINUOUS
 10
-25.1801124578
 20
120.7485821089
  0
VERTEX
  8
0
 62
7
  6
CONTINUOUS
 10
-25.4511330794
 20
117.7296556365
  0
VERTEX
  8
0
 62
7
  6
CONTINUOUS
 10
-25.6959692439
 20
114.7084979448
  0
VERTEX
  8
0
 62
7
  6
CONTINUOUS
 10
-25.9146012363
 20
111.6853360733
  0
VERTEX
  8
0
 62
7
  6
CONTINUOUS
 10
-26.1070093414
 20
108.6603970614
  0
VERTEX
  8
0
 62
7
  6
CONTINUOUS
 10
-26.273173844
 20
105.6339079486
  0
VERTEX
  8
0
 62
7
  6
CONTINUOUS
 10
-26.4130750291
 20
102.6060957744
  0
VERTEX
  8
0
 62
7
  6
CONTINUOUS
 10
-26.5266934172
 20
99.5771877263
  0
VERTEX
  8
0
 62
7
  6
CONTINUOUS
 10
-26.6140189104
 20
96.5474124904
  0
VERTEX
  8
0
 62
7
  6
CONTINUOUS
 10
-26.6750537238
 20
93.5169982223
  0
VERTEX
  8
0
 62
7
  6
CONTINUOUS
 10
-26.7077282584
 20
90.7617133743
  0
VERTEX
  8
0
 62
7
  6
CONTINUOUS
 10
-26.7186797716
 20
88.006259924
  0
VERTEX
  8
0
 62
7
  6
CONTINUOUS
 10
-26.7079105552
 20
85.2508090733
  0
VERTEX
  8
0
 62
7
  6
CONTINUOUS
 10
-26.6754229014
 20
82.4955320238
  0
VERTEX
  8
0
 62
7
  6
CONTINUOUS
 10
-26.621219102
 20
79.7405999773
  0
VERTEX
  8
0
 62
7
  6
CONTINUOUS
 10
-26.545301449
 20
76.9861841355
  0
VERTEX
  8
0
 62
7
  6
CONTINUOUS
 10
-26.4476722344
 20
74.2324557001
  0
VERTEX
  8
0
 62
7
  6
CONTINUOUS
 10
-26.3152059803
 20
71.2043527049
  0
VERTEX
  8
0
 62
7
  6
CONTINUOUS
 10
-26.1564745605
 20
68.1775164949
  0
VERTEX
  8
0
 62
7
  6
CONTINUOUS
 10
-25.9714810765
 20
65.1521749841
  0
VERTEX
  8
0
 62
7
  6
CONTINUOUS
 10
-25.7602356116
 20
62.1285567852
  0
VERTEX
  8
0
 62
7
  6
CONTINUOUS
 10
-25.5227622738
 20
59.1068889445
  0
VERTEX
  8
0
 62
7
  6
CONTINUOUS
 10
-25.2841393949
 20
56.3618011687
  0
VERTEX
  8
0
 62
7
  6
CONTINUOUS
 10
-25.0238812719
 20
53.618682501
  0
VERTEX
  8
0
 62
7
  6
CONTINUOUS
 10
-24.7420072781
 20
50.8777030568
  0
VERTEX
  8
0
 62
7
  6
CONTINUOUS
 10
-24.438536787
 20
48.1390329511
  0
VERTEX
  8
0
 62
7
  6
CONTINUOUS
 10
-24.1134891717
 20
45.4028422991
  0
VERTEX
  8
0
 62
7
  6
CONTINUOUS
 10
-23.7668838058
 20
42.6693012162
  0
VERTEX
  8
0
 62
7
  6
CONTINUOUS
 10
-23.3987400624
 20
39.9385798174
  0
VERTEX
  8
0
 62
7
  6
CONTINUOUS
 10
-23.0090773149
 20
37.2108482181
  0
VERTEX
  8
0
 62
7
  6
CONTINUOUS
 10
-22.5979149366
 20
34.4862765334
  0
VERTEX
  8
0
 62
7
  6
CONTINUOUS
 10
-22.165272301
 20
31.7650348784
  0
VERTEX
  8
0
 62
7
  6
CONTINUOUS
 10
-21.7111701544
 20
29.0472935808
  0
VERTEX
  8
0
 62
7
  6
CONTINUOUS
 10
-21.2356398225
 20
26.333221774
  0
VERTEX
  8
0
 62
7
  6
CONTINUOUS
 10
-20.7387175398
 20
23.6229868297
  0
VERTEX
  8
0
 62
7
  6
CONTINUOUS
 10
-20.2204395674
 20
20.9167560772
  0
VERTEX
  8
0
 62
7
  6
CONTINUOUS
 10
-19.6918428104
 20
18.2686960674
  0
VERTEX
  8
0
 62
7
  6
CONTINUOUS
 10
-19.1428050031
 20
15.6247998757
  0
VERTEX
  8
0
 62
7
  6
CONTINUOUS
 10
-18.5733602741
 20
12.9852249913
  0
VERTEX
  8
0
 62
7
  6
CONTINUOUS
 10
-17.9835427521
 20
10.3501289034
  0
VERTEX
  8
0
 62
7
  6
CONTINUOUS
 10
-17.3621047709
 20
7.6718864542
  0
VERTEX
  8
0
 62
7
  6
CONTINUOUS
 10
-16.7196178384
 20
4.9986166519
  0
VERTEX
  8
0
 62
7
  6
CONTINUOUS
 10
-16.0561179792
 20
2.3304857332
  0
VERTEX
  8
0
 62
7
  6
CONTINUOUS
 10
-15.3716412174
 20
-0.3323400654
  0
VERTEX
  8
0
 62
7
  6
CONTINUOUS
 10
-14.6662235774
 20
-2.9896945072
  0
SEQEND
  0
POLYLINE
  8
0
 62
7
  6
CONTINUOUS
 66
1
 70
0
  0
VERTEX
  8
0
 62
7
  6
CONTINUOUS
 10
-4.7468154466
 20
249.841870365
  0
VERTEX
  8
0
 62
7
  6
CONTINUOUS
 10
-6.0440508125
 20
244.2245562945
  0
VERTEX
  8
0
 62
7
  6
CONTINUOUS
 10
-8.160286808
 20
234.4483526518
  0
VERTEX
  8
0
 62
7
  6
CONTINUOUS
 10
-10.4227802862
 20
223.3792684236
  0
VERTEX
  8
0
 62
7
  6
CONTINUOUS
 10
-12.888925386
 20
211.1246021875
  0
VERTEX
  8
0
 62
7
  6
CONTINUOUS
 10
-15.1458317585
 20
200.1758186708
  0
VERTEX
  8
0
 62
7
  6
CONTINUOUS
 10
-17.1404797104
 20
190.8658368973
  0
VERTEX
  8
0
 62
7
  6
CONTINUOUS
 10
-19.0607292725
 20
182.2820107213
  0
VERTEX
  8
0
 62
7
  6
CONTINUOUS
 10
-20.8962394466
 20
174.1238115082
  0
VERTEX
  8
0
 62
7
  6
CONTINUOUS
 10
-22.4673723795
 20
166.903309277
  0
VERTEX
  8
0
 62
7
  6
CONTINUOUS
 10
-23.9838868717
 20
159.2076932857
  0
VERTEX
  8
0
 62
7
  6
CONTINUOUS
 10
-25.5240777729
 20
149.4435889096
  0
VERTEX
  8
0
 62
7
  6
CONTINUOUS
 10
-26.8209389824
 20
138.0397395649
  0
VERTEX
  8
0
 62
7
  6
CONTINUOUS
 10
-27.7944269534
 20
125.482558874
  0
VERTEX
  8
0
 62
7
  6
CONTINUOUS
 10
-28.5277724558
 20
111.5757615398
  0
VERTEX
  8
0
 62
7
  6
CONTINUOUS
 10
-29.0472184532
 20
95.4620455242
  0
VERTEX
  8
0
 62
7
  6
CONTINUOUS
 10
-29.1646799679
 20
78.0503063666
  0
VERTEX
  8
0
 62
7
  6
CONTINUOUS
 10
-28.8456048861
 20
63.8727200711
  0
VERTEX
  8
0
 62
7
  6
CONTINUOUS
 10
-28.3451355899
 20
53.3095978964
  0
SEQEND
  0
LINE
  8
0
 62
7
  6
CONTINUOUS
 10
17.386857295
 20
345.8927755454
 11
15.3021963205
 21
337.0164016736
  0
POLYLINE
  8
0
 62
7
  6
CONTINUOUS
 66
1
 70
0
  0
VERTEX
  8
0
 62
7
  6
CONTINUOUS
 10
11.864450271
 20
322.7028289758
  0
VERTEX
  8
0
 62
7
  6
CONTINUOUS
 10
12.9491984034
 20
327.2382475881
  0
VERTEX
  8
0
 62
7
  6
CONTINUOUS
 10
14.1706209989
 20
332.3091812678
  0
VERTEX
  8
0
 62
7
  6
CONTINUOUS
 10
14.5605855039
 20
333.9278394209
  0
SEQEND
  0
LINE
  8
0
 62
7
  6
CONTINUOUS
 10
-4.7442061438
 20
249.8527515255
 11
-4.7468154466
 21
249.841870365
  0
LINE
  8
0
 62
7
  6
CONTINUOUS
 10
14.5605855039
 20
333.9278394209
 11
15.3021963205
 21
337.0164016736
  0
POLYLINE
  8
0
 62
7
  6
CONTINUOUS
 66
1
 70
0
  0
VERTEX
  8
0
 62
7
  6
CONTINUOUS
 10
14.5605855161
 20
333.927839447
  0
VERTEX
  8
0
 62
7
  6
CONTINUOUS
 10
13.6237566847
 20
330.0444078964
  0
VERTEX
  8
0
 62
7
  6
CONTINUOUS
 10
8.7323436741
 20
309.321067466
  0
VERTEX
  8
0
 62
7
  6
CONTINUOUS
 10
4.0321823286
 20
288.2421799266
  0
VERTEX
  8
0
 62
7
  6
CONTINUOUS
 10
-0.6990708389
 20
267.0960211532
  0
VERTEX
  8
0
 62
7
  6
CONTINUOUS
 10
-4.725026251
 20
249.935560621
  0
SEQEND
  0
POLYLINE
  8
0
 62
7
  6
CONTINUOUS
 66
1
 70
0
  0
VERTEX
  8
0
 62
7
  6
CONTINUOUS
 10
7.0595126425
 20
287.6575432795
  0
VERTEX
  8
0
 62
7
  6
CONTINUOUS
 10
5.7839491296
 20
282.814843663
  0
VERTEX
  8
0
 62
7
  6
CONTINUOUS
 10
4.5276226087
 20
277.9671236818
  0
VERTEX
  8
0
 62
7
  6
CONTINUOUS
 10
3.290548571
 20
273.114460518
  0
VERTEX
  8
0
 62
7
  6
CONTINUOUS
 10
2.0727425075
 20
268.2569313532
  0
VERTEX
  8
0
 62
7
  6
CONTINUOUS
 10
0.8742199096
 20
263.3946133694
  0
VERTEX
  8
0
 62
7
  6
CONTINUOUS
 10
-0.3050037318
 20
258.5275837484
  0
VERTEX
  8
0
 62
7
  6
CONTINUOUS
 10
-1.5694009391
 20
253.2128139795
  0
VERTEX
  8
0
 62
7
  6
CONTINUOUS
 10
-2.8107922456
 20
247.8926290287
  0
VERTEX
  8
0
 62
7
  6
CONTINUOUS
 10
-4.0291575394
 20
242.567129099
  0
VERTEX
  8
0
 62
7
  6
CONTINUOUS
 10
-5.224476709
 20
237.2364143937
  0
VERTEX
  8
0
 62
7
  6
CONTINUOUS
 10
-6.3967296425
 20
231.9005851156
  0
VERTEX
  8
0
 62
7
  6
CONTINUOUS
 10
-7.5458962282
 20
226.5597414678
  0
VERTEX
  8
0
 62
7
  6
CONTINUOUS
 10
-8.6719563544
 20
221.2139836533
  0
VERTEX
  8
0
 62
7
  6
CONTINUOUS
 10
-9.7748899093
 20
215.8634118751
  0
VERTEX
  8
0
 62
7
  6
CONTINUOUS
 10
-10.8546767811
 20
210.5081263364
  0
VERTEX
  8
0
 62
7
  6
CONTINUOUS
 10
-11.9112968583
 20
205.1482272401
  0
VERTEX
  8
0
 62
7
  6
CONTINUOUS
 10
-12.9447300289
 20
199.7838147892
  0
VERTEX
  8
0
 62
7
  6
CONTINUOUS
 10
-13.9549561812
 20
194.4149891869
  0
VERTEX
  8
0
 62
7
  6
CONTINUOUS
 10
-14.9419552036
 20
189.041850636
  0
VERTEX
  8
0
 62
7
  6
CONTINUOUS
 10
-15.9057069843
 20
183.6644993397
  0
VERTEX
  8
0
 62
7
  6
CONTINUOUS
 10
-16.8276098731
 20
178.3907044326
  0
VERTEX
  8
0
 62
7
  6
CONTINUOUS
 10
-17.7271478667
 20
173.11305415
  0
VERTEX
  8
0
 62
7
  6
CONTINUOUS
 10
-18.6043020359
 20
167.8316428023
  0
VERTEX
  8
0
 62
7
  6
CONTINUOUS
 10
-19.4590534519
 20
162.5465646997
  0
VERTEX
  8
0
 62
7
  6
CONTINUOUS
 10
-20.306308796
 20
157.1617243899
  0
VERTEX
  8
0
 62
7
  6
CONTINUOUS
 10
-21.1302997315
 20
151.773280096
  0
VERTEX
  8
0
 62
7
  6
CONTINUOUS
 10
-21.9310062778
 20
146.3813313667
  0
VERTEX
  8
0
 62
7
  6
CONTINUOUS
 10
-22.7084084547
 20
140.9859777506
  0
VERTEX
  8
0
 62
7
  6
CONTINUOUS
 10
-23.4624862816
 20
135.5873187962
  0
SEQEND
  0
POLYLINE
  8
0
 62
7
  6
CONTINUOUS
 66
1
 70
0
  0
VERTEX
  8
0
 62
7
  6
CONTINUOUS
 10
-31.5442613797
 20
392.1043919531
  0
VERTEX
  8
0
 62
7
  6
CONTINUOUS
 10
-30.3600692467
 20
384.8426869651
  0
VERTEX
  8
0
 62
7
  6
CONTINUOUS
 10
-27.7840386719
 20
377.014195592
  0
VERTEX
  8
0
 62
7
  6
CONTINUOUS
 10
-23.9520693549
 20
369.7029415687
  0
VERTEX
  8
0
 62
7
  6
CONTINUOUS
 10
-18.967519905
 20
363.1114985815
  0
VERTEX
  8
0
 62
7
  6
CONTINUOUS
 10
-12.9671180446
 20
357.4224680821
  0
VERTEX
  8
0
 62
7
  6
CONTINUOUS
 10
-6.1154658131
 20
352.7920037777
  0
VERTEX
  8
0
 62
7
  6
CONTINUOUS
 10
1.3964957662
 20
349.3476902077
  0
VERTEX
  8
0
 62
7
  6
CONTINUOUS
 10
8.5768469491
 20
347.333674204
  0
SEQEND
  0
LINE
  8
0
 62
7
  6
CONTINUOUS
 10
145.0476906545
 20
443.0960988068
 11
145.0476906545
 21
462.6307869276
  0
LINE
  8
0
 62
7
  6
CONTINUOUS
 10
145.5476906545
 20
462.6307869276
 11
145.5476906545
 21
443.0960988068
  0
POLYLINE
  8
0
 62
7
  6
CONTINUOUS
 66
1
 70
0
  0
VERTEX
  8
0
 62
7
  6
CONTINUOUS
 10
282.9872369089
 20
347.3336776777
  0
VERTEX
  8
0
 62
7
  6
CONTINUOUS
 10
290.1673921481
 20
349.3476245024
  0
VERTEX
  8
0
 62
7
  6
CONTINUOUS
 10
297.6792155748
 20
352.7918109801
  0
VERTEX
  8
0
 62
7
  6
CONTINUOUS
 10
304.5308011422
 20
357.4221036458
  0
VERTEX
  8
0
 62
7
  6
CONTINUOUS
 10
310.5312084671
 20
363.1109269593
  0
VERTEX
  8
0
 62
7
  6
CONTINUOUS
 10
315.5158403018
 20
369.7021408143
  0
VERTEX
  8
0
 62
7
  6
CONTINUOUS
 10
319.3479665972
 20
377.0131503272
  0
VERTEX
  8
0
 62
7
  6
CONTINUOUS
 10
321.9242295664
 20
384.8413913856
  0
VERTEX
  8
0
 62
7
  6
CONTINUOUS
 10
323.1086922954
 20
392.1028559434
  0
SEQEND
  0
LINE
  8
0
 62
7
  6
CONTINUOUS
 10
138.7378372931
 20
302.7526044881
 11
23.6003256385
 21
300.6231423248
  0
POLYLINE
  8
0
 62
7
  6
CONTINUOUS
 66
1
 70
0
  0
VERTEX
  8
0
 62
7
  6
CONTINUOUS
 10
152.7411248445
 20
302.7534751252
  0
VERTEX
  8
0
 62
7
  6
CONTINUOUS
 10
148.0281966647
 20
302.8113718964
  0
VERTEX
  8
0
 62
7
  6
CONTINUOUS
 10
142.4248168925
 20
302.8037932922
  0
VERTEX
  8
0
 62
7
  6
CONTINUOUS
 10
138.7372260758
 20
302.7535250187
  0
SEQEND
  0
LINE
  8
0
 62
7
  6
CONTINUOUS
 10
267.8755487315
 20
300.6231423248
 11
152.7378371809
 21
302.7526044881
  0
POLYLINE
  8
0
 62
7
  6
CONTINUOUS
 66
1
 70
0
  0
VERTEX
  8
0
 62
7
  6
CONTINUOUS
 10
23.5997087303
 20
300.6240627603
  0
VERTEX
  8
0
 62
7
  6
CONTINUOUS
 10
20.9046992729
 20
300.3636105826
  0
VERTEX
  8
0
 62
7
  6
CONTINUOUS
 10
16.8577745094
 20
299.132618503
  0
VERTEX
  8
0
 62
7
  6
CONTINUOUS
 10
13.2094247264
 20
296.9510666189
  0
VERTEX
  8
0
 62
7
  6
CONTINUOUS
 10
10.196853088
 20
293.9510850373
  0
VERTEX
  8
0
 62
7
  6
CONTINUOUS
 10
8.0073565977
 20
290.3293813106
  0
VERTEX
  8
0
 62
7
  6
CONTINUOUS
 10
7.0594497804
 20
287.6585428399
  0
SEQEND
  0
POLYLINE
  8
0
 62
7
  6
CONTINUOUS
 66
1
 70
0
  0
VERTEX
  8
0
 62
7
  6
CONTINUOUS
 10
8.5768568338
 20
347.3336722137
  0
VERTEX
  8
0
 62
7
  6
CONTINUOUS
 10
34.7897343398
 20
343.0464933388
  0
VERTEX
  8
0
 62
7
  6
CONTINUOUS
 10
64.7569746082
 20
340.2344168545
  0
VERTEX
  8
0
 62
7
  6
CONTINUOUS
 10
95.776512798
 20
339.0305108257
  0
SEQEND
  0
LINE
  8
0
 62
7
  6
CONTINUOUS
 10
328.8529627569
 20
462.654847625
 11
331.4097322705
 21
498.4136209592
  0
POLYLINE
  8
0
 62
7
  6
CONTINUOUS
 66
1
 70
0
  0
VERTEX
  8
0
 62
7
  6
CONTINUOUS
 10
323.1086957398
 20
392.1028950238
  0
VERTEX
  8
0
 62
7
  6
CONTINUOUS
 10
326.0642993948
 20
426.9647908354
  0
VERTEX
  8
0
 62
7
  6
CONTINUOUS
 10
328.8529627569
 20
462.654847625
  0
SEQEND
  0
POLYLINE
  8
0
 62
7
  6
CONTINUOUS
 66
1
 70
0
  0
VERTEX
  8
0
 62
7
  6
CONTINUOUS
 10
195.7882407342
 20
339.0305108087
  0
VERTEX
  8
0
 62
7
  6
CONTINUOUS
 10
226.8074792265
 20
340.2344190862
  0
VERTEX
  8
0
 62
7
  6
CONTINUOUS
 10
256.7744769847
 20
343.0464970754
  0
VERTEX
  8
0
 62
7
  6
CONTINUOUS
 10
282.9872289469
 20
347.3336760755
  0
SEQEND
  0
LINE
  8
0
 62
7
  6
CONTINUOUS
 10
162.6441047116
 20
338.6148376447
 11
196.4051448511
 21
339.0416637857
  0
POLYLINE
  8
0
 62
7
  6
CONTINUOUS
 66
1
 70
0
  0
VERTEX
  8
0
 62
7
  6
CONTINUOUS
 10
95.7765976378
 20
339.030457643
  0
VERTEX
  8
0
 62
7
  6
CONTINUOUS
 10
128.8634356827
 20
338.6152146897
  0
VERTEX
  8
0
 62
7
  6
CONTINUOUS
 10
162.6441047116
 20
338.6148376447
  0
SEQEND
  0
POLYLINE
  8
0
 62
7
  6
CONTINUOUS
 66
1
 70
0
  0
VERTEX
  8
0
 62
7
  6
CONTINUOUS
 10
284.4163755619
 20
287.6585278631
  0
VERTEX
  8
0
 62
7
  6
CONTINUOUS
 10
283.5202834894
 20
290.2129147346
  0
VERTEX
  8
0
 62
7
  6
CONTINUOUS
 10
281.3589018151
 20
293.8485328499
  0
VERTEX
  8
0
 62
7
  6
CONTINUOUS
 10
278.3694166656
 20
296.8703336769
  0
VERTEX
  8
0
 62
7
  6
CONTINUOUS
 10
274.736747249
 20
299.079504741
  0
VERTEX
  8
0
 62
7
  6
CONTINUOUS
 10
270.6966197047
 20
300.3411048283
  0
VERTEX
  8
0
 62
7
  6
CONTINUOUS
 10
267.8761437657
 20
300.6240627627
  0
SEQEND
  0
POLYLINE
  8
0
 62
7
  6
CONTINUOUS
 66
1
 70
0
  0
VERTEX
  8
0
 62
7
  6
CONTINUOUS
 10
277.0219515519
 20
333.4689475077
  0
VERTEX
  8
0
 62
7
  6
CONTINUOUS
 10
278.1741610768
 20
328.6881068488
  0
VERTEX
  8
0
 62
7
  6
CONTINUOUS
 10
279.3913609053
 20
323.6106171685
  0
VERTEX
  8
0
 62
7
  6
CONTINUOUS
 10
279.748793762
 20
322.1088797887
  0
SEQEND
  0
LINE
  8
0
 62
7
  6
CONTINUOUS
 10
276.5371317977
 20
335.4845746917
 11
277.0219515519
 21
333.4689475077
  0
LINE
  8
0
 62
7
  6
CONTINUOUS
 10
296.2140070523
 20
249.849041915
 11
296.2172702168
 21
249.8353622467
  0
LINE
  8
0
 62
7
  6
CONTINUOUS
 10
276.5371323228
 20
335.4845820477
 11
274.0892604537
 21
345.8783850125
  0
POLYLINE
  8
0
 62
7
  6
CONTINUOUS
 66
1
 70
0
  0
VERTEX
  8
0
 62
7
  6
CONTINUOUS
 10
296.2140070523
 20
249.849041915
  0
VERTEX
  8
0
 62
7
  6
CONTINUOUS
 10
292.3844866885
 20
266.15852172
  0
VERTEX
  8
0
 62
7
  6
CONTINUOUS
 10
287.6774446433
 20
287.1578881223
  0
VERTEX
  8
0
 62
7
  6
CONTINUOUS
 10
283.0170635839
 20
308.1026723027
  0
VERTEX
  8
0
 62
7
  6
CONTINUOUS
 10
278.1575997576
 20
328.7616834161
  0
VERTEX
  8
0
 62
7
  6
CONTINUOUS
 10
277.0219524615
 20
333.4689445813
  0
SEQEND
  0
POLYLINE
  8
0
 62
7
  6
CONTINUOUS
 66
1
 70
0
  0
VERTEX
  8
0
 62
7
  6
CONTINUOUS
 10
314.9375455047
 20
135.5873187962
  0
VERTEX
  8
0
 62
7
  6
CONTINUOUS
 10
314.245693471
 20
140.5470325696
  0
VERTEX
  8
0
 62
7
  6
CONTINUOUS
 10
313.5341552783
 20
145.5039636142
  0
VERTEX
  8
0
 62
7
  6
CONTINUOUS
 10
312.8029464173
 20
150.4580347481
  0
VERTEX
  8
0
 62
7
  6
CONTINUOUS
 10
312.052082379
 20
155.4091687896
  0
VERTEX
  8
0
 62
7
  6
CONTINUOUS
 10
311.2815786539
 20
160.3572885566
  0
VERTEX
  8
0
 62
7
  6
CONTINUOUS
 10
310.4914507329
 20
165.3023168674
  0
VERTEX
  8
0
 62
7
  6
CONTINUOUS
 10
309.6071298891
 20
170.6932767205
  0
VERTEX
  8
0
 62
7
  6
CONTINUOUS
 10
308.6994931768
 20
176.0803654293
  0
VERTEX
  8
0
 62
7
  6
CONTINUOUS
 10
307.7685607073
 20
181.4634827909
  0
VERTEX
  8
0
 62
7
  6
CONTINUOUS
 10
306.8143525918
 20
186.8425286022
  0
VERTEX
  8
0
 62
7
  6
CONTINUOUS
 10
305.8368889415
 20
192.2174026602
  0
VERTEX
  8
0
 62
7
  6
CONTINUOUS
 10
304.8361898677
 20
197.5880047619
  0
VERTEX
  8
0
 62
7
  6
CONTINUOUS
 10
303.8122754816
 20
202.9542347043
  0
VERTEX
  8
0
 62
7
  6
CONTINUOUS
 10
302.7651658944
 20
208.3159922842
  0
VERTEX
  8
0
 62
7
  6
CONTINUOUS
 10
301.6948812174
 20
213.6731772987
  0
VERTEX
  8
0
 62
7
  6
CONTINUOUS
 10
300.6014415617
 20
219.0256895448
  0
VERTEX
  8
0
 62
7
  6
CONTINUOUS
 10
299.4848670387
 20
224.3734288194
  0
VERTEX
  8
0
 62
7
  6
CONTINUOUS
 10
298.3451777595
 20
229.7162949194
  0
VERTEX
  8
0
 62
7
  6
CONTINUOUS
 10
297.1823938354
 20
235.0541876419
  0
VERTEX
  8
0
 62
7
  6
CONTINUOUS
 10
295.9965353775
 20
240.3870067838
  0
VERTEX
  8
0
 62
7
  6
CONTINUOUS
 10
294.8120265581
 20
245.6081505861
  0
VERTEX
  8
0
 62
7
  6
CONTINUOUS
 10
293.6053951999
 20
250.8242311763
  0
VERTEX
  8
0
 62
7
  6
CONTINUOUS
 10
292.3766602314
 20
256.0351542442
  0
VERTEX
  8
0
 62
7
  6
CONTINUOUS
 10
291.1258405811
 20
261.2408254794
  0
VERTEX
  8
0
 62
7
  6
CONTINUOUS
 10
289.8296076795
 20
266.5356518647
  0
VERTEX
  8
0
 62
7
  6
CONTINUOUS
 10
288.5105193191
 20
271.824836386
  0
VERTEX
  8
0
 62
7
  6
CONTINUOUS
 10
287.1685954797
 20
277.1082794946
  0
VERTEX
  8
0
 62
7
  6
CONTINUOUS
 10
285.8038561412
 20
282.385881642
  0
VERTEX
  8
0
 62
7
  6
CONTINUOUS
 10
284.4163212836
 20
287.6575432795
  0
SEQEND
  0
LINE
  8
0
 62
7
  6
CONTINUOUS
 10
319.8143536827
 20
53.3247228559
 11
319.8144096261
 21
53.3259035389
  0
POLYLINE
  8
0
 62
7
  6
CONTINUOUS
 66
1
 70
0
  0
VERTEX
  8
0
 62
7
  6
CONTINUOUS
 10
319.8127922743
 20
53.3100943388
  0
VERTEX
  8
0
 62
7
  6
CONTINUOUS
 10
320.2992313976
 20
63.5145598325
  0
VERTEX
  8
0
 62
7
  6
CONTINUOUS
 10
320.6241899715
 20
77.3198403879
  0
VERTEX
  8
0
 62
7
  6
CONTINUOUS
 10
320.53060256
 20
94.5713925395
  0
VERTEX
  8
0
 62
7
  6
CONTINUOUS
 10
320.0192951346
 20
110.9390718505
  0
VERTEX
  8
0
 62
7
  6
CONTINUOUS
 10
319.2888655456
 20
124.9956917333
  0
VERTEX
  8
0
 62
7
  6
CONTINUOUS
 10
318.3179384552
 20
137.6754907698
  0
VERTEX
  8
0
 62
7
  6
CONTINUOUS
 10
317.0215264119
 20
149.1863313584
  0
VERTEX
  8
0
 62
7
  6
CONTINUOUS
 10
315.468843271
 20
159.0850690971
  0
VERTEX
  8
0
 62
7
  6
CONTINUOUS
 10
313.94713547
 20
166.8257250371
  0
VERTEX
  8
0
 62
7
  6
CONTINUOUS
 10
312.3685530194
 20
174.0873863629
  0
VERTEX
  8
0
 62
7
  6
CONTINUOUS
 10
310.5201074448
 20
182.3081603391
  0
VERTEX
  8
0
 62
7
  6
CONTINUOUS
 10
308.5866987055
 20
190.9582920165
  0
VERTEX
  8
0
 62
7
  6
CONTINUOUS
 10
306.5913597518
 20
200.2804335561
  0
VERTEX
  8
0
 62
7
  6
CONTINUOUS
 10
304.3415350457
 20
211.2003256984
  0
VERTEX
  8
0
 62
7
  6
CONTINUOUS
 10
301.8827251739
 20
223.4192929211
  0
VERTEX
  8
0
 62
7
  6
CONTINUOUS
 10
299.6248357355
 20
234.464292462
  0
VERTEX
  8
0
 62
7
  6
CONTINUOUS
 10
297.5114301483
 20
244.2277395685
  0
VERTEX
  8
0
 62
7
  6
CONTINUOUS
 10
296.2168457673
 20
249.8352616303
  0
SEQEND
  0
LINE
  8
0
 62
7
  6
CONTINUOUS
 10
144.1690109981
 20
464.7521072712
 11
136.8826803101
 21
472.0384379592
  0
POLYLINE
  8
0
 62
7
  6
CONTINUOUS
 66
1
 70
0
  0
VERTEX
  8
0
 62
7
  6
CONTINUOUS
 10
305.8946054659
 20
-3.7339059098
  0
VERTEX
  8
0
 62
7
  6
CONTINUOUS
 10
306.6574547194
 20
-0.8564893082
  0
VERTEX
  8
0
 62
7
  6
CONTINUOUS
 10
307.3957518677
 20
2.0273251429
  0
VERTEX
  8
0
 62
7
  6
CONTINUOUS
 10
308.1094511858
 20
4.9173264475
  0
VERTEX
  8
0
 62
7
  6
CONTINUOUS
 10
308.7985069483
 20
7.8133036095
  0
VERTEX
  8
0
 62
7
  6
CONTINUOUS
 10
309.3539182094
 20
10.2312786333
  0
SEQEND
  0
POLYLINE
  8
0
 62
7
  6
CONTINUOUS
 66
1
 70
0
  0
VERTEX
  8
0
 62
7
  6
CONTINUOUS
 10
306.1405095774
 20
-2.9896945072
  0
VERTEX
  8
0
 62
7
  6
CONTINUOUS
 10
306.9033588309
 20
-0.1122779057
  0
VERTEX
  8
0
 62
7
  6
CONTINUOUS
 10
307.6416559792
 20
2.7715365454
  0
VERTEX
  8
0
 62
7
  6
CONTINUOUS
 10
308.3553552973
 20
5.66153785
  0
VERTEX
  8
0
 62
7
  6
CONTINUOUS
 10
309.0444110598
 20
8.557515012
  0
VERTEX
  8
0
 62
7
  6
CONTINUOUS
 10
309.7206281185
 20
11.5120680281
  0
VERTEX
  8
0
 62
7
  6
CONTINUOUS
 10
310.3712016779
 20
14.4723747271
  0
VERTEX
  8
0
 62
7
  6
CONTINUOUS
 10
310.9960834729
 20
17.4382123935
  0
VERTEX
  8
0
 62
7
  6
CONTINUOUS
 10
311.5952252386
 20
20.4093583119
  0
VERTEX
  8
0
 62
7
  6
CONTINUOUS
 10
312.1685787102
 20
23.3855897668
  0
VERTEX
  8
0
 62
7
  6
CONTINUOUS
 10
312.7160956226
 20
26.3666840426
  0
VERTEX
  8
0
 62
7
  6
CONTINUOUS
 10
313.2377277111
 20
29.352418424
  0
VERTEX
  8
0
 62
7
  6
CONTINUOUS
 10
313.7334269257
 20
32.3425700187
  0
VERTEX
  8
0
 62
7
  6
CONTINUOUS
 10
314.2031543333
 20
35.3369132593
  0
VERTEX
  8
0
 62
7
  6
CONTINUOUS
 10
314.6468832815
 20
38.3352215445
  0
VERTEX
  8
0
 62
7
  6
CONTINUOUS
 10
315.0276908887
 20
41.0642065615
  0
VERTEX
  8
0
 62
7
  6
CONTINUOUS
 10
315.3869714799
 20
43.796111233
  0
VERTEX
  8
0
 62
7
  6
CONTINUOUS
 10
315.7247056808
 20
46.5307654438
  0
VERTEX
  8
0
 62
7
  6
CONTINUOUS
 10
316.040874117
 20
49.2679990787
  0
VERTEX
  8
0
 62
7
  6
CONTINUOUS
 10
316.3354574143
 20
52.0076420224
  0
VERTEX
  8
0
 62
7
  6
CONTINUOUS
 10
316.6084361984
 20
54.7495241598
  0
VERTEX
  8
0
 62
7
  6
CONTINUOUS
 10
316.8597910949
 20
57.4934753756
  0
VERTEX
  8
0
 62
7
  6
CONTINUOUS
 10
317.1112827678
 20
60.5140084662
  0
VERTEX
  8
0
 62
7
  6
CONTINUOUS
 10
317.3365603067
 20
63.5366128789
  0
VERTEX
  8
0
 62
7
  6
CONTINUOUS
 10
317.5355979693
 20
66.5610621401
  0
VERTEX
  8
0
 62
7
  6
CONTINUOUS
 10
317.7083768505
 20
69.587128198
  0
VERTEX
  8
0
 62
7
  6
CONTINUOUS
 10
317.8548921551
 20
72.6145827779
  0
VERTEX
  8
0
 62
7
  6
CONTINUOUS
 10
317.9652946115
 20
75.367827384
  0
VERTEX
  8
0
 62
7
  6
CONTINUOUS
 10
318.0539868178
 20
78.1218600054
  0
VERTEX
  8
0
 62
7
  6
CONTINUOUS
 10
318.1209664808
 20
80.8765094402
  0
VERTEX
  8
0
 62
7
  6
CONTINUOUS
 10
318.1662313077
 20
83.6316044868
  0
VERTEX
  8
0
 62
7
  6
CONTINUOUS
 10
318.1897790057
 20
86.3869739435
  0
VERTEX
  8
0
 62
7
  6
CONTINUOUS
 10
318.1916072817
 20
89.1424466085
  0
VERTEX
  8
0
 62
7
  6
CONTINUOUS
 10
318.1717138429
 20
91.8978512801
  0
VERTEX
  8
0
 62
7
  6
CONTINUOUS
 10
318.1300963963
 20
94.6530167567
  0
VERTEX
  8
0
 62
7
  6
CONTINUOUS
 10
318.066752649
 20
97.4077718363
  0
VERTEX
  8
0
 62
7
  6
CONTINUOUS
 10
317.9816803082
 20
100.1619453175
  0
VERTEX
  8
0
 62
7
  6
CONTINUOUS
 10
317.8748784162
 20
102.9153656138
  0
VERTEX
  8
0
 62
7
  6
CONTINUOUS
 10
317.7463566603
 20
105.6678609829
  0
VERTEX
  8
0
 62
7
  6
CONTINUOUS
 10
317.5961298202
 20
108.4192608082
  0
VERTEX
  8
0
 62
7
  6
CONTINUOUS
 10
317.4242127072
 20
111.1693945118
  0
VERTEX
  8
0
 62
7
  6
CONTINUOUS
 10
317.2347043079
 20
113.8631327582
  0
VERTEX
  8
0
 62
7
  6
CONTINUOUS
 10
317.0243927357
 20
116.5553306513
  0
VERTEX
  8
0
 62
7
  6
CONTINUOUS
 10
316.793291931
 20
119.2458276442
  0
VERTEX
  8
0
 62
7
  6
CONTINUOUS
 10
316.5414158341
 20
121.9344631902
  0
VERTEX
  8
0
 62
7
  6
CONTINUOUS
 10
316.2636292564
 20
124.6699045459
  0
VERTEX
  8
0
 62
7
  6
CONTINUOUS
 10
315.96433422
 20
127.4030802484
  0
VERTEX
  8
0
 62
7
  6
CONTINUOUS
 10
315.6435454395
 20
130.1338208337
  0
VERTEX
  8
0
 62
7
  6
CONTINUOUS
 10
315.3012776295
 20
132.8619568376
  0
VERTEX
  8
0
 62
7
  6
CONTINUOUS
 10
314.9375455047
 20
135.5873187962
  0
SEQEND
  0
POLYLINE
  8
0
 62
7
  6
CONTINUOUS
 66
1
 70
0
  0
VERTEX
  8
0
 62
7
  6
CONTINUOUS
 10
303.2128141357
 20
-12.6787676489
  0
VERTEX
  8
0
 62
7
  6
CONTINUOUS
 10
303.8162316401
 20
-10.8161631415
  0
VERTEX
  8
0
 62
7
  6
CONTINUOUS
 10
304.3650308798
 20
-9.0542867343
  0
VERTEX
  8
0
 62
7
  6
CONTINUOUS
 10
304.8944095564
 20
-7.2864782402
  0
VERTEX
  8
0
 62
7
  6
CONTINUOUS
 10
305.4042927313
 20
-5.5129478889
  0
VERTEX
  8
0
 62
7
  6
CONTINUOUS
 10
305.8946054659
 20
-3.7339059098
  0
SEQEND
  0
POLYLINE
  8
0
 62
7
  6
CONTINUOUS
 66
1
 70
0
  0
VERTEX
  8
0
 62
7
  6
CONTINUOUS
 10
303.4587182371
 20
-11.934556243
  0
VERTEX
  8
0
 62
7
  6
CONTINUOUS
 10
304.0561807103
 20
-10.090702167
  0
VERTEX
  8
0
 62
7
  6
CONTINUOUS
 10
304.6066238956
 20
-8.3241864967
  0
VERTEX
  8
0
 62
7
  6
CONTINUOUS
 10
305.1375434616
 20
-6.5517053867
  0
VERTEX
  8
0
 62
7
  6
CONTINUOUS
 10
305.6488638688
 20
-4.773470752
  0
VERTEX
  8
0
 62
7
  6
CONTINUOUS
 10
306.1405095774
 20
-2.9896945072
  0
SEQEND
  0
LINE
  8
0
 62
7
  6
CONTINUOUS
 10
305.8946054659
 20
-3.7339059098
 11
306.1405095774
 21
-2.9896945072
  0
LINE
  8
0
 62
7
  6
CONTINUOUS
 10
303.2128141357
 20
-12.6787676489
 11
303.4587182472
 21
-11.9345562464
  0
LINE
  8
0
 62
7
  6
CONTINUOUS
 10
303.3260966342
 20
-12.3290918593
 11
303.4587182371
 21
-11.934556243
  0
LINE
  8
0
 62
7
  6
CONTINUOUS
 10
137.1254162091
 20
472.5028088413
 11
144.5225643887
 21
465.1056606618
  0
POLYLINE
  8
0
 62
7
  6
CONTINUOUS
 66
1
 70
0
  0
VERTEX
  8
0
 62
7
  6
CONTINUOUS
 10
-39.7912442494
 20
497.6776693249
  0
VERTEX
  8
0
 62
7
  6
CONTINUOUS
 10
-39.7888318479
 20
497.6767756197
  0
VERTEX
  8
0
 62
7
  6
CONTINUOUS
 10
-39.7854621837
 20
497.6758814876
  0
VERTEX
  8
0
 62
7
  6
CONTINUOUS
 10
-39.7811336095
 20
497.674986934
  0
VERTEX
  8
0
 62
7
  6
CONTINUOUS
 10
-39.775844421
 20
497.6740919643
  0
VERTEX
  8
0
 62
7
  6
CONTINUOUS
 10
-39.7695928561
 20
497.6731965839
  0
VERTEX
  8
0
 62
7
  6
CONTINUOUS
 10
-39.7623770946
 20
497.6723007981
  0
VERTEX
  8
0
 62
7
  6
CONTINUOUS
 10
-39.7541952574
 20
497.6714046124
  0
VERTEX
  8
0
 62
7
  6
CONTINUOUS
 10
-39.7450454062
 20
497.6705080319
  0
VERTEX
  8
0
 62
7
  6
CONTINUOUS
 10
-39.7349255424
 20
497.6696110622
  0
VERTEX
  8
0
 62
7
  6
CONTINUOUS
 10
-39.7238336069
 20
497.6687137086
  0
VERTEX
  8
0
 62
7
  6
CONTINUOUS
 10
-39.7117674791
 20
497.6678159763
  0
VERTEX
  8
0
 62
7
  6
CONTINUOUS
 10
-39.6987249766
 20
497.6669178707
  0
VERTEX
  8
0
 62
7
  6
CONTINUOUS
 10
-39.6847038538
 20
497.6660193971
  0
VERTEX
  8
0
 62
7
  6
CONTINUOUS
 10
-39.6697018017
 20
497.6651205607
  0
VERTEX
  8
0
 62
7
  6
CONTINUOUS
 10
-39.6537164469
 20
497.6642213669
  0
VERTEX
  8
0
 62
7
  6
CONTINUOUS
 10
-39.6367453508
 20
497.663321821
  0
SEQEND
  0
POLYLINE
  8
0
 62
7
  6
CONTINUOUS
 66
1
 70
0
  0
VERTEX
  8
0
 62
7
  6
CONTINUOUS
 10
218.0945190434
 20
-113.6501020578
  0
VERTEX
  8
0
 62
7
  6
CONTINUOUS
 10
225.92124503
 20
-109.8905533123
  0
VERTEX
  8
0
 62
7
  6
CONTINUOUS
 10
234.12533151
 20
-105.4098390524
  0
VERTEX
  8
0
 62
7
  6
CONTINUOUS
 10
242.4609176245
 20
-100.1302926661
  0
VERTEX
  8
0
 62
7
  6
CONTINUOUS
 10
250.5989949967
 20
-94.1663850152
  0
VERTEX
  8
0
 62
7
  6
CONTINUOUS
 10
258.5917218649
 20
-87.5227243662
  0
VERTEX
  8
0
 62
7
  6
CONTINUOUS
 10
266.6042470935
 20
-80.0624854296
  0
VERTEX
  8
0
 62
7
  6
CONTINUOUS
 10
274.6444621028
 20
-71.4946841337
  0
VERTEX
  8
0
 62
7
  6
CONTINUOUS
 10
282.4615870014
 20
-61.6586799698
  0
VERTEX
  8
0
 62
7
  6
CONTINUOUS
 10
289.5281844511
 20
-51.0760531951
  0
VERTEX
  8
0
 62
7
  6
CONTINUOUS
 10
295.48051042
 20
-40.5338379257
  0
VERTEX
  8
0
 62
7
  6
CONTINUOUS
 10
300.3464495774
 20
-30.3952991747
  0
VERTEX
  8
0
 62
7
  6
CONTINUOUS
 10
304.6549353551
 20
-19.8865581586
  0
VERTEX
  8
0
 62
7
  6
CONTINUOUS
 10
308.5210014096
 20
-8.7011322249
  0
VERTEX
  8
0
 62
7
  6
CONTINUOUS
 10
312.0060697624
 20
3.5207571308
  0
VERTEX
  8
0
 62
7
  6
CONTINUOUS
 10
315.0821140149
 20
17.0157780211
  0
VERTEX
  8
0
 62
7
  6
CONTINUOUS
 10
317.6781818037
 20
32.1045568865
  0
VERTEX
  8
0
 62
7
  6
CONTINUOUS
 10
319.5502141405
 20
49.2450664009
  0
VERTEX
  8
0
 62
7
  6
CONTINUOUS
 10
319.813484351
 20
53.3096395134
  0
SEQEND
  0
POLYLINE
  8
0
 62
7
  6
CONTINUOUS
 66
1
 70
0
  0
VERTEX
  8
0
 62
7
  6
CONTINUOUS
 10
215.3232172513
 20
-111.8418986449
  0
VERTEX
  8
0
 62
7
  6
CONTINUOUS
 10
215.5591165977
 20
-111.7307457041
  0
VERTEX
  8
0
 62
7
  6
CONTINUOUS
 10
217.5045224317
 20
-110.7969161891
  0
VERTEX
  8
0
 62
7
  6
CONTINUOUS
 10
219.4377607054
 20
-109.8381681064
  0
VERTEX
  8
0
 62
7
  6
CONTINUOUS
 10
221.3585083748
 20
-108.8546529227
  0
VERTEX
  8
0
 62
7
  6
CONTINUOUS
 10
223.2664423961
 20
-107.8465221047
  0
VERTEX
  8
0
 62
7
  6
CONTINUOUS
 10
225.1612397255
 20
-106.8139271193
  0
VERTEX
  8
0
 62
7
  6
CONTINUOUS
 10
227.0425773061
 20
-105.7570194437
  0
VERTEX
  8
0
 62
7
  6
CONTINUOUS
 10
228.9101341739
 20
-104.6759624833
  0
VERTEX
  8
0
 62
7
  6
CONTINUOUS
 10
230.7636086277
 20
-103.5709515829
  0
VERTEX
  8
0
 62
7
  6
CONTINUOUS
 10
232.6027054851
 20
-102.4421871339
  0
VERTEX
  8
0
 62
7
  6
CONTINUOUS
 10
234.4271295639
 20
-101.2898695275
  0
VERTEX
  8
0
 62
7
  6
CONTINUOUS
 10
236.2365856818
 20
-100.1141991547
  0
VERTEX
  8
0
 62
7
  6
CONTINUOUS
 10
237.7447456299
 20
-99.1087356268
  0
VERTEX
  8
0
 62
7
  6
CONTINUOUS
 10
239.2419609484
 20
-98.0870545556
  0
VERTEX
  8
0
 62
7
  6
CONTINUOUS
 10
240.7280566816
 20
-97.0492747139
  0
VERTEX
  8
0
 62
7
  6
CONTINUOUS
 10
242.2028578737
 20
-95.9955148744
  0
VERTEX
  8
0
 62
7
  6
CONTINUOUS
 10
243.6926883465
 20
-94.9063000788
  0
VERTEX
  8
0
 62
7
  6
CONTINUOUS
 10
245.170443785
 20
-93.8007674125
  0
VERTEX
  8
0
 62
7
  6
CONTINUOUS
 10
246.6359395158
 20
-92.6790422452
  0
VERTEX
  8
0
 62
7
  6
CONTINUOUS
 10
248.0889908656
 20
-91.5412499464
  0
VERTEX
  8
0
 62
7
  6
CONTINUOUS
 10
249.5294130966
 20
-90.3875168463
  0
VERTEX
  8
0
 62
7
  6
CONTINUOUS
 10
251.1024953943
 20
-89.0973324124
  0
VERTEX
  8
0
 62
7
  6
CONTINUOUS
 10
252.6597954809
 20
-87.7881517101
  0
VERTEX
  8
0
 62
7
  6
CONTINUOUS
 10
254.2010954541
 20
-86.4601795285
  0
VERTEX
  8
0
 62
7
  6
CONTINUOUS
 10
255.7261774117
 20
-85.1136206569
  0
VERTEX
  8
0
 62
7
  6
CONTINUOUS
 10
257.2348234513
 20
-83.7486798845
  0
VERTEX
  8
0
 62
7
  6
CONTINUOUS
 10
258.8166993845
 20
-82.2811569902
  0
VERTEX
  8
0
 62
7
  6
CONTINUOUS
 10
260.379581711
 20
-80.7934312576
  0
VERTEX
  8
0
 62
7
  6
CONTINUOUS
 10
261.9232104602
 20
-79.2857470124
  0
VERTEX
  8
0
 62
7
  6
CONTINUOUS
 10
263.4473256616
 20
-77.7583485805
  0
VERTEX
  8
0
 62
7
  6
CONTINUOUS
 10
264.9516673447
 20
-76.2114802875
  0
VERTEX
  8
0
 62
7
  6
CONTINUOUS
 10
266.435975539
 20
-74.6453864595
  0
VERTEX
  8
0
 62
7
  6
CONTINUOUS
 10
267.8999902739
 20
-73.060311422
  0
VERTEX
  8
0
 62
7
  6
CONTINUOUS
 10
269.3434541427
 20
-71.4565054342
  0
VERTEX
  8
0
 62
7
  6
CONTINUOUS
 10
270.7661354695
 20
-69.8342446456
  0
VERTEX
  8
0
 62
7
  6
CONTINUOUS
 10
272.1678158973
 20
-68.1938112698
  0
VERTEX
  8
0
 62
7
  6
CONTINUOUS
 10
273.5482771409
 20
-66.5354874834
  0
VERTEX
  8
0
 62
7
  6
CONTINUOUS
 10
274.9073009149
 20
-64.8595554629
  0
VERTEX
  8
0
 62
7
  6
CONTINUOUS
 10
276.0321543145
 20
-63.4383713583
  0
VERTEX
  8
0
 62
7
  6
CONTINUOUS
 10
277.1415980348
 20
-62.0051292347
  0
VERTEX
  8
0
 62
7
  6
CONTINUOUS
 10
278.2355026972
 20
-60.5599963393
  0
VERTEX
  8
0
 62
7
  6
CONTINUOUS
 10
279.3137389232
 20
-59.1031399192
  0
VERTEX
  8
0
 62
7
  6
CONTINUOUS
 10
280.3953473627
 20
-57.6079228832
  0
VERTEX
  8
0
 62
7
  6
CONTINUOUS
 10
281.4604417341
 20
-56.1009020578
  0
VERTEX
  8
0
 62
7
  6
CONTINUOUS
 10
282.5088854726
 20
-54.5822539797
  0
VERTEX
  8
0
 62
7
  6
CONTINUOUS
 10
283.5405420135
 20
-53.0521551854
  0
VERTEX
  8
0
 62
7
  6
CONTINUOUS
 10
284.5552747771
 20
-51.5107823963
  0
VERTEX
  8
0
 62
7
  6
CONTINUOUS
 10
285.6541551685
 20
-49.7987229826
  0
VERTEX
  8
0
 62
7
  6
CONTINUOUS
 10
286.7321640326
 20
-48.0734501955
  0
VERTEX
  8
0
 62
7
  6
CONTINUOUS
 10
287.7891579024
 20
-46.3352263864
  0
VERTEX
  8
0
 62
7
  6
CONTINUOUS
 10
288.8249933111
 20
-44.5843139068
  0
VERTEX
  8
0
 62
7
  6
CONTINUOUS
 10
289.8395267915
 20
-42.820975108
  0
VERTEX
  8
0
 62
7
  6
CONTINUOUS
 10
290.8921096205
 20
-40.9374809599
  0
VERTEX
  8
0
 62
7
  6
CONTINUOUS
 10
291.9203976767
 20
-39.0406167453
  0
VERTEX
  8
0
 62
7
  6
CONTINUOUS
 10
292.9242197955
 20
-37.1306954649
  0
VERTEX
  8
0
 62
7
  6
CONTINUOUS
 10
293.9034048121
 20
-35.2080301199
  0
VERTEX
  8
0
 62
7
  6
CONTINUOUS
 10
294.8577815618
 20
-33.2729337111
  0
VERTEX
  8
0
 62
7
  6
CONTINUOUS
 10
295.78717888
 20
-31.3257192396
  0
VERTEX
  8
0
 62
7
  6
CONTINUOUS
 10
296.6914256018
 20
-29.3666997062
  0
VERTEX
  8
0
 62
7
  6
CONTINUOUS
 10
297.5703522377
 20
-27.3961905214
  0
VERTEX
  8
0
 62
7
  6
CONTINUOUS
 10
298.4238166649
 20
-25.4145235227
  0
VERTEX
  8
0
 62
7
  6
CONTINUOUS
 10
299.251698529
 20
-23.422034989
  0
VERTEX
  8
0
 62
7
  6
CONTINUOUS
 10
300.053878048
 20
-21.4190609517
  0
VERTEX
  8
0
 62
7
  6
CONTINUOUS
 10
300.8302354399
 20
-19.4059374422
  0
VERTEX
  8
0
 62
7
  6
CONTINUOUS
 10
301.4623326787
 20
-17.7073160174
  0
VERTEX
  8
0
 62
7
  6
CONTINUOUS
 10
302.0760543111
 20
-16.0019693961
  0
VERTEX
  8
0
 62
7
  6
CONTINUOUS
 10
302.6713293419
 20
-14.2900967453
  0
VERTEX
  8
0
 62
7
  6
CONTINUOUS
 10
303.2128141357
 20
-12.6787676489
  0
SEQEND
  0
POLYLINE
  8
0
 62
7
  6
CONTINUOUS
 66
1
 70
0
  0
VERTEX
  8
0
 62
7
  6
CONTINUOUS
 10
219.0938530932
 20
-113.0676183123
  0
VERTEX
  8
0
 62
7
  6
CONTINUOUS
 10
218.7229866936
 20
-113.236770895
  0
VERTEX
  8
0
 62
7
  6
CONTINUOUS
 10
216.7233224534
 20
-114.1321152136
  0
VERTEX
  8
0
 62
7
  6
CONTINUOUS
 10
214.7124373983
 20
-115.0043688913
  0
VERTEX
  8
0
 62
7
  6
CONTINUOUS
 10
212.6898675478
 20
-115.8534141734
  0
VERTEX
  8
0
 62
7
  6
CONTINUOUS
 10
210.6553595841
 20
-116.6788895201
  0
VERTEX
  8
0
 62
7
  6
CONTINUOUS
 10
208.6088532576
 20
-117.4803558793
  0
VERTEX
  8
0
 62
7
  6
CONTINUOUS
 10
206.5505120398
 20
-118.2574223344
  0
VERTEX
  8
0
 62
7
  6
CONTINUOUS
 10
204.8125954509
 20
-118.8911012603
  0
VERTEX
  8
0
 62
7
  6
CONTINUOUS
 10
203.0668532388
 20
-119.50733785
  0
VERTEX
  8
0
 62
7
  6
CONTINUOUS
 10
202.5938000817
 20
-119.6708781714
  0
SEQEND
  0
POLYLINE
  8
0
 62
7
  6
CONTINUOUS
 66
1
 70
0
  0
VERTEX
  8
0
 62
7
  6
CONTINUOUS
 10
202.8848303033
 20
-119.6945267271
  0
VERTEX
  8
0
 62
7
  6
CONTINUOUS
 10
210.5003449116
 20
-116.8645729179
  0
VERTEX
  8
0
 62
7
  6
CONTINUOUS
 10
218.0945190434
 20
-113.6501020578
  0
SEQEND
  0
LINE
  8
0
 62
7
  6
CONTINUOUS
 10
194.9480886902
 20
-122.298440078
 11
202.8848303033
 21
-119.6945267271
  0
LINE
  8
0
 62
7
  6
CONTINUOUS
 10
-39.281413351
 20
497.7086369978
 11
-39.3414211147
 21
497.7068858859
  0
LINE
  8
0
 62
7
  6
CONTINUOUS
 10
-39.2176727749
 20
497.7103855812
 11
-39.281413351
 21
497.7086369978
  0
LINE
  8
0
 62
7
  6
CONTINUOUS
 10
-39.1501969721
 20
497.7121315875
 11
-39.2176727749
 21
497.7103855812
  0
LINE
  8
0
 62
7
  6
CONTINUOUS
 10
-39.0789827004
 20
497.7138749675
 11
-39.1501969721
 21
497.7121315875
  0
LINE
  8
0
 62
7
  6
CONTINUOUS
 10
-39.0040258825
 20
497.7156156716
 11
-39.0789827004
 21
497.7138749675
  0
LINE
  8
0
 62
7
  6
CONTINUOUS
 10
-38.9253215964
 20
497.7173536495
 11
-39.0040258825
 21
497.7156156716
  0
LINE
  8
0
 62
7
  6
CONTINUOUS
 10
-38.8002257918
 20
497.7199553941
 11
-38.9253215964
 21
497.7173536495
  0
LINE
  8
0
 62
7
  6
CONTINUOUS
 10
-38.6753797503
 20
497.7223864054
 11
-38.8002257918
 21
497.7199553941
  0
LINE
  8
0
 62
7
  6
CONTINUOUS
 10
-38.532432324
 20
497.7250008618
 11
-38.6753797503
 21
497.7223864054
  0
LINE
  8
0
 62
7
  6
CONTINUOUS
 10
-38.3814181953
 20
497.7275979483
 11
-38.532432324
 21
497.7250008618
  0
LINE
  8
0
 62
7
  6
CONTINUOUS
 10
-38.2224011049
 20
497.7301776204
 11
-38.3814181953
 21
497.7275979483
  0
LINE
  8
0
 62
7
  6
CONTINUOUS
 10
-38.0554402146
 20
497.7327398249
 11
-38.2224011049
 21
497.7301776204
  0
LINE
  8
0
 62
7
  6
CONTINUOUS
 10
-37.8805902577
 20
497.7352845
 11
-38.0554402146
 21
497.7327398249
  0
LINE
  8
0
 62
7
  6
CONTINUOUS
 10
-37.6979016716
 20
497.7378115757
 11
-37.8805902577
 21
497.7352845
  0
LINE
  8
0
 62
7
  6
CONTINUOUS
 10
-37.4422028321
 20
497.7411534965
 11
-37.6979016716
 21
497.7378115757
  0
LINE
  8
0
 62
7
  6
CONTINUOUS
 10
-37.172748842
 20
497.7444637813
 11
-37.4422028321
 21
497.7411534965
  0
LINE
  8
0
 62
7
  6
CONTINUOUS
 10
-36.8896255981
 20
497.7477421966
 11
-37.172748842
 21
497.7444637813
  0
LINE
  8
0
 62
7
  6
CONTINUOUS
 10
-36.5929067607
 20
497.7509884838
 11
-36.8896255981
 21
497.7477421966
  0
LINE
  8
0
 62
7
  6
CONTINUOUS
 10
-36.2826539692
 20
497.7542023587
 11
-36.5929067607
 21
497.7509884838
  0
LINE
  8
0
 62
7
  6
CONTINUOUS
 10
-35.8758805467
 20
497.7581736485
 11
-36.2826539692
 21
497.7542023587
  0
LINE
  8
0
 62
7
  6
CONTINUOUS
 10
-35.6217337864
 20
497.7605316076
 11
-35.8758805467
 21
497.7581736485
  0
LINE
  8
0
 62
7
  6
CONTINUOUS
 10
-35.3600384972
 20
497.7628707691
 11
-35.6217337864
 21
497.7605316076
  0
LINE
  8
0
 62
7
  6
CONTINUOUS
 10
-34.9071216071
 20
497.7667271538
 11
-35.3600384972
 21
497.7628707691
  0
LINE
  8
0
 62
7
  6
CONTINUOUS
 10
-34.5297093408
 20
497.7697737992
 11
-34.9071216071
 21
497.7667271538
  0
LINE
  8
0
 62
7
  6
CONTINUOUS
 10
-34.1388839518
 20
497.7727857757
 11
-34.5297093408
 21
497.7697737992
  0
LINE
  8
0
 62
7
  6
CONTINUOUS
 10
-33.7617030367
 20
497.7755673472
 11
-34.1388839518
 21
497.7727857757
  0
LINE
  8
0
 62
7
  6
CONTINUOUS
 10
-33.2348019659
 20
497.7792667009
 11
-33.7617030367
 21
497.7755673472
  0
LINE
  8
0
 62
7
  6
CONTINUOUS
 10
-32.8005184766
 20
497.7821674049
 11
-33.2348019659
 21
497.7792667009
  0
LINE
  8
0
 62
7
  6
CONTINUOUS
 10
-32.2419401416
 20
497.7857199739
 11
-32.8005184766
 21
497.7821674049
  0
LINE
  8
0
 62
7
  6
CONTINUOUS
 10
-31.5489086135
 20
497.7898756381
 11
-32.2419401416
 21
497.7857199739
  0
LINE
  8
0
 62
7
  6
CONTINUOUS
 10
-30.8314290218
 20
497.7939140565
 11
-31.5489086135
 21
497.7898756381
  0
LINE
  8
0
 62
7
  6
CONTINUOUS
 10
-30.0898295666
 20
497.7978349488
 11
-30.8314290218
 21
497.7939140565
  0
LINE
  8
0
 62
7
  6
CONTINUOUS
 10
-29.1945144897
 20
497.8022601035
 11
-30.0898295666
 21
497.7978349488
  0
LINE
  8
0
 62
7
  6
CONTINUOUS
 10
-28.2671067555
 20
497.8065234317
 11
-29.1945144897
 21
497.8022601035
  0
LINE
  8
0
 62
7
  6
CONTINUOUS
 10
-27.7228587994
 20
497.8088863718
 11
-28.2671067555
 21
497.8065234317
  0
LINE
  8
0
 62
7
  6
CONTINUOUS
 10
-27.3078783056
 20
497.8106233541
 11
-27.7228587994
 21
497.8088863718
  0
LINE
  8
0
 62
7
  6
CONTINUOUS
 10
-26.6033384869
 20
497.8134507357
 11
-27.3078783056
 21
497.8106233541
  0
LINE
  8
0
 62
7
  6
CONTINUOUS
 10
-25.4737469976
 20
497.8176850059
 11
-26.6033384869
 21
497.8134507357
  0
LINE
  8
0
 62
7
  6
CONTINUOUS
 10
-24.723911957
 20
497.8203064108
 11
-25.4737469976
 21
497.8176850059
  0
LINE
  8
0
 62
7
  6
CONTINUOUS
 10
-24.1160238103
 20
497.8223274866
 11
-24.723911957
 21
497.8203064108
  0
LINE
  8
0
 62
7
  6
CONTINUOUS
 10
-23.3463412445
 20
497.8247592693
 11
-24.1160238103
 21
497.8223274866
  0
LINE
  8
0
 62
7
  6
CONTINUOUS
 10
-22.5659544167
 20
497.8270864019
 11
-23.3463412445
 21
497.8247592693
  0
POLYLINE
  8
0
 62
7
  6
CONTINUOUS
 66
1
 70
0
  0
VERTEX
  8
0
 62
7
  6
CONTINUOUS
 10
-21.6156529002
 20
497.8297412499
  0
VERTEX
  8
0
 62
7
  6
CONTINUOUS
 10
-21.7750717401
 20
497.8293091948
  0
VERTEX
  8
0
 62
7
  6
CONTINUOUS
 10
-22.5659544167
 20
497.8270864019
  0
SEQEND
  0
LINE
  8
0
 62
7
  6
CONTINUOUS
 10
-20.8124276527
 20
497.8318390452
 11
-21.6156529002
 21
497.8297412499
  0
POLYLINE
  8
0
 62
7
  6
CONTINUOUS
 66
1
 70
0
  0
VERTEX
  8
0
 62
7
  6
CONTINUOUS
 10
-19.8352485765
 20
497.8342189094
  0
VERTEX
  8
0
 62
7
  6
CONTINUOUS
 10
-19.9991092082
 20
497.8338326885
  0
VERTEX
  8
0
 62
7
  6
CONTINUOUS
 10
-20.8124276527
 20
497.8318390452
  0
SEQEND
  0
POLYLINE
  8
0
 62
7
  6
CONTINUOUS
 66
1
 70
0
  0
VERTEX
  8
0
 62
7
  6
CONTINUOUS
 10
-18.8438065886
 20
497.8364485313
  0
VERTEX
  8
0
 62
7
  6
CONTINUOUS
 10
-19.0100267608
 20
497.8360873805
  0
VERTEX
  8
0
 62
7
  6
CONTINUOUS
 10
-19.8352485765
 20
497.8342189094
  0
SEQEND
  0
POLYLINE
  8
0
 62
7
  6
CONTINUOUS
 66
1
 70
0
  0
VERTEX
  8
0
 62
7
  6
CONTINUOUS
 10
-17.8383438438
 20
497.838527371
  0
VERTEX
  8
0
 62
7
  6
CONTINUOUS
 10
-18.0068851849
 20
497.8381914003
  0
VERTEX
  8
0
 62
7
  6
CONTINUOUS
 10
-18.8438065886
 20
497.8364485313
  0
SEQEND
  0
POLYLINE
  8
0
 62
7
  6
CONTINUOUS
 66
1
 70
0
  0
VERTEX
  8
0
 62
7
  6
CONTINUOUS
 10
-16.8190739487
 20
497.8404546002
  0
VERTEX
  8
0
 62
7
  6
CONTINUOUS
 10
-16.9899030041
 20
497.8401439676
  0
VERTEX
  8
0
 62
7
  6
CONTINUOUS
 10
-17.8383438438
 20
497.838527371
  0
SEQEND
  0
POLYLINE
  8
0
 62
7
  6
CONTINUOUS
 66
1
 70
0
  0
VERTEX
  8
0
 62
7
  6
CONTINUOUS
 10
-15.7861783894
 20
497.842229102
  0
VERTEX
  8
0
 62
7
  6
CONTINUOUS
 10
-15.959267103
 20
497.8419440142
  0
VERTEX
  8
0
 62
7
  6
CONTINUOUS
 10
-16.8190739487
 20
497.8404546002
  0
SEQEND
  0
POLYLINE
  8
0
 62
7
  6
CONTINUOUS
 66
1
 70
0
  0
VERTEX
  8
0
 62
7
  6
CONTINUOUS
 10
-14.7590899471
 20
497.8438211779
  0
VERTEX
  8
0
 62
7
  6
CONTINUOUS
 10
-14.9351613134
 20
497.8435602415
  0
VERTEX
  8
0
 62
7
  6
CONTINUOUS
 10
-15.7861783894
 20
497.842229102
  0
SEQEND
  0
POLYLINE
  8
0
 62
7
  6
CONTINUOUS
 66
1
 70
0
  0
VERTEX
  8
0
 62
7
  6
CONTINUOUS
 10
-13.522134944
 20
497.8455172661
  0
VERTEX
  8
0
 62
7
  6
CONTINUOUS
 10
-13.6993097031
 20
497.8452889012
  0
VERTEX
  8
0
 62
7
  6
CONTINUOUS
 10
-13.8763312907
 20
497.8450559019
  0
VERTEX
  8
0
 62
7
  6
CONTINUOUS
 10
-14.7590899471
 20
497.8438211779
  0
SEQEND
  0
POLYLINE
  8
0
 62
7
  6
CONTINUOUS
 66
1
 70
0
  0
VERTEX
  8
0
 62
7
  6
CONTINUOUS
 10
-12.455950454
 20
497.8467904223
  0
VERTEX
  8
0
 62
7
  6
CONTINUOUS
 10
-12.6340140885
 20
497.8465897576
  0
VERTEX
  8
0
 62
7
  6
CONTINUOUS
 10
-13.522134944
 20
497.8455172661
  0
SEQEND
  0
POLYLINE
  8
0
 62
7
  6
CONTINUOUS
 66
1
 70
0
  0
VERTEX
  8
0
 62
7
  6
CONTINUOUS
 10
-11.2055713237
 20
497.8480664245
  0
VERTEX
  8
0
 62
7
  6
CONTINUOUS
 10
-11.3846089027
 20
497.8478979011
  0
VERTEX
  8
0
 62
7
  6
CONTINUOUS
 10
-11.5635113841
 20
497.8477247946
  0
VERTEX
  8
0
 62
7
  6
CONTINUOUS
 10
-12.455950454
 20
497.8467904223
  0
SEQEND
  0
POLYLINE
  8
0
 62
7
  6
CONTINUOUS
 66
1
 70
0
  0
VERTEX
  8
0
 62
7
  6
CONTINUOUS
 10
-9.9486352402
 20
497.8491179139
  0
VERTEX
  8
0
 62
7
  6
CONTINUOUS
 10
-10.128582063
 20
497.8489814249
  0
VERTEX
  8
0
 62
7
  6
CONTINUOUS
 10
-10.3084028343
 20
497.8488403628
  0
VERTEX
  8
0
 62
7
  6
CONTINUOUS
 10
-11.2055713237
 20
497.8480664245
  0
SEQEND
  0
POLYLINE
  8
0
 62
7
  6
CONTINUOUS
 66
1
 70
0
  0
VERTEX
  8
0
 62
7
  6
CONTINUOUS
 10
-8.8663769888
 20
497.8498408234
  0
VERTEX
  8
0
 62
7
  6
CONTINUOUS
 10
-9.0470540326
 20
497.8497317713
  0
VERTEX
  8
0
 62
7
  6
CONTINUOUS
 10
-9.9486352402
 20
497.8491179139
  0
SEQEND
  0
POLYLINE
  8
0
 62
7
  6
CONTINUOUS
 66
1
 70
0
  0
VERTEX
  8
0
 62
7
  6
CONTINUOUS
 10
-7.598416047
 20
497.8504760018
  0
VERTEX
  8
0
 62
7
  6
CONTINUOUS
 10
-7.779890254
 20
497.8503990094
  0
VERTEX
  8
0
 62
7
  6
CONTINUOUS
 10
-7.9612540946
 20
497.8503174307
  0
VERTEX
  8
0
 62
7
  6
CONTINUOUS
 10
-8.8663769888
 20
497.8498408234
  0
SEQEND
  0
LINE
  8
0
 62
7
  6
CONTINUOUS
 10
97.0548537958
 20
497.8662614293
 11
67.7196364887
 21
497.8619946455
  0
LINE
  8
0
 62
7
  6
CONTINUOUS
 10
67.7196364887
 20
497.8619946455
 11
32.1091073027
 21
497.8567186293
  0
POLYLINE
  8
0
 62
7
  6
CONTINUOUS
 66
1
 70
0
  0
VERTEX
  8
0
 62
7
  6
CONTINUOUS
 10
32.1091073027
 20
497.8567186293
  0
VERTEX
  8
0
 62
7
  6
CONTINUOUS
 10
1.8235994763
 20
497.8521507223
  0
VERTEX
  8
0
 62
7
  6
CONTINUOUS
 10
-5.7482422904
 20
497.8509970699
  0
SEQEND
  0
POLYLINE
  8
0
 62
7
  6
CONTINUOUS
 66
1
 70
0
  0
VERTEX
  8
0
 62
7
  6
CONTINUOUS
 10
-5.7482452737
 20
497.8509975395
  0
VERTEX
  8
0
 62
7
  6
CONTINUOUS
 10
-5.7778532158
 20
497.8509929585
  0
VERTEX
  8
0
 62
7
  6
CONTINUOUS
 10
-5.9603690486
 20
497.8509620204
  0
VERTEX
  8
0
 62
7
  6
CONTINUOUS
 10
-6.1427856828
 20
497.8509264572
  0
VERTEX
  8
0
 62
7
  6
CONTINUOUS
 10
-6.3251020348
 20
497.8508862741
  0
VERTEX
  8
0
 62
7
  6
CONTINUOUS
 10
-6.507317014
 20
497.8508414758
  0
VERTEX
  8
0
 62
7
  6
CONTINUOUS
 10
-6.6894295221
 20
497.8507920668
  0
VERTEX
  8
0
 62
7
  6
CONTINUOUS
 10
-7.598416047
 20
497.8504760018
  0
SEQEND
  0
LINE
  8
0
 62
7
  6
CONTINUOUS
 10
145.0470097335
 20
497.8696885809
 11
139.9730845361
 21
497.8696405953
  0
LINE
  8
0
 62
7
  6
CONTINUOUS
 10
139.9730845361
 20
497.8696405953
 11
134.8993120154
 21
497.8695183371
  0
LINE
  8
0
 62
7
  6
CONTINUOUS
 10
161.3245760705
 20
497.8693411607
 11
145.0470097335
 21
497.8696885809
  0
LINE
  8
0
 62
7
  6
CONTINUOUS
 10
134.8993120154
 20
497.8695183371
 11
129.8257723293
 21
497.8693218068
  0
LINE
  8
0
 62
7
  6
CONTINUOUS
 10
129.8257723293
 20
497.8693218068
 11
124.752545602
 21
497.8690510037
  0
LINE
  8
0
 62
7
  6
CONTINUOUS
 10
124.752545602
 20
497.8690510037
 11
119.8681811625
 21
497.8687200753
  0
LINE
  8
0
 62
7
  6
CONTINUOUS
 10
119.8681811625
 20
497.8687200753
 11
114.7969807069
 21
497.8683035843
  0
POLYLINE
  8
0
 62
7
  6
CONTINUOUS
 66
1
 70
0
  0
VERTEX
  8
0
 62
7
  6
CONTINUOUS
 10
114.7969807069
 20
497.8683035843
  0
VERTEX
  8
0
 62
7
  6
CONTINUOUS
 10
112.2616875312
 20
497.8680675062
  0
VERTEX
  8
0
 62
7
  6
CONTINUOUS
 10
110.9941220626
 20
497.8679425094
  0
VERTEX
  8
0
 62
7
  6
CONTINUOUS
 10
109.7266123317
 20
497.8678128742
  0
VERTEX
  8
0
 62
7
  6
CONTINUOUS
 10
108.4591595816
 20
497.8676786008
  0
VERTEX
  8
0
 62
7
  6
CONTINUOUS
 10
107.1917650549
 20
497.8675396891
  0
VERTEX
  8
0
 62
7
  6
CONTINUOUS
 10
105.9244299934
 20
497.8673961394
  0
VERTEX
  8
0
 62
7
  6
CONTINUOUS
 10
104.6571556386
 20
497.8672479515
  0
VERTEX
  8
0
 62
7
  6
CONTINUOUS
 10
103.3899432314
 20
497.8670951257
  0
VERTEX
  8
0
 62
7
  6
CONTINUOUS
 10
97.0548537958
 20
497.8662614293
  0
SEQEND
  0
POLYLINE
  8
0
 62
7
  6
CONTINUOUS
 66
1
 70
0
  0
VERTEX
  8
0
 62
7
  6
CONTINUOUS
 10
175.2640439615
 20
497.8684358059
  0
VERTEX
  8
0
 62
7
  6
CONTINUOUS
 10
173.9970107266
 20
497.8685412819
  0
VERTEX
  8
0
 62
7
  6
CONTINUOUS
 10
161.3245760705
 20
497.8693411607
  0
SEQEND
  0
POLYLINE
  8
0
 62
7
  6
CONTINUOUS
 66
1
 70
0
  0
VERTEX
  8
0
 62
7
  6
CONTINUOUS
 10
195.530726477
 20
497.8661178469
  0
VERTEX
  8
0
 62
7
  6
CONTINUOUS
 10
194.2644026435
 20
497.8662974879
  0
VERTEX
  8
0
 62
7
  6
CONTINUOUS
 10
192.9980304881
 20
497.866472492
  0
VERTEX
  8
0
 62
7
  6
CONTINUOUS
 10
191.7316105417
 20
497.8666428595
  0
VERTEX
  8
0
 62
7
  6
CONTINUOUS
 10
190.4651433353
 20
497.8668085907
  0
VERTEX
  8
0
 62
7
  6
CONTINUOUS
 10
189.1986294
 20
497.8669696857
  0
VERTEX
  8
0
 62
7
  6
CONTINUOUS
 10
187.932069267
 20
497.8671261449
  0
VERTEX
  8
0
 62
7
  6
CONTINUOUS
 10
186.6654634676
 20
497.8672779684
  0
VERTEX
  8
0
 62
7
  6
CONTINUOUS
 10
185.398812533
 20
497.8674251566
  0
VERTEX
  8
0
 62
7
  6
CONTINUOUS
 10
184.1321169945
 20
497.8675677095
  0
VERTEX
  8
0
 62
7
  6
CONTINUOUS
 10
182.8653773837
 20
497.8677056273
  0
VERTEX
  8
0
 62
7
  6
CONTINUOUS
 10
181.5985942318
 20
497.8678389102
  0
VERTEX
  8
0
 62
7
  6
CONTINUOUS
 10
180.3317680705
 20
497.8679675584
  0
VERTEX
  8
0
 62
7
  6
CONTINUOUS
 10
179.0648994311
 20
497.8680915719
  0
VERTEX
  8
0
 62
7
  6
CONTINUOUS
 10
175.2640439615
 20
497.8684358059
  0
SEQEND
  0
LINE
  8
0
 62
7
  6
CONTINUOUS
 10
261.7007302164
 20
497.8563841777
 11
195.530726477
 21
497.8661178469
  0
LINE
  8
0
 62
7
  6
CONTINUOUS
 10
297.3235390278
 20
497.8509970699
 11
261.7007302164
 21
497.8563841777
  0
POLYLINE
  8
0
 62
7
  6
CONTINUOUS
 66
1
 70
0
  0
VERTEX
  8
0
 62
7
  6
CONTINUOUS
 10
297.6935607792
 20
497.8509315072
  0
VERTEX
  8
0
 62
7
  6
CONTINUOUS
 10
297.5086494255
 20
497.8509668925
  0
VERTEX
  8
0
 62
7
  6
CONTINUOUS
 10
297.3235420354
 20
497.8509975395
  0
SEQEND
  0
POLYLINE
  8
0
 62
7
  6
CONTINUOUS
 66
1
 70
0
  0
VERTEX
  8
0
 62
7
  6
CONTINUOUS
 10
298.7988673234
 20
497.8506203715
  0
VERTEX
  8
0
 62
7
  6
CONTINUOUS
 10
298.6151490773
 20
497.8506839345
  0
VERTEX
  8
0
 62
7
  6
CONTINUOUS
 10
298.4312299213
 20
497.8507428295
  0
VERTEX
  8
0
 62
7
  6
CONTINUOUS
 10
298.2471106917
 20
497.8507970457
  0
VERTEX
  8
0
 62
7
  6
CONTINUOUS
 10
298.0627922149
 20
497.8508465718
  0
VERTEX
  8
0
 62
7
  6
CONTINUOUS
 10
297.6935607792
 20
497.8509315072
  0
SEQEND
  0
POLYLINE
  8
0
 62
7
  6
CONTINUOUS
 66
1
 70
0
  0
VERTEX
  8
0
 62
7
  6
CONTINUOUS
 10
300.0791973507
 20
497.8500455908
  0
VERTEX
  8
0
 62
7
  6
CONTINUOUS
 10
299.8969096782
 20
497.8501415461
  0
VERTEX
  8
0
 62
7
  6
CONTINUOUS
 10
299.7144149791
 20
497.8502329023
  0
VERTEX
  8
0
 62
7
  6
CONTINUOUS
 10
299.5317141551
 20
497.8503196503
  0
VERTEX
  8
0
 62
7
  6
CONTINUOUS
 10
299.3488080991
 20
497.8504017809
  0
VERTEX
  8
0
 62
7
  6
CONTINUOUS
 10
299.1656976941
 20
497.8504792845
  0
VERTEX
  8
0
 62
7
  6
CONTINUOUS
 10
298.7988673234
 20
497.8506203715
  0
SEQEND
  0
POLYLINE
  8
0
 62
7
  6
CONTINUOUS
 66
1
 70
0
  0
VERTEX
  8
0
 62
7
  6
CONTINUOUS
 10
301.3493365913
 20
497.849245822
  0
VERTEX
  8
0
 62
7
  6
CONTINUOUS
 10
301.1685241428
 20
497.8493737434
  0
VERTEX
  8
0
 62
7
  6
CONTINUOUS
 10
300.987498093
 20
497.8494971208
  0
VERTEX
  8
0
 62
7
  6
CONTINUOUS
 10
300.8062594091
 20
497.8496159472
  0
VERTEX
  8
0
 62
7
  6
CONTINUOUS
 10
300.624809049
 20
497.8497302151
  0
VERTEX
  8
0
 62
7
  6
CONTINUOUS
 10
300.4431479614
 20
497.849839917
  0
VERTEX
  8
0
 62
7
  6
CONTINUOUS
 10
300.0791973507
 20
497.8500455908
  0
SEQEND
  0
POLYLINE
  8
0
 62
7
  6
CONTINUOUS
 66
1
 70
0
  0
VERTEX
  8
0
 62
7
  6
CONTINUOUS
 10
302.6089596689
 20
497.8482236831
  0
VERTEX
  8
0
 62
7
  6
CONTINUOUS
 10
302.4296703035
 20
497.8483832352
  0
VERTEX
  8
0
 62
7
  6
CONTINUOUS
 10
302.2501603021
 20
497.8485382858
  0
VERTEX
  8
0
 62
7
  6
CONTINUOUS
 10
302.0704306981
 20
497.8486888296
  0
VERTEX
  8
0
 62
7
  6
CONTINUOUS
 10
301.8904825154
 20
497.8488348611
  0
VERTEX
  8
0
 62
7
  6
CONTINUOUS
 10
301.7103167683
 20
497.8489763744
  0
VERTEX
  8
0
 62
7
  6
CONTINUOUS
 10
301.3493365913
 20
497.849245822
  0
SEQEND
  0
POLYLINE
  8
0
 62
7
  6
CONTINUOUS
 66
1
 70
0
  0
VERTEX
  8
0
 62
7
  6
CONTINUOUS
 10
303.680003417
 20
497.8471721073
  0
VERTEX
  8
0
 62
7
  6
CONTINUOUS
 10
303.5020601107
 20
497.8473585701
  0
VERTEX
  8
0
 62
7
  6
CONTINUOUS
 10
303.3238897646
 20
497.8475405582
  0
VERTEX
  8
0
 62
7
  6
CONTINUOUS
 10
303.1454934703
 20
497.8477180678
  0
VERTEX
  8
0
 62
7
  6
CONTINUOUS
 10
302.9668723098
 20
497.8478910948
  0
VERTEX
  8
0
 62
7
  6
CONTINUOUS
 10
302.6089596689
 20
497.8482236831
  0
SEQEND
  0
POLYLINE
  8
0
 62
7
  6
CONTINUOUS
 66
1
 70
0
  0
VERTEX
  8
0
 62
7
  6
CONTINUOUS
 10
304.919155636
 20
497.8457418477
  0
VERTEX
  8
0
 62
7
  6
CONTINUOUS
 10
304.7428330202
 20
497.8459595462
  0
VERTEX
  8
0
 62
7
  6
CONTINUOUS
 10
304.5662754405
 20
497.8461727901
  0
VERTEX
  8
0
 62
7
  6
CONTINUOUS
 10
304.3894840596
 20
497.8463815772
  0
VERTEX
  8
0
 62
7
  6
CONTINUOUS
 10
304.2124600298
 20
497.8465859053
  0
VERTEX
  8
0
 62
7
  6
CONTINUOUS
 10
304.0352044932
 20
497.8467857716
  0
VERTEX
  8
0
 62
7
  6
CONTINUOUS
 10
303.680003417
 20
497.8471721073
  0
SEQEND
  0
POLYLINE
  8
0
 62
7
  6
CONTINUOUS
 66
1
 70
0
  0
VERTEX
  8
0
 62
7
  6
CONTINUOUS
 10
305.9720906465
 20
497.8443422016
  0
VERTEX
  8
0
 62
7
  6
CONTINUOUS
 10
305.7972028237
 20
497.8445865957
  0
VERTEX
  8
0
 62
7
  6
CONTINUOUS
 10
305.6220728376
 20
497.844826543
  0
VERTEX
  8
0
 62
7
  6
CONTINUOUS
 10
305.4467019153
 20
497.845062043
  0
VERTEX
  8
0
 62
7
  6
CONTINUOUS
 10
305.2710912726
 20
497.8452930946
  0
VERTEX
  8
0
 62
7
  6
CONTINUOUS
 10
304.919155636
 20
497.8457418477
  0
SEQEND
  0
POLYLINE
  8
0
 62
7
  6
CONTINUOUS
 66
1
 70
0
  0
VERTEX
  8
0
 62
7
  6
CONTINUOUS
 10
307.0162620386
 20
497.8427824663
  0
VERTEX
  8
0
 62
7
  6
CONTINUOUS
 10
306.8428535886
 20
497.8430535391
  0
VERTEX
  8
0
 62
7
  6
CONTINUOUS
 10
306.6691953773
 20
497.8433201644
  0
VERTEX
  8
0
 62
7
  6
CONTINUOUS
 10
306.4952886997
 20
497.8435823429
  0
VERTEX
  8
0
 62
7
  6
CONTINUOUS
 10
306.3211348394
 20
497.8438400751
  0
VERTEX
  8
0
 62
7
  6
CONTINUOUS
 10
305.9720906465
 20
497.8443422016
  0
SEQEND
  0
POLYLINE
  8
0
 62
7
  6
CONTINUOUS
 66
1
 70
0
  0
VERTEX
  8
0
 62
7
  6
CONTINUOUS
 10
308.2230165607
 20
497.8407603109
  0
VERTEX
  8
0
 62
7
  6
CONTINUOUS
 10
308.051393715
 20
497.8410625582
  0
VERTEX
  8
0
 62
7
  6
CONTINUOUS
 10
307.8795117029
 20
497.8413603458
  0
VERTEX
  8
0
 62
7
  6
CONTINUOUS
 10
307.7073719054
 20
497.8416536762
  0
VERTEX
  8
0
 62
7
  6
CONTINUOUS
 10
307.5349756908
 20
497.8419425515
  0
VERTEX
  8
0
 62
7
  6
CONTINUOUS
 10
307.3623244146
 20
497.8422269739
  0
VERTEX
  8
0
 62
7
  6
CONTINUOUS
 10
307.0162620386
 20
497.8427824663
  0
SEQEND
  0
POLYLINE
  8
0
 62
7
  6
CONTINUOUS
 66
1
 70
0
  0
VERTEX
  8
0
 62
7
  6
CONTINUOUS
 10
309.2412973669
 20
497.8388645697
  0
VERTEX
  8
0
 62
7
  6
CONTINUOUS
 10
309.0692203736
 20
497.8391973813
  0
VERTEX
  8
0
 62
7
  6
CONTINUOUS
 10
308.8966369387
 20
497.8395260445
  0
VERTEX
  8
0
 62
7
  6
CONTINUOUS
 10
308.7363160439
 20
497.8398267817
  0
VERTEX
  8
0
 62
7
  6
CONTINUOUS
 10
308.5654791361
 20
497.8401424258
  0
VERTEX
  8
0
 62
7
  6
CONTINUOUS
 10
308.2230165607
 20
497.8407603109
  0
SEQEND
  0
POLYLINE
  8
0
 62
7
  6
CONTINUOUS
 66
1
 70
0
  0
VERTEX
  8
0
 62
7
  6
CONTINUOUS
 10
310.0940884888
 20
497.8371387315
  0
VERTEX
  8
0
 62
7
  6
CONTINUOUS
 10
309.9245426623
 20
497.8374920954
  0
VERTEX
  8
0
 62
7
  6
CONTINUOUS
 10
309.7544906415
 20
497.8378413732
  0
VERTEX
  8
0
 62
7
  6
CONTINUOUS
 10
309.5839324366
 20
497.838186553
  0
VERTEX
  8
0
 62
7
  6
CONTINUOUS
 10
309.2412973669
 20
497.8388645697
  0
SEQEND
  0
POLYLINE
  8
0
 62
7
  6
CONTINUOUS
 66
1
 70
0
  0
VERTEX
  8
0
 62
7
  6
CONTINUOUS
 10
311.1007291655
 20
497.8349333764
  0
VERTEX
  8
0
 62
7
  6
CONTINUOUS
 10
310.9342223303
 20
497.8353110207
  0
VERTEX
  8
0
 62
7
  6
CONTINUOUS
 10
310.7672086371
 20
497.8356846451
  0
VERTEX
  8
0
 62
7
  6
CONTINUOUS
 10
310.5996882671
 20
497.8360542391
  0
VERTEX
  8
0
 62
7
  6
CONTINUOUS
 10
310.4316613737
 20
497.8364197921
  0
VERTEX
  8
0
 62
7
  6
CONTINUOUS
 10
310.0940884888
 20
497.8371387315
  0
SEQEND
  0
POLYLINE
  8
0
 62
7
  6
CONTINUOUS
 66
1
 70
0
  0
VERTEX
  8
0
 62
7
  6
CONTINUOUS
 10
312.0891125285
 20
497.8325836417
  0
VERTEX
  8
0
 62
7
  6
CONTINUOUS
 10
311.9256521911
 20
497.8329852016
  0
VERTEX
  8
0
 62
7
  6
CONTINUOUS
 10
311.7616833312
 20
497.8333827986
  0
VERTEX
  8
0
 62
7
  6
CONTINUOUS
 10
311.5972062939
 20
497.8337764239
  0
VERTEX
  8
0
 62
7
  6
CONTINUOUS
 10
311.4322213976
 20
497.8341660683
  0
VERTEX
  8
0
 62
7
  6
CONTINUOUS
 10
311.1007291655
 20
497.8349333764
  0
SEQEND
  0
POLYLINE
  8
0
 62
7
  6
CONTINUOUS
 66
1
 70
0
  0
VERTEX
  8
0
 62
7
  6
CONTINUOUS
 10
312.8987724297
 20
497.8305166955
  0
VERTEX
  8
0
 62
7
  6
CONTINUOUS
 10
312.7378608151
 20
497.8309379439
  0
VERTEX
  8
0
 62
7
  6
CONTINUOUS
 10
312.576438553
 20
497.8313552706
  0
VERTEX
  8
0
 62
7
  6
CONTINUOUS
 10
312.4145061213
 20
497.8317686679
  0
VERTEX
  8
0
 62
7
  6
CONTINUOUS
 10
312.0891125285
 20
497.8325836417
  0
SEQEND
  0
POLYLINE
  8
0
 62
7
  6
CONTINUOUS
 66
1
 70
0
  0
VERTEX
  8
0
 62
7
  6
CONTINUOUS
 10
313.6956522375
 20
497.8283518832
  0
VERTEX
  8
0
 62
7
  6
CONTINUOUS
 10
313.5373019421
 20
497.8287926317
  0
VERTEX
  8
0
 62
7
  6
CONTINUOUS
 10
313.3784382183
 20
497.829229494
  0
VERTEX
  8
0
 62
7
  6
CONTINUOUS
 10
313.2190616745
 20
497.8296624633
  0
VERTEX
  8
0
 62
7
  6
CONTINUOUS
 10
312.8987724297
 20
497.8305166955
  0
SEQEND
  0
POLYLINE
  8
0
 62
7
  6
CONTINUOUS
 66
1
 70
0
  0
VERTEX
  8
0
 62
7
  6
CONTINUOUS
 10
314.4796791911
 20
497.8260900637
  0
VERTEX
  8
0
 62
7
  6
CONTINUOUS
 10
314.3239060663
 20
497.8265501516
  0
VERTEX
  8
0
 62
7
  6
CONTINUOUS
 10
314.1676160838
 20
497.8270063831
  0
VERTEX
  8
0
 62
7
  6
CONTINUOUS
 10
314.0108099813
 20
497.8274587528
  0
VERTEX
  8
0
 62
7
  6
CONTINUOUS
 10
313.6956522375
 20
497.8283518832
  0
SEQEND
  0
POLYLINE
  8
0
 62
7
  6
CONTINUOUS
 66
1
 70
0
  0
VERTEX
  8
0
 62
7
  6
CONTINUOUS
 10
315.2507643248
 20
497.8237319593
  0
VERTEX
  8
0
 62
7
  6
CONTINUOUS
 10
315.0975874575
 20
497.8242112528
  0
VERTEX
  8
0
 62
7
  6
CONTINUOUS
 10
314.9438896564
 20
497.8246867146
  0
VERTEX
  8
0
 62
7
  6
CONTINUOUS
 10
314.7896717885
 20
497.8251583402
  0
VERTEX
  8
0
 62
7
  6
CONTINUOUS
 10
314.4796791911
 20
497.8260900637
  0
SEQEND
  0
POLYLINE
  8
0
 62
7
  6
CONTINUOUS
 66
1
 70
0
  0
VERTEX
  8
0
 62
7
  6
CONTINUOUS
 10
316.0088024765
 20
497.8212781584
  0
VERTEX
  8
0
 62
7
  6
CONTINUOUS
 10
315.8582441994
 20
497.8217765505
  0
VERTEX
  8
0
 62
7
  6
CONTINUOUS
 10
315.7071602608
 20
497.8222711302
  0
VERTEX
  8
0
 62
7
  6
CONTINUOUS
 10
315.5555516588
 20
497.822761894
  0
VERTEX
  8
0
 62
7
  6
CONTINUOUS
 10
315.2507643248
 20
497.8237319593
  0
SEQEND
  0
POLYLINE
  8
0
 62
7
  6
CONTINUOUS
 66
1
 70
0
  0
VERTEX
  8
0
 62
7
  6
CONTINUOUS
 10
316.7536721522
 20
497.8187291174
  0
VERTEX
  8
0
 62
7
  6
CONTINUOUS
 10
316.605758082
 20
497.8192465274
  0
VERTEX
  8
0
 62
7
  6
CONTINUOUS
 10
316.4573129615
 20
497.8197601389
  0
VERTEX
  8
0
 62
7
  6
CONTINUOUS
 10
316.3083379218
 20
497.8202699497
  0
VERTEX
  8
0
 62
7
  6
CONTINUOUS
 10
316.0088024765
 20
497.8212781584
  0
SEQEND
  0
POLYLINE
  8
0
 62
7
  6
CONTINUOUS
 66
1
 70
0
  0
VERTEX
  8
0
 62
7
  6
CONTINUOUS
 10
317.3399943502
 20
497.8166215342
  0
VERTEX
  8
0
 62
7
  6
CONTINUOUS
 10
317.1942163394
 20
497.8171541181
  0
VERTEX
  8
0
 62
7
  6
CONTINUOUS
 10
317.0479024802
 20
497.8176829109
  0
VERTEX
  8
0
 62
7
  6
CONTINUOUS
 10
316.7536721522
 20
497.8187291174
  0
SEQEND
  0
POLYLINE
  8
0
 62
7
  6
CONTINUOUS
 66
1
 70
0
  0
VERTEX
  8
0
 62
7
  6
CONTINUOUS
 10
317.9177221222
 20
497.8144533127
  0
VERTEX
  8
0
 62
7
  6
CONTINUOUS
 10
317.7741004691
 20
497.8150010492
  0
VERTEX
  8
0
 62
7
  6
CONTINUOUS
 10
317.6299377256
 20
497.8155449988
  0
VERTEX
  8
0
 62
7
  6
CONTINUOUS
 10
317.3399943502
 20
497.8166215342
  0
SEQEND
  0
POLYLINE
  8
0
 62
7
  6
CONTINUOUS
 66
1
 70
0
  0
VERTEX
  8
0
 62
7
  6
CONTINUOUS
 10
318.4867697648
 20
497.8122245029
  0
VERTEX
  8
0
 62
7
  6
CONTINUOUS
 10
318.3453265788
 20
497.8127873848
  0
VERTEX
  8
0
 62
7
  6
CONTINUOUS
 10
318.203336602
 20
497.8133464803
  0
VERTEX
  8
0
 62
7
  6
CONTINUOUS
 10
317.9177221222
 20
497.8144533127
  0
SEQEND
  0
POLYLINE
  8
0
 62
7
  6
CONTINUOUS
 66
1
 70
0
  0
VERTEX
  8
0
 62
7
  6
CONTINUOUS
 10
319.0407204772
 20
497.8099614832
  0
VERTEX
  8
0
 62
7
  6
CONTINUOUS
 10
318.907803444
 20
497.8105131332
  0
VERTEX
  8
0
 62
7
  6
CONTINUOUS
 10
318.768009741
 20
497.8110873778
  0
VERTEX
  8
0
 62
7
  6
CONTINUOUS
 10
318.4867697648
 20
497.8122245029
  0
SEQEND
  0
POLYLINE
  8
0
 62
7
  6
CONTINUOUS
 66
1
 70
0
  0
VERTEX
  8
0
 62
7
  6
CONTINUOUS
 10
319.5981570166
 20
497.8075862904
  0
VERTEX
  8
0
 62
7
  6
CONTINUOUS
 10
319.4599338619
 20
497.8081846991
  0
VERTEX
  8
0
 62
7
  6
CONTINUOUS
 10
319.3209540159
 20
497.8087800421
  0
VERTEX
  8
0
 62
7
  6
CONTINUOUS
 10
319.0407204772
 20
497.8099614832
  0
SEQEND
  0
POLYLINE
  8
0
 62
7
  6
CONTINUOUS
 66
1
 70
0
  0
VERTEX
  8
0
 62
7
  6
CONTINUOUS
 10
320.1434997141
 20
497.8051622283
  0
VERTEX
  8
0
 62
7
  6
CONTINUOUS
 10
320.0082949438
 20
497.8057727855
  0
VERTEX
  8
0
 62
7
  6
CONTINUOUS
 10
319.8723367427
 20
497.8063803223
  0
VERTEX
  8
0
 62
7
  6
CONTINUOUS
 10
319.5981570166
 20
497.8075862904
  0
SEQEND
  0
POLYLINE
  8
0
 62
7
  6
CONTINUOUS
 66
1
 70
0
  0
VERTEX
  8
0
 62
7
  6
CONTINUOUS
 10
320.6767978505
 20
497.8026900096
  0
VERTEX
  8
0
 62
7
  6
CONTINUOUS
 10
320.5446002324
 20
497.8033125419
  0
VERTEX
  8
0
 62
7
  6
CONTINUOUS
 10
320.4116517236
 20
497.803932096
  0
VERTEX
  8
0
 62
7
  6
CONTINUOUS
 10
320.1434997141
 20
497.8051622283
  0
SEQEND
  0
POLYLINE
  8
0
 62
7
  6
CONTINUOUS
 66
1
 70
0
  0
VERTEX
  8
0
 62
7
  6
CONTINUOUS
 10
321.0688904043
 20
497.8008046427
  0
VERTEX
  8
0
 62
7
  6
CONTINUOUS
 10
320.938942475
 20
497.8014360502
  0
VERTEX
  8
0
 62
7
  6
CONTINUOUS
 10
320.6767978505
 20
497.8026900096
  0
SEQEND
  0
POLYLINE
  8
0
 62
7
  6
CONTINUOUS
 66
1
 70
0
  0
VERTEX
  8
0
 62
7
  6
CONTINUOUS
 10
321.4542413102
 20
497.7988928222
  0
VERTEX
  8
0
 62
7
  6
CONTINUOUS
 10
321.3265394868
 20
497.7995330195
  0
VERTEX
  8
0
 62
7
  6
CONTINUOUS
 10
321.0688904043
 20
497.8008046427
  0
SEQEND
  0
POLYLINE
  8
0
 62
7
  6
CONTINUOUS
 66
1
 70
0
  0
VERTEX
  8
0
 62
7
  6
CONTINUOUS
 10
321.9575697104
 20
497.7963030018
  0
VERTEX
  8
0
 62
7
  6
CONTINUOUS
 10
321.8328590623
 20
497.7969547944
  0
VERTEX
  8
0
 62
7
  6
CONTINUOUS
 10
321.7074008866
 20
497.797603701
  0
VERTEX
  8
0
 62
7
  6
CONTINUOUS
 10
321.4542413102
 20
497.7988928222
  0
SEQEND
  0
POLYLINE
  8
0
 62
7
  6
CONTINUOUS
 66
1
 70
0
  0
VERTEX
  8
0
 62
7
  6
CONTINUOUS
 10
322.3272173883
 20
497.7943303892
  0
VERTEX
  8
0
 62
7
  6
CONTINUOUS
 10
322.2047488236
 20
497.7949907912
  0
VERTEX
  8
0
 62
7
  6
CONTINUOUS
 10
321.9575697104
 20
497.7963030018
  0
SEQEND
  0
POLYLINE
  8
0
 62
7
  6
CONTINUOUS
 66
1
 70
0
  0
VERTEX
  8
0
 62
7
  6
CONTINUOUS
 10
322.6901388763
 20
497.7923320886
  0
VERTEX
  8
0
 62
7
  6
CONTINUOUS
 10
322.5699124841
 20
497.7930010304
  0
VERTEX
  8
0
 62
7
  6
CONTINUOUS
 10
322.3272173883
 20
497.7943303892
  0
SEQEND
  0
POLYLINE
  8
0
 62
7
  6
CONTINUOUS
 66
1
 70
0
  0
VERTEX
  8
0
 62
7
  6
CONTINUOUS
 10
323.0463317702
 20
497.7903082997
  0
VERTEX
  8
0
 62
7
  6
CONTINUOUS
 10
322.9283487067
 20
497.7909857162
  0
VERTEX
  8
0
 62
7
  6
CONTINUOUS
 10
322.6901388763
 20
497.7923320886
  0
SEQEND
  0
LINE
  8
0
 62
7
  6
CONTINUOUS
 10
323.2800529632
 20
497.7889450394
 11
323.0463317702
 21
497.7903082997
  0
POLYLINE
  8
0
 62
7
  6
CONTINUOUS
 66
1
 70
0
  0
VERTEX
  8
0
 62
7
  6
CONTINUOUS
 10
323.6250175585
 20
497.7868791773
  0
VERTEX
  8
0
 62
7
  6
CONTINUOUS
 10
323.5107788161
 20
497.787570586
  0
VERTEX
  8
0
 62
7
  6
CONTINUOUS
 10
323.2800529632
 20
497.7889450394
  0
SEQEND
  0
POLYLINE
  8
0
 62
7
  6
CONTINUOUS
 66
1
 70
0
  0
VERTEX
  8
0
 62
7
  6
CONTINUOUS
 10
323.963231646
 20
497.7847882947
  0
VERTEX
  8
0
 62
7
  6
CONTINUOUS
 10
323.8512444723
 20
497.785488026
  0
VERTEX
  8
0
 62
7
  6
CONTINUOUS
 10
323.6250175585
 20
497.7868791773
  0
SEQEND
  0
LINE
  8
0
 62
7
  6
CONTINUOUS
 10
324.1849506411
 20
497.783380548
 11
323.963231646
 21
497.7847882947
  0
POLYLINE
  8
0
 62
7
  6
CONTINUOUS
 66
1
 70
0
  0
VERTEX
  8
0
 62
7
  6
CONTINUOUS
 10
324.5118812278
 20
497.7812482952
  0
VERTEX
  8
0
 62
7
  6
CONTINUOUS
 10
324.4036583315
 20
497.7819617906
  0
VERTEX
  8
0
 62
7
  6
CONTINUOUS
 10
324.1849506411
 20
497.783380548
  0
SEQEND
  0
LINE
  8
0
 62
7
  6
CONTINUOUS
 10
324.7260613612
 20
497.7798130945
 11
324.5118812278
 21
497.7812482952
  0
LINE
  8
0
 62
7
  6
CONTINUOUS
 10
324.9372151408
 20
497.7783669767
 11
324.7260613612
 21
497.7798130945
  0
POLYLINE
  8
0
 62
7
  6
CONTINUOUS
 66
1
 70
0
  0
VERTEX
  8
0
 62
7
  6
CONTINUOUS
 10
325.2482556391
 20
497.7761774019
  0
VERTEX
  8
0
 62
7
  6
CONTINUOUS
 10
325.1453354427
 20
497.7769099748
  0
VERTEX
  8
0
 62
7
  6
CONTINUOUS
 10
324.9372151408
 20
497.7783669767
  0
SEQEND
  0
LINE
  8
0
 62
7
  6
CONTINUOUS
 10
325.4518109704
 20
497.7747041304
 11
325.2482556391
 21
497.7761774019
  0
LINE
  8
0
 62
7
  6
CONTINUOUS
 10
325.6523122105
 20
497.7732200466
 11
325.4518109704
 21
497.7747041304
  0
LINE
  8
0
 62
7
  6
CONTINUOUS
 10
325.8497499748
 20
497.7717251749
 11
325.6523122105
 21
497.7732200466
  0
LINE
  8
0
 62
7
  6
CONTINUOUS
 10
326.044114216
 20
497.770219537
 11
325.8497499748
 21
497.7717251749
  0
LINE
  8
0
 62
7
  6
CONTINUOUS
 10
326.2353942146
 20
497.7687031523
 11
326.044114216
 21
497.770219537
  0
LINE
  8
0
 62
7
  6
CONTINUOUS
 10
326.5165061267
 20
497.7664084607
 11
326.2353942146
 21
497.7687031523
  0
LINE
  8
0
 62
7
  6
CONTINUOUS
 10
326.7021513892
 20
497.7648471696
 11
326.5165061267
 21
497.7664084607
  0
LINE
  8
0
 62
7
  6
CONTINUOUS
 10
326.97415901
 20
497.7624887122
 11
326.7021513892
 21
497.7648471696
  0
LINE
  8
0
 62
7
  6
CONTINUOUS
 10
327.1508952985
 20
497.7609081223
 11
326.97415901
 21
497.7624887122
  0
LINE
  8
0
 62
7
  6
CONTINUOUS
 10
327.4091271975
 20
497.7585249971
 11
327.1508952985
 21
497.7609081223
  0
LINE
  8
0
 62
7
  6
CONTINUOUS
 10
327.7406649517
 20
497.7553250259
 11
327.4091271975
 21
497.7585249971
  0
POLYLINE
  8
0
 62
7
  6
CONTINUOUS
 66
1
 70
0
  0
VERTEX
  8
0
 62
7
  6
CONTINUOUS
 10
328.1346672435
 20
497.7512897232
  0
VERTEX
  8
0
 62
7
  6
CONTINUOUS
 10
328.0576764055
 20
497.7520998807
  0
VERTEX
  8
0
 62
7
  6
CONTINUOUS
 10
327.7406649517
 20
497.7553250259
  0
SEQEND
  0
LINE
  8
0
 62
7
  6
CONTINUOUS
 10
328.4336082923
 20
497.7480338483
 11
328.1346672435
 21
497.7512897232
  0
LINE
  8
0
 62
7
  6
CONTINUOUS
 10
328.7181470735
 20
497.7447539484
 11
328.4336082923
 21
497.7480338483
  0
LINE
  8
0
 62
7
  6
CONTINUOUS
 10
328.9883178707
 20
497.741450493
 11
328.7181470735
 21
497.7447539484
  0
LINE
  8
0
 62
7
  6
CONTINUOUS
 10
329.24414253
 20
497.7381239279
 11
328.9883178707
 21
497.741450493
  0
LINE
  8
0
 62
7
  6
CONTINUOUS
 10
329.4856306353
 20
497.7347746759
 11
329.24414253
 21
497.7381239279
  0
LINE
  8
0
 62
7
  6
CONTINUOUS
 10
329.6573372589
 20
497.7322480902
 11
329.4856306353
 21
497.7347746759
  0
LINE
  8
0
 62
7
  6
CONTINUOUS
 10
329.8209728137
 20
497.7297091294
 11
329.6573372589
 21
497.7322480902
  0
LINE
  8
0
 62
7
  6
CONTINUOUS
 10
329.9765279016
 20
497.7271579476
 11
329.8209728137
 21
497.7297091294
  0
LINE
  8
0
 62
7
  6
CONTINUOUS
 10
330.1239892673
 20
497.724594692
 11
329.9765279016
 21
497.7271579476
  0
LINE
  8
0
 62
7
  6
CONTINUOUS
 10
330.2633397675
 20
497.7220195031
 11
330.1239892673
 21
497.724594692
  0
LINE
  8
0
 62
7
  6
CONTINUOUS
 10
330.3945583276
 20
497.719432515
 11
330.2633397675
 21
497.7220195031
  0
LINE
  8
0
 62
7
  6
CONTINUOUS
 10
330.5176198858
 20
497.7168338549
 11
330.3945583276
 21
497.719432515
  0
LINE
  8
0
 62
7
  6
CONTINUOUS
 10
330.5951150466
 20
497.7150949904
 11
330.5176198858
 21
497.7168338549
  0
LINE
  8
0
 62
7
  6
CONTINUOUS
 10
330.6689623704
 20
497.7133510262
 11
330.5951150466
 21
497.7150949904
  0
LINE
  8
0
 62
7
  6
CONTINUOUS
 10
330.7391628765
 20
497.7116017007
 11
330.6689623704
 21
497.7133510262
  0
LINE
  8
0
 62
7
  6
CONTINUOUS
 10
330.8062048404
 20
497.709833421
 11
330.7391628765
 21
497.7116017007
  0
LINE
  8
0
 62
7
  6
CONTINUOUS
 10
330.8693581537
 20
497.708064302
 11
330.8062048404
 21
497.709833421
  0
LINE
  8
0
 62
7
  6
CONTINUOUS
 10
330.9286367909
 20
497.706294396
 11
330.8693581537
 21
497.708064302
  0
POLYLINE
  8
0
 62
7
  6
CONTINUOUS
 66
1
 70
0
  0
VERTEX
  8
0
 62
7
  6
CONTINUOUS
 10
-39.6047701209
 20
497.6972117176
  0
VERTEX
  8
0
 62
7
  6
CONTINUOUS
 10
-39.6231109692
 20
497.6963288
  0
VERTEX
  8
0
 62
7
  6
CONTINUOUS
 10
-39.6405171591
 20
497.6954453329
  0
VERTEX
  8
0
 62
7
  6
CONTINUOUS
 10
-39.6569882072
 20
497.6945613221
  0
VERTEX
  8
0
 62
7
  6
CONTINUOUS
 10
-39.6725235794
 20
497.6936767734
  0
VERTEX
  8
0
 62
7
  6
CONTINUOUS
 10
-39.6871226909
 20
497.6927916924
  0
VERTEX
  8
0
 62
7
  6
CONTINUOUS
 10
-39.7007849064
 20
497.6919060848
  0
VERTEX
  8
0
 62
7
  6
CONTINUOUS
 10
-39.7135095392
 20
497.6910199563
  0
VERTEX
  8
0
 62
7
  6
CONTINUOUS
 10
-39.7252958519
 20
497.6901333126
  0
VERTEX
  8
0
 62
7
  6
CONTINUOUS
 10
-39.7361430557
 20
497.6892461593
  0
VERTEX
  8
0
 62
7
  6
CONTINUOUS
 10
-39.7460503105
 20
497.6883585019
  0
VERTEX
  8
0
 62
7
  6
CONTINUOUS
 10
-39.7550167243
 20
497.6874703461
  0
VERTEX
  8
0
 62
7
  6
CONTINUOUS
 10
-39.7630413535
 20
497.6865816976
  0
VERTEX
  8
0
 62
7
  6
CONTINUOUS
 10
-39.7701232023
 20
497.6856925617
  0
VERTEX
  8
0
 62
7
  6
CONTINUOUS
 10
-39.7762612225
 20
497.6848029442
  0
VERTEX
  8
0
 62
7
  6
CONTINUOUS
 10
-39.7814543133
 20
497.6839128505
  0
VERTEX
  8
0
 62
7
  6
CONTINUOUS
 10
-39.7857013208
 20
497.6830222862
  0
VERTEX
  8
0
 62
7
  6
CONTINUOUS
 10
-39.7890010381
 20
497.6821312568
  0
SEQEND
  0
LINE
  8
0
 62
7
  6
CONTINUOUS
 10
-39.5652861304
 20
497.6989758815
 11
-39.6047701209
 21
497.6972117176
  0
LINE
  8
0
 62
7
  6
CONTINUOUS
 10
-39.5220680462
 20
497.7007377782
 11
-39.5652861304
 21
497.6989758815
  0
LINE
  8
0
 62
7
  6
CONTINUOUS
 10
-39.4751179206
 20
497.7024973611
 11
-39.5220680462
 21
497.7007377782
  0
LINE
  8
0
 62
7
  6
CONTINUOUS
 10
-39.4244369997
 20
497.7042545832
 11
-39.4751179206
 21
497.7024973611
  0
POLYLINE
  8
0
 62
7
  6
CONTINUOUS
 66
1
 70
0
  0
VERTEX
  8
0
 62
7
  6
CONTINUOUS
 10
-39.3414211147
 20
497.7068858859
  0
VERTEX
  8
0
 62
7
  6
CONTINUOUS
 10
-39.3700257219
 20
497.706009397
  0
VERTEX
  8
0
 62
7
  6
CONTINUOUS
 10
-39.4244369997
 20
497.7042545832
  0
SEQEND
  0
LINE
  8
0
 62
7
  6
CONTINUOUS
 10
330.9840537862
 20
497.7045237547
 11
330.9286367909
 21
497.706294396
  0
LINE
  8
0
 62
7
  6
CONTINUOUS
 10
331.035621252
 20
497.7027524295
 11
330.9840537862
 21
497.7045237547
  0
LINE
  8
0
 62
7
  6
CONTINUOUS
 10
331.0833503949
 20
497.7009804713
 11
331.035621252
 21
497.7027524295
  0
LINE
  8
0
 62
7
  6
CONTINUOUS
 10
331.1272515311
 20
497.6992079309
 11
331.0833503949
 21
497.7009804713
  0
POLYLINE
  8
0
 62
7
  6
CONTINUOUS
 66
1
 70
0
  0
VERTEX
  8
0
 62
7
  6
CONTINUOUS
 10
331.3573787546
 20
497.6814614296
  0
VERTEX
  8
0
 62
7
  6
CONTINUOUS
 10
331.3548497874
 20
497.6823492588
  0
VERTEX
  8
0
 62
7
  6
CONTINUOUS
 10
331.3513781339
 20
497.6832370713
  0
VERTEX
  8
0
 62
7
  6
CONTINUOUS
 10
331.3469636268
 20
497.684124861
  0
VERTEX
  8
0
 62
7
  6
CONTINUOUS
 10
331.3416060476
 20
497.6850126219
  0
VERTEX
  8
0
 62
7
  6
CONTINUOUS
 10
331.3353051277
 20
497.685900348
  0
VERTEX
  8
0
 62
7
  6
CONTINUOUS
 10
331.3280605474
 20
497.6867880333
  0
VERTEX
  8
0
 62
7
  6
CONTINUOUS
 10
331.3198719365
 20
497.6876756717
  0
VERTEX
  8
0
 62
7
  6
CONTINUOUS
 10
331.3107388737
 20
497.6885632571
  0
VERTEX
  8
0
 62
7
  6
CONTINUOUS
 10
331.3006608868
 20
497.6894507835
  0
VERTEX
  8
0
 62
7
  6
CONTINUOUS
 10
331.2896374527
 20
497.6903382449
  0
VERTEX
  8
0
 62
7
  6
CONTINUOUS
 10
331.2776679968
 20
497.6912256351
  0
VERTEX
  8
0
 62
7
  6
CONTINUOUS
 10
331.2647518932
 20
497.692112948
  0
VERTEX
  8
0
 62
7
  6
CONTINUOUS
 10
331.2508884646
 20
497.6930001775
  0
VERTEX
  8
0
 62
7
  6
CONTINUOUS
 10
331.2360769818
 20
497.6938873175
  0
VERTEX
  8
0
 62
7
  6
CONTINUOUS
 10
331.2203166635
 20
497.6947743617
  0
VERTEX
  8
0
 62
7
  6
CONTINUOUS
 10
331.2036066765
 20
497.6956613041
  0
VERTEX
  8
0
 62
7
  6
CONTINUOUS
 10
331.1859461349
 20
497.6965481384
  0
VERTEX
  8
0
 62
7
  6
CONTINUOUS
 10
331.1673341
 20
497.6974348585
  0
VERTEX
  8
0
 62
7
  6
CONTINUOUS
 10
331.1272515311
 20
497.6992079309
  0
SEQEND
  0
ARC
  8
0
 62
7
  6
CONTINUOUS
 10
145.7879843687
 20
452.8634428672
 40
21.462985367
 50
246.1882883411
 51
113.8117116589
  0
ARC
  8
0
 62
7
  6
CONTINUOUS
 10
145.7879843687
 20
452.8634428672
 40
21.1420168659
 50
113.4615672859
 51
246.5384327141
  0
ARC
  8
0
 62
7
  6
CONTINUOUS
 10
145.7879843687
 20
452.8634428672
 40
18.624232976
 50
249.6305396407
 51
110.3694603593
  0
ARC
  8
0
 62
7
  6
CONTINUOUS
 10
145.7879843687
 20
452.8634428672
 40
18.5087010099
 50
111.8995941767
 51
248.1004058233
  0
ARC
  8
0
 62
7
  6
CONTINUOUS
 10
142.0476906545
 20
462.6307869276
 40
3.5
 50
0.0
 51
45.0
  0
ARC
  8
0
 62
7
  6
CONTINUOUS
 10
142.0476906545
 20
443.0960988068
 40
3.5
 50
315.0
 51
360.0
  0
ARC
  8
0
 62
7
  6
CONTINUOUS
 10
142.0476906545
 20
443.0960988068
 40
3.0
 50
315.0
 51
360.0
  0
ARC
  8
0
 62
7
  6
CONTINUOUS
 10
142.0476906545
 20
462.6307869276
 40
3.0
 50
0.0
 51
45.0
  0
ENDSEC
  0
EOF
