999
DXF file: K:\Client\125_Heirloom\001\00\Final_Data\Drawings\TOILETS\centrowf-373100_4.dxf
999
Pro/ENGINEER 2017110 by Parametric Technology Corporation
  0
SECTION
  2
HEADER
  9
$EXTMAX
 10
420.0
 20
297.0
 30
0.0
  9
$EXTMIN
 10
0.0
 20
0.0
 30
0.0
  9
$LIMMIN
 10
0.0
 20
0.0
  9
$LIMMAX
 10
420.0
 20
297.0
  9
$VIEWCTR
 10
210.0
 20
148.5
  9
$VIEWSIZE
 40
297.0
  9
$CLAYER
  8
0
  9
$LTSCALE
 40
23.1
  9
$CELTYPE
  6
BYLAYER
  9
$DIMSCALE
 40
1.0
  9
$DIMASZ
 40
3.0
  9
$DIMEXO
 40
1.0
  9
$DIMDLI
 40
15.96
  9
$DIMEXE
 40
1.0
  9
$DIMCEN
 40
3.78
  9
$DIMLFAC
 40
1.0
  9
$DIMBLK
  1
_FILLED
  9
$DIMALT
 70
0
  9
$DIMALTF
 40
0.0393700787
  9
$DIMTXT
 40
3.0
  9
$AUNITS
 70
0
  9
$PDMODE
 70
3
  9
$PDSIZE
 40
5.0
  9
$TILEMODE
 70
1
  0
ENDSEC
  0
SECTION
  2
TABLES
  0
TABLE
  2
LTYPE
 70
6
  0
LTYPE
  2
BYBLOCK
 70
0
  3

 72
65
 73
0
 40
0.0
  0
LTYPE
  2
BYLAYER
 70
0
  3

 72
65
 73
0
 40
0.0
  0
LTYPE
  2
CONTINUOUS
 70
64
  3
Solid line
 72
65
 73
0
 40
0.0
  0
LTYPE
  2
CENTER
 70
64
  3
____ _ ____ _ ____ _ ____ _ ____ _ ____ _ ____
 72
65
 73
4
 40
0.6
 49
0.375
 49
-0.075
 49
0.075
 49
-0.075
  0
LTYPE
  2
HIDDEN
 70
64
  3
- - - - - - - - - - - - - - - - - - - -
 72
65
 73
2
 40
0.2
 49
0.1
 49
-0.1
  0
LTYPE
  2
PHANTOM
 70
64
  3
_____ _ _ _____ _ _ _____ _ _ _____
 72
65
 73
6
 40
0.8
 49
0.45
 49
-0.05
 49
0.1
 49
-0.05
 49
0.1
 49
-0.05
  0
LTYPE
  2
DOT
 70
64
  3
. . . . . . . . . . . . . . . . . . . .
 72
65
 73
2
 40
0.2
 49
0.1
 49
-0.1
  0
LTYPE
  2
DASHED
 70
64
  3
- - - - - - - - - - - - - - - - - - - -
 72
65
 73
2
 40
0.2
 49
0.1
 49
-0.1
  0
ENDTAB
  0
TABLE
  2
LAYER
 70
36
  0
LAYER
  2
0
 70
0
 62
7
  6
CONTINUOUS
  0
LAYER
  2
DEFAULT_1
 70
0
 62
7
  6
CENTER
  0
LAYER
  2
DEFAULT_2
 70
0
 62
8
  6
HIDDEN
  0
LAYER
  2
DEFAULT_3
 70
0
 62
7
  6
PHANTOM
  0
LAYER
  2
0000_BOM
 70
0
 62
7
  6
CONTINUOUS
  0
LAYER
  2
0000_REV_TABLE
 70
0
 62
7
  6
CONTINUOUS
  0
LAYER
  2
0000_STEVENS_NOTE
 70
0
 62
7
  6
CONTINUOUS
  0
LAYER
  2
01_DATUM_PLANES
 70
0
 62
7
  6
CONTINUOUS
  0
LAYER
  2
01_DEF_PLANES
 70
0
 62
7
  6
CONTINUOUS
  0
LAYER
  2
02_DATUM_COS
 70
0
 62
7
  6
CONTINUOUS
  0
LAYER
  2
90_IMP_FEAT
 70
0
 62
7
  6
CONTINUOUS
  0
LAYER
  2
95_STL
 70
0
 62
7
  6
CONTINUOUS
  0
LAYER
  2
99_SOLID
 70
0
 62
7
  6
CONTINUOUS
  0
LAYER
  2
CAD-MASTER_ZINC-PL
 70
0
 62
7
  6
CONTINUOUS
  0
LAYER
  2
CURVE
 70
0
 62
7
  6
CONTINUOUS
  0
LAYER
  2
SHELL
 70
0
 62
7
  6
CONTINUOUS
  0
LAYER
  2
SKEL
 70
0
 62
7
  6
CONTINUOUS
  0
LAYER
  2
SKETCH
 70
0
 62
7
  6
CONTINUOUS
  0
LAYER
  2
SURFACE
 70
0
 62
7
  6
CONTINUOUS
  0
ENDTAB
  0
TABLE
  2
STYLE
 70
1
  0
STYLE
  2
STANDARD
 70
0
 40
0.0
 41
0.75
 50
0.0
 71
0
 42
0.2
  3
txt
  4

  0
STYLE
  2
TEXTSTYLE_1
 70
0
 40
0.0
 41
0.8
 50
0.0
 71
0
 42
0.2
  3
gdt
  4

  0
ENDTAB
  0
ENDSEC
  0
SECTION
  2
BLOCKS
  0
BLOCK
  8
0
 62
5
  6
CONTINUOUS
  2
PLUMBING_BL1
 70
64
 10
182.8150684932
 20
-244.310553917
  0
CIRCLE
  8
0
 62
5
  6
CONTINUOUS
 10
182.8150684932
 20
-244.310553917
 40
12.5
  0
LINE
  8
0
 62
5
  6
CONTINUOUS
 10
195.3150684932
 20
-231.810553917
 11
170.3150684932
 21
-256.810553917
  0
LINE
  8
0
 62
5
  6
CONTINUOUS
 10
182.8150684932
 20
-244.310553917
 11
170.3150684932
 21
-231.810553917
  0
LINE
  8
0
 62
5
  6
CONTINUOUS
 10
182.8150684932
 20
-244.310553917
 11
195.3150684932
 21
-256.810553917
  0
ENDBLK
  8
0
  6
BYBLOCK
 62
0
  0
BLOCK
  8
0
 62
1
  6
CONTINUOUS
  2
PLUMBING_BL0
 70
64
 10
182.8150684931
 20
-64.310553917
  0
CIRCLE
  8
0
 62
1
  6
CONTINUOUS
 10
182.8150684931
 20
-64.310553917
 40
12.5
  0
LINE
  8
0
 62
1
  6
CONTINUOUS
 10
195.3150684931
 20
-51.810553917
 11
170.3150684931
 21
-76.810553917
  0
LINE
  8
0
 62
1
  6
CONTINUOUS
 10
182.8150684931
 20
-64.310553917
 11
170.3150684931
 21
-51.810553917
  0
LINE
  8
0
 62
1
  6
CONTINUOUS
 10
182.8150684931
 20
-64.310553917
 11
195.3150684931
 21
-76.810553917
  0
ENDBLK
  8
0
  6
BYBLOCK
 62
0
  0
ENDSEC
  0
SECTION
  2
ENTITIES
  0
INSERT
  8
0
 62
1
  6
CONTINUOUS
  2
PLUMBING_BL0
 10
182.8150684931
 20
-64.310553917
  0
INSERT
  8
0
 62
5
  6
CONTINUOUS
  2
PLUMBING_BL1
 10
182.8150684932
 20
-244.310553917
  0
LINE
  8
0
 62
7
  6
CONTINUOUS
 10
155.0608368052
 20
551.1749991054
 11
154.2993142066
 21
549.0827620202
  0
LINE
  8
0
 62
7
  6
CONTINUOUS
 10
210.5693001811
 20
551.1749991054
 11
211.3308227797
 21
549.0827620202
  0
LINE
  8
0
 62
7
  6
CONTINUOUS
 10
147.811794473
 20
549.0827620202
 11
217.8150685223
 21
549.0827620202
  0
LINE
  8
0
 62
7
  6
CONTINUOUS
 10
175.9116685092
 20
556.9005404403
 11
176.2940040794
 21
557.0156956003
  0
POLYLINE
  8
0
 62
7
  6
CONTINUOUS
 66
1
 70
0
  0
VERTEX
  8
0
 62
7
  6
CONTINUOUS
 10
301.8581599988
 20
-243.1318636354
  0
VERTEX
  8
0
 62
7
  6
CONTINUOUS
 10
302.1081781424
 20
-243.1179841648
  0
VERTEX
  8
0
 62
7
  6
CONTINUOUS
 10
302.4808416396
 20
-243.0970666688
  0
VERTEX
  8
0
 62
7
  6
CONTINUOUS
 10
302.8450272803
 20
-243.0763471305
  0
VERTEX
  8
0
 62
7
  6
CONTINUOUS
 10
303.2009101346
 20
-243.0558203316
  0
VERTEX
  8
0
 62
7
  6
CONTINUOUS
 10
303.5486354378
 20
-243.0354826229
  0
VERTEX
  8
0
 62
7
  6
CONTINUOUS
 10
303.8883481328
 20
-243.0153302666
  0
VERTEX
  8
0
 62
7
  6
CONTINUOUS
 10
304.2201899998
 20
-242.9953595997
  0
VERTEX
  8
0
 62
7
  6
CONTINUOUS
 10
304.5443025028
 20
-242.9755668602
  0
VERTEX
  8
0
 62
7
  6
CONTINUOUS
 10
304.8608238688
 20
-242.9559483579
  0
VERTEX
  8
0
 62
7
  6
CONTINUOUS
 10
305.1698920482
 20
-242.9365002886
  0
VERTEX
  8
0
 62
7
  6
CONTINUOUS
 10
305.4716330878
 20
-242.9172194705
  0
VERTEX
  8
0
 62
7
  6
CONTINUOUS
 10
305.7662070629
 20
-242.8981003848
  0
VERTEX
  8
0
 62
7
  6
CONTINUOUS
 10
306.053750453
 20
-242.8791384515
  0
VERTEX
  8
0
 62
7
  6
CONTINUOUS
 10
306.3343795758
 20
-242.8603271696
  0
VERTEX
  8
0
 62
7
  6
CONTINUOUS
 10
306.6081932194
 20
-242.8416594967
  0
VERTEX
  8
0
 62
7
  6
CONTINUOUS
 10
306.8752486375
 20
-242.8231311183
  0
VERTEX
  8
0
 62
7
  6
CONTINUOUS
 10
307.1356135303
 20
-242.8047369889
  0
VERTEX
  8
0
 62
7
  6
CONTINUOUS
 10
307.3893651544
 20
-242.7864713172
  0
VERTEX
  8
0
 62
7
  6
CONTINUOUS
 10
307.6365774443
 20
-242.7683284366
  0
VERTEX
  8
0
 62
7
  6
CONTINUOUS
 10
307.8773355185
 20
-242.750301711
  0
VERTEX
  8
0
 62
7
  6
CONTINUOUS
 10
308.1117194816
 20
-242.7323846754
  0
VERTEX
  8
0
 62
7
  6
CONTINUOUS
 10
308.3398236188
 20
-242.7145695319
  0
VERTEX
  8
0
 62
7
  6
CONTINUOUS
 10
308.5617386811
 20
-242.6968484244
  0
VERTEX
  8
0
 62
7
  6
CONTINUOUS
 10
308.777558641
 20
-242.6792128688
  0
VERTEX
  8
0
 62
7
  6
CONTINUOUS
 10
308.9874454582
 20
-242.6616481902
  0
VERTEX
  8
0
 62
7
  6
CONTINUOUS
 10
309.1912922084
 20
-242.6441624054
  0
VERTEX
  8
0
 62
7
  6
CONTINUOUS
 10
309.389125911
 20
-242.6267606944
  0
VERTEX
  8
0
 62
7
  6
CONTINUOUS
 10
309.5811578907
 20
-242.6094392317
  0
VERTEX
  8
0
 62
7
  6
CONTINUOUS
 10
309.7675453326
 20
-242.5921989134
  0
VERTEX
  8
0
 62
7
  6
CONTINUOUS
 10
309.9485324415
 20
-242.5750321414
  0
VERTEX
  8
0
 62
7
  6
CONTINUOUS
 10
310.1243866648
 20
-242.5579280151
  0
VERTEX
  8
0
 62
7
  6
CONTINUOUS
 10
310.2951552761
 20
-242.5408965456
  0
VERTEX
  8
0
 62
7
  6
CONTINUOUS
 10
310.4610618444
 20
-242.5239305939
  0
VERTEX
  8
0
 62
7
  6
CONTINUOUS
 10
310.6219230127
 20
-242.5070758945
  0
VERTEX
  8
0
 62
7
  6
CONTINUOUS
 10
310.7776981908
 20
-242.4903801861
  0
VERTEX
  8
0
 62
7
  6
CONTINUOUS
 10
310.9287656064
 20
-242.4738482929
  0
VERTEX
  8
0
 62
7
  6
CONTINUOUS
 10
311.0753802591
 20
-242.4574972647
  0
VERTEX
  8
0
 62
7
  6
CONTINUOUS
 10
311.2178063928
 20
-242.4413422551
  0
VERTEX
  8
0
 62
7
  6
CONTINUOUS
 10
311.3559275896
 20
-242.4254413282
  0
VERTEX
  8
0
 62
7
  6
CONTINUOUS
 10
311.4910746574
 20
-242.409683507
  0
VERTEX
  8
0
 62
7
  6
CONTINUOUS
 10
311.6239884103
 20
-242.3940101825
  0
VERTEX
  8
0
 62
7
  6
CONTINUOUS
 10
311.7554519708
 20
-242.3783026047
  0
VERTEX
  8
0
 62
7
  6
CONTINUOUS
 10
311.8863426936
 20
-242.3624083453
  0
VERTEX
  8
0
 62
7
  6
CONTINUOUS
 10
312.0161756179
 20
-242.3463345916
  0
VERTEX
  8
0
 62
7
  6
CONTINUOUS
 10
312.144772016
 20
-242.3300498373
  0
VERTEX
  8
0
 62
7
  6
CONTINUOUS
 10
312.2721968221
 20
-242.3134876824
  0
VERTEX
  8
0
 62
7
  6
CONTINUOUS
 10
312.3984400168
 20
-242.296584725
  0
VERTEX
  8
0
 62
7
  6
CONTINUOUS
 10
312.5236587808
 20
-242.2792464717
  0
VERTEX
  8
0
 62
7
  6
CONTINUOUS
 10
312.647887869
 20
-242.2613851161
  0
VERTEX
  8
0
 62
7
  6
CONTINUOUS
 10
312.7716774007
 20
-242.2428270161
  0
VERTEX
  8
0
 62
7
  6
CONTINUOUS
 10
312.8952276023
 20
-242.2234276047
  0
VERTEX
  8
0
 62
7
  6
CONTINUOUS
 10
313.0198094732
 20
-242.202837674
  0
VERTEX
  8
0
 62
7
  6
CONTINUOUS
 10
313.1460180274
 20
-242.180759695
  0
VERTEX
  8
0
 62
7
  6
CONTINUOUS
 10
313.2762232863
 20
-242.1564964289
  0
VERTEX
  8
0
 62
7
  6
CONTINUOUS
 10
313.4118571253
 20
-242.1293726127
  0
VERTEX
  8
0
 62
7
  6
CONTINUOUS
 10
313.556504413
 20
-242.0980617266
  0
VERTEX
  8
0
 62
7
  6
CONTINUOUS
 10
313.7127252872
 20
-242.0610964793
  0
VERTEX
  8
0
 62
7
  6
CONTINUOUS
 10
313.8852830709
 20
-242.0159966685
  0
VERTEX
  8
0
 62
7
  6
CONTINUOUS
 10
314.0757784045
 20
-241.9604253115
  0
VERTEX
  8
0
 62
7
  6
CONTINUOUS
 10
314.2964466188
 20
-241.8876547257
  0
VERTEX
  8
0
 62
7
  6
CONTINUOUS
 10
314.5512871007
 20
-241.7912241343
  0
VERTEX
  8
0
 62
7
  6
CONTINUOUS
 10
314.8633695591
 20
-241.6530277858
  0
VERTEX
  8
0
 62
7
  6
CONTINUOUS
 10
315.2419412258
 20
-241.4517855477
  0
VERTEX
  8
0
 62
7
  6
CONTINUOUS
 10
315.7089876548
 20
-241.1437198039
  0
VERTEX
  8
0
 62
7
  6
CONTINUOUS
 10
316.2710370298
 20
-240.6609147714
  0
VERTEX
  8
0
 62
7
  6
CONTINUOUS
 10
316.8586294105
 20
-239.960664531
  0
VERTEX
  8
0
 62
7
  6
CONTINUOUS
 10
317.3860230564
 20
-238.9909238656
  0
VERTEX
  8
0
 62
7
  6
CONTINUOUS
 10
317.7030798606
 20
-237.84562308
  0
VERTEX
  8
0
 62
7
  6
CONTINUOUS
 10
317.7405438684
 20
-236.6343348068
  0
SEQEND
  0
LINE
  8
0
 62
7
  6
CONTINUOUS
 10
301.8584396077
 20
-243.1318479688
 11
300.6860501912
 21
-243.1983874801
  0
POLYLINE
  8
0
 62
7
  6
CONTINUOUS
 66
1
 70
0
  0
VERTEX
  8
0
 62
7
  6
CONTINUOUS
 10
275.4242402693
 20
-243.7728851839
  0
VERTEX
  8
0
 62
7
  6
CONTINUOUS
 10
279.6579343029
 20
-243.7215966169
  0
VERTEX
  8
0
 62
7
  6
CONTINUOUS
 10
284.1036310309
 20
-243.6607231315
  0
VERTEX
  8
0
 62
7
  6
CONTINUOUS
 10
287.9794048593
 20
-243.5987776222
  0
VERTEX
  8
0
 62
7
  6
CONTINUOUS
 10
291.2722419819
 20
-243.5355795261
  0
VERTEX
  8
0
 62
7
  6
CONTINUOUS
 10
293.980365801
 20
-243.4714466943
  0
VERTEX
  8
0
 62
7
  6
CONTINUOUS
 10
296.1649069947
 20
-243.4061184805
  0
VERTEX
  8
0
 62
7
  6
CONTINUOUS
 10
297.9338977529
 20
-243.338697
  0
VERTEX
  8
0
 62
7
  6
CONTINUOUS
 10
299.3963935852
 20
-243.2692686351
  0
VERTEX
  8
0
 62
7
  6
CONTINUOUS
 10
300.6860501912
 20
-243.1983874801
  0
SEQEND
  0
POLYLINE
  8
0
 62
7
  6
CONTINUOUS
 66
1
 70
0
  0
VERTEX
  8
0
 62
7
  6
CONTINUOUS
 10
217.8150684932
 20
-244.2151603245
  0
VERTEX
  8
0
 62
7
  6
CONTINUOUS
 10
226.7804129671
 20
-244.1630465102
  0
VERTEX
  8
0
 62
7
  6
CONTINUOUS
 10
235.3021286903
 20
-244.1095665445
  0
VERTEX
  8
0
 62
7
  6
CONTINUOUS
 10
243.410444229
 20
-244.0545108979
  0
VERTEX
  8
0
 62
7
  6
CONTINUOUS
 10
251.0146738845
 20
-243.9985081587
  0
VERTEX
  8
0
 62
7
  6
CONTINUOUS
 10
258.0415368826
 20
-243.9419959168
  0
VERTEX
  8
0
 62
7
  6
CONTINUOUS
 10
264.4690470158
 20
-243.8853376384
  0
VERTEX
  8
0
 62
7
  6
CONTINUOUS
 10
270.2449895101
 20
-243.8291063193
  0
VERTEX
  8
0
 62
7
  6
CONTINUOUS
 10
275.3867692903
 20
-243.773110961
  0
SEQEND
  0
POLYLINE
  8
0
 62
7
  6
CONTINUOUS
 66
1
 70
0
  0
VERTEX
  8
0
 62
7
  6
CONTINUOUS
 10
216.3120667539
 20
-244.2233808121
  0
VERTEX
  8
0
 62
7
  6
CONTINUOUS
 10
216.5630123159
 20
-244.2220333812
  0
VERTEX
  8
0
 62
7
  6
CONTINUOUS
 10
216.8137804018
 20
-244.220676871
  0
VERTEX
  8
0
 62
7
  6
CONTINUOUS
 10
217.0643716043
 20
-244.2193112931
  0
VERTEX
  8
0
 62
7
  6
CONTINUOUS
 10
217.3147841445
 20
-244.2179366723
  0
VERTEX
  8
0
 62
7
  6
CONTINUOUS
 10
217.8150684934
 20
-244.2151603884
  0
SEQEND
  0
POLYLINE
  8
0
 62
7
  6
CONTINUOUS
 66
1
 70
0
  0
VERTEX
  8
0
 62
7
  6
CONTINUOUS
 10
149.3178934654
 20
-244.2233828703
  0
VERTEX
  8
0
 62
7
  6
CONTINUOUS
 10
157.5809776149
 20
-244.2614335299
  0
VERTEX
  8
0
 62
7
  6
CONTINUOUS
 10
165.9248620496
 20
-244.288797197
  0
VERTEX
  8
0
 62
7
  6
CONTINUOUS
 10
174.3698672359
 20
-244.3051940226
  0
VERTEX
  8
0
 62
7
  6
CONTINUOUS
 10
182.855004263
 20
-244.310554225
  0
VERTEX
  8
0
 62
7
  6
CONTINUOUS
 10
191.3440838126
 20
-244.305080726
  0
VERTEX
  8
0
 62
7
  6
CONTINUOUS
 10
199.7830254188
 20
-244.2885956761
  0
VERTEX
  8
0
 62
7
  6
CONTINUOUS
 10
208.0974219139
 20
-244.2612553672
  0
VERTEX
  8
0
 62
7
  6
CONTINUOUS
 10
216.3120667539
 20
-244.2233808121
  0
SEQEND
  0
POLYLINE
  8
0
 62
7
  6
CONTINUOUS
 66
1
 70
0
  0
VERTEX
  8
0
 62
7
  6
CONTINUOUS
 10
147.8150684929
 20
-244.2151603884
  0
VERTEX
  8
0
 62
7
  6
CONTINUOUS
 10
148.0651207428
 20
-244.2165530334
  0
VERTEX
  8
0
 62
7
  6
CONTINUOUS
 10
148.3153528413
 20
-244.2179366723
  0
VERTEX
  8
0
 62
7
  6
CONTINUOUS
 10
149.3178934654
 20
-244.2233828703
  0
SEQEND
  0
POLYLINE
  8
0
 62
7
  6
CONTINUOUS
 66
1
 70
0
  0
VERTEX
  8
0
 62
7
  6
CONTINUOUS
 10
90.2432429194
 20
-243.7731095245
  0
VERTEX
  8
0
 62
7
  6
CONTINUOUS
 10
95.3855973552
 20
-243.8291106911
  0
VERTEX
  8
0
 62
7
  6
CONTINUOUS
 10
101.1620100602
 20
-243.885346168
  0
VERTEX
  8
0
 62
7
  6
CONTINUOUS
 10
107.5899145531
 20
-243.9420069649
  0
VERTEX
  8
0
 62
7
  6
CONTINUOUS
 10
114.6170102773
 20
-243.9985200522
  0
VERTEX
  8
0
 62
7
  6
CONTINUOUS
 10
122.2212362096
 20
-244.0545218217
  0
VERTEX
  8
0
 62
7
  6
CONTINUOUS
 10
130.3293072679
 20
-244.1095750189
  0
VERTEX
  8
0
 62
7
  6
CONTINUOUS
 10
138.8505048512
 20
-244.1630513794
  0
VERTEX
  8
0
 62
7
  6
CONTINUOUS
 10
147.8150684932
 20
-244.2151603245
  0
SEQEND
  0
POLYLINE
  8
0
 62
7
  6
CONTINUOUS
 66
1
 70
0
  0
VERTEX
  8
0
 62
7
  6
CONTINUOUS
 10
63.7744070818
 20
-243.1319971551
  0
VERTEX
  8
0
 62
7
  6
CONTINUOUS
 10
65.198816209
 20
-243.2128555381
  0
VERTEX
  8
0
 62
7
  6
CONTINUOUS
 10
66.7746808016
 20
-243.2964946829
  0
VERTEX
  8
0
 62
7
  6
CONTINUOUS
 10
68.6354976696
 20
-243.3764922815
  0
VERTEX
  8
0
 62
7
  6
CONTINUOUS
 10
71.0288946671
 20
-243.4544228955
  0
VERTEX
  8
0
 62
7
  6
CONTINUOUS
 10
74.1863430301
 20
-243.531909715
  0
VERTEX
  8
0
 62
7
  6
CONTINUOUS
 10
78.3731560687
 20
-243.6111628126
  0
VERTEX
  8
0
 62
7
  6
CONTINUOUS
 10
83.9104638445
 20
-243.6944594591
  0
VERTEX
  8
0
 62
7
  6
CONTINUOUS
 10
90.2060789205
 20
-243.7728793622
  0
SEQEND
  0
LINE
  8
0
 62
7
  6
CONTINUOUS
 10
164.3065038485
 20
556.815841297
 11
164.3100759944
 21
556.8173243204
  0
POLYLINE
  8
0
 62
7
  6
CONTINUOUS
 66
1
 70
0
  0
VERTEX
  8
0
 62
7
  6
CONTINUOUS
 10
155.3235412999
 20
551.5689394486
  0
VERTEX
  8
0
 62
7
  6
CONTINUOUS
 10
155.4190453602
 20
551.6465964477
  0
VERTEX
  8
0
 62
7
  6
CONTINUOUS
 10
155.506293815
 20
551.7024780016
  0
VERTEX
  8
0
 62
7
  6
CONTINUOUS
 10
155.577134235
 20
551.7392149267
  0
VERTEX
  8
0
 62
7
  6
CONTINUOUS
 10
155.6406078294
 20
551.7663961813
  0
VERTEX
  8
0
 62
7
  6
CONTINUOUS
 10
155.7115821099
 20
551.7909873754
  0
VERTEX
  8
0
 62
7
  6
CONTINUOUS
 10
155.7416466586
 20
551.7996831765
  0
SEQEND
  0
POLYLINE
  8
0
 62
7
  6
CONTINUOUS
 66
1
 70
0
  0
VERTEX
  8
0
 62
7
  6
CONTINUOUS
 10
-0.7855875783
 20
539.4468395875
  0
VERTEX
  8
0
 62
7
  6
CONTINUOUS
 10
-0.8977077746
 20
539.1057885475
  0
VERTEX
  8
0
 62
7
  6
CONTINUOUS
 10
-1.0881080088
 20
538.3058835385
  0
VERTEX
  8
0
 62
7
  6
CONTINUOUS
 10
-1.184148637
 20
537.4848373046
  0
VERTEX
  8
0
 62
7
  6
CONTINUOUS
 10
-1.1940368599
 20
537.2386164914
  0
SEQEND
  0
LINE
  8
0
 62
7
  6
CONTINUOUS
 10
-0.7855875783
 20
539.4468395875
 11
-0.7881741727
 21
539.4395867205
  0
POLYLINE
  8
0
 62
7
  6
CONTINUOUS
 66
1
 70
0
  0
VERTEX
  8
0
 62
7
  6
CONTINUOUS
 10
182.0508762145
 20
558.4477410804
  0
VERTEX
  8
0
 62
7
  6
CONTINUOUS
 10
182.0569543012
 20
558.4534665684
  0
VERTEX
  8
0
 62
7
  6
CONTINUOUS
 10
182.0703664951
 20
558.4742398519
  0
VERTEX
  8
0
 62
7
  6
CONTINUOUS
 10
182.0747747789
 20
558.4944539657
  0
SEQEND
  0
LINE
  8
0
 62
7
  6
CONTINUOUS
 10
164.3065038485
 20
556.815841297
 11
161.6732073938
 21
553.4184251735
  0
POLYLINE
  8
0
 62
7
  6
CONTINUOUS
 66
1
 70
0
  0
VERTEX
  8
0
 62
7
  6
CONTINUOUS
 10
173.9097644345
 20
553.5129880306
  0
VERTEX
  8
0
 62
7
  6
CONTINUOUS
 10
174.2678035629
 20
554.123787672
  0
VERTEX
  8
0
 62
7
  6
CONTINUOUS
 10
174.6161112576
 20
554.7161224078
  0
VERTEX
  8
0
 62
7
  6
CONTINUOUS
 10
174.9547099681
 20
555.2900092289
  0
VERTEX
  8
0
 62
7
  6
CONTINUOUS
 10
175.2835323461
 20
555.8453971626
  0
VERTEX
  8
0
 62
7
  6
CONTINUOUS
 10
175.6025110434
 20
556.3822352361
  0
VERTEX
  8
0
 62
7
  6
CONTINUOUS
 10
175.9116685092
 20
556.9005404403
  0
SEQEND
  0
LINE
  8
0
 62
7
  6
CONTINUOUS
 10
174.7351156761
 20
554.4112278336
 11
174.1525003335
 21
553.4271080883
  0
POLYLINE
  8
0
 62
7
  6
CONTINUOUS
 66
1
 70
0
  0
VERTEX
  8
0
 62
7
  6
CONTINUOUS
 10
176.3323801871
 20
557.079389512
  0
VERTEX
  8
0
 62
7
  6
CONTINUOUS
 10
175.8250556029
 20
556.2373685454
  0
VERTEX
  8
0
 62
7
  6
CONTINUOUS
 10
175.2926340992
 20
555.3479813193
  0
VERTEX
  8
0
 62
7
  6
CONTINUOUS
 10
174.7351156761
 20
554.4112278336
  0
SEQEND
  0
POLYLINE
  8
0
 62
7
  6
CONTINUOUS
 66
1
 70
0
  0
VERTEX
  8
0
 62
7
  6
CONTINUOUS
 10
6.9460370833
 20
110.4640103873
  0
VERTEX
  8
0
 62
7
  6
CONTINUOUS
 10
7.0233023999
 20
109.6950608204
  0
VERTEX
  8
0
 62
7
  6
CONTINUOUS
 10
7.2182439885
 20
108.9472626811
  0
VERTEX
  8
0
 62
7
  6
CONTINUOUS
 10
7.4149511548
 20
108.4617168332
  0
SEQEND
  0
POLYLINE
  8
0
 62
7
  6
CONTINUOUS
 66
1
 70
0
  0
VERTEX
  8
0
 62
7
  6
CONTINUOUS
 10
5.6665977638
 20
163.8800643994
  0
VERTEX
  8
0
 62
7
  6
CONTINUOUS
 10
5.7095308062
 20
163.3651269215
  0
VERTEX
  8
0
 62
7
  6
CONTINUOUS
 10
5.8460982862
 20
162.7668186914
  0
VERTEX
  8
0
 62
7
  6
CONTINUOUS
 10
6.0712868159
 20
162.1987724963
  0
VERTEX
  8
0
 62
7
  6
CONTINUOUS
 10
6.3820432607
 20
161.6689469326
  0
VERTEX
  8
0
 62
7
  6
CONTINUOUS
 10
6.688425145
 20
161.2812611832
  0
SEQEND
  0
LINE
  8
0
 62
7
  6
CONTINUOUS
 10
-0.6228958227
 20
501.5484167826
 11
-0.6228939852
 21
501.5483470964
  0
LINE
  8
0
 62
7
  6
CONTINUOUS
 10
6.9460370833
 20
110.4640103873
 11
5.9835032553
 21
152.0943299858
  0
LINE
  8
0
 62
7
  6
CONTINUOUS
 10
5.6665563515
 20
163.8801518763
 11
-0.6228935921
 21
501.5482970266
  0
POLYLINE
  8
0
 62
7
  6
CONTINUOUS
 66
1
 70
0
  0
VERTEX
  8
0
 62
7
  6
CONTINUOUS
 10
5.9809503631
 20
152.2959435982
  0
VERTEX
  8
0
 62
7
  6
CONTINUOUS
 10
5.9810165987
 20
152.2656461045
  0
VERTEX
  8
0
 62
7
  6
CONTINUOUS
 10
5.9811939322
 20
152.2353613124
  0
VERTEX
  8
0
 62
7
  6
CONTINUOUS
 10
5.9814805309
 20
152.2050932071
  0
VERTEX
  8
0
 62
7
  6
CONTINUOUS
 10
5.9818816717
 20
152.1748315672
  0
VERTEX
  8
0
 62
7
  6
CONTINUOUS
 10
5.9824026179
 20
152.1445661707
  0
VERTEX
  8
0
 62
7
  6
CONTINUOUS
 10
5.9830415204
 20
152.1143010012
  0
SEQEND
  0
LINE
  8
0
 62
7
  6
CONTINUOUS
 10
-1.1939285143
 20
537.2395202927
 11
-1.1939247449
 21
537.2397803775
  0
LINE
  8
0
 62
7
  6
CONTINUOUS
 10
-1.1939405288
 20
537.2390838649
 11
-1.8659291664
 21
507.5855642517
  0
POLYLINE
  8
0
 62
7
  6
CONTINUOUS
 66
1
 70
0
  0
VERTEX
  8
0
 62
7
  6
CONTINUOUS
 10
155.0608368052
 20
551.1748103942
  0
VERTEX
  8
0
 62
7
  6
CONTINUOUS
 10
155.1197896249
 20
551.3064078097
  0
VERTEX
  8
0
 62
7
  6
CONTINUOUS
 10
155.1898461399
 20
551.4183315009
  0
VERTEX
  8
0
 62
7
  6
CONTINUOUS
 10
155.266340514
 20
551.5118446878
  0
VERTEX
  8
0
 62
7
  6
CONTINUOUS
 10
155.3235418251
 20
551.568939932
  0
SEQEND
  0
LINE
  8
0
 62
7
  6
CONTINUOUS
 10
13.6475310676
 20
94.0349377631
 11
13.6587984818
 21
94.0161296239
  0
POLYLINE
  8
0
 62
7
  6
CONTINUOUS
 66
1
 70
0
  0
VERTEX
  8
0
 62
7
  6
CONTINUOUS
 10
13.6475310676
 20
94.0349377631
  0
VERTEX
  8
0
 62
7
  6
CONTINUOUS
 10
13.6899990344
 20
93.9612095372
  0
VERTEX
  8
0
 62
7
  6
CONTINUOUS
 10
13.7289811923
 20
93.8899152289
  0
VERTEX
  8
0
 62
7
  6
CONTINUOUS
 10
13.7632191578
 20
93.8241573225
  0
VERTEX
  8
0
 62
7
  6
CONTINUOUS
 10
13.788616369
 20
93.7731907726
  0
VERTEX
  8
0
 62
7
  6
CONTINUOUS
 10
13.7950441122
 20
93.7599458963
  0
SEQEND
  0
LINE
  8
0
 62
7
  6
CONTINUOUS
 10
13.4946755993
 20
94.3243225827
 11
13.7955429372
 21
93.7589106222
  0
POLYLINE
  8
0
 62
7
  6
CONTINUOUS
 66
1
 70
0
  0
VERTEX
  8
0
 62
7
  6
CONTINUOUS
 10
13.3332240741
 20
94.622160066
  0
VERTEX
  8
0
 62
7
  6
CONTINUOUS
 10
13.4147635238
 20
94.4574732541
  0
VERTEX
  8
0
 62
7
  6
CONTINUOUS
 10
13.5092097783
 20
94.2768022566
  0
VERTEX
  8
0
 62
7
  6
CONTINUOUS
 10
13.6206496214
 20
94.0774238813
  0
VERTEX
  8
0
 62
7
  6
CONTINUOUS
 10
13.6585204408
 20
94.0129316773
  0
SEQEND
  0
LINE
  8
0
 62
7
  6
CONTINUOUS
 10
13.7955429372
 20
93.7589106222
 11
13.8096889817
 21
93.7293075638
  0
LINE
  8
0
 62
7
  6
CONTINUOUS
 10
13.2913025328
 20
94.7098219762
 11
13.3332240741
 21
94.622160066
  0
LINE
  8
0
 62
7
  6
CONTINUOUS
 10
11.8272675576
 20
99.025467682
 11
7.4149518485
 21
108.4617153496
  0
POLYLINE
  8
0
 62
7
  6
CONTINUOUS
 66
1
 70
0
  0
VERTEX
  8
0
 62
7
  6
CONTINUOUS
 10
13.8091841234
 20
93.7303860483
  0
VERTEX
  8
0
 62
7
  6
CONTINUOUS
 10
13.9335846135
 20
93.4455255139
  0
VERTEX
  8
0
 62
7
  6
CONTINUOUS
 10
14.0597438616
 20
93.0991333657
  0
VERTEX
  8
0
 62
7
  6
CONTINUOUS
 10
14.1593450123
 20
92.7617695599
  0
VERTEX
  8
0
 62
7
  6
CONTINUOUS
 10
14.2311306639
 20
92.4537761787
  0
VERTEX
  8
0
 62
7
  6
CONTINUOUS
 10
14.26106113
 20
92.2912815883
  0
VERTEX
  8
0
 62
7
  6
CONTINUOUS
 10
14.3021526034
 20
91.9977808767
  0
VERTEX
  8
0
 62
7
  6
CONTINUOUS
 10
14.3456332546
 20
91.4129279122
  0
SEQEND
  0
POLYLINE
  8
0
 62
7
  6
CONTINUOUS
 66
1
 70
0
  0
VERTEX
  8
0
 62
7
  6
CONTINUOUS
 10
11.7210758557
 20
99.2525585932
  0
VERTEX
  8
0
 62
7
  6
CONTINUOUS
 10
11.7449474921
 20
99.1708689184
  0
VERTEX
  8
0
 62
7
  6
CONTINUOUS
 10
11.819479775
 20
98.9100225652
  0
VERTEX
  8
0
 62
7
  6
CONTINUOUS
 10
11.8972439756
 20
98.6376542522
  0
VERTEX
  8
0
 62
7
  6
CONTINUOUS
 10
11.9815469382
 20
98.3465567581
  0
VERTEX
  8
0
 62
7
  6
CONTINUOUS
 10
12.0690381351
 20
98.0510718026
  0
VERTEX
  8
0
 62
7
  6
CONTINUOUS
 10
12.1611441027
 20
97.7481880564
  0
VERTEX
  8
0
 62
7
  6
CONTINUOUS
 10
12.2592530691
 20
97.4359300662
  0
VERTEX
  8
0
 62
7
  6
CONTINUOUS
 10
12.3609338193
 20
97.1250983685
  0
VERTEX
  8
0
 62
7
  6
CONTINUOUS
 10
12.4653865427
 20
96.8196596763
  0
VERTEX
  8
0
 62
7
  6
CONTINUOUS
 10
12.5692090067
 20
96.5277296104
  0
VERTEX
  8
0
 62
7
  6
CONTINUOUS
 10
12.6650999293
 20
96.2659297453
  0
VERTEX
  8
0
 62
7
  6
CONTINUOUS
 10
12.7617372641
 20
96.0067111355
  0
VERTEX
  8
0
 62
7
  6
CONTINUOUS
 10
12.8601712933
 20
95.7450849244
  0
VERTEX
  8
0
 62
7
  6
CONTINUOUS
 10
12.9767383928
 20
95.4432500423
  0
VERTEX
  8
0
 62
7
  6
CONTINUOUS
 10
13.133570834
 20
95.0608368305
  0
VERTEX
  8
0
 62
7
  6
CONTINUOUS
 10
13.2947352728
 20
94.7025794252
  0
SEQEND
  0
LINE
  8
0
 62
7
  6
CONTINUOUS
 10
14.3563799118
 20
91.4377655531
 11
14.3575017367
 21
91.4132840947
  0
POLYLINE
  8
0
 62
7
  6
CONTINUOUS
 66
1
 70
0
  0
VERTEX
  8
0
 62
7
  6
CONTINUOUS
 10
-1.865885319
 20
507.5854475996
  0
VERTEX
  8
0
 62
7
  6
CONTINUOUS
 10
-1.8472523554
 20
507.1760520645
  0
VERTEX
  8
0
 62
7
  6
CONTINUOUS
 10
-1.7615175238
 20
506.7287676903
  0
VERTEX
  8
0
 62
7
  6
CONTINUOUS
 10
-1.6100596718
 20
506.3013059769
  0
VERTEX
  8
0
 62
7
  6
CONTINUOUS
 10
-1.3951294684
 20
505.8998582851
  0
VERTEX
  8
0
 62
7
  6
CONTINUOUS
 10
-1.1963958564
 20
505.6236121854
  0
SEQEND
  0
POLYLINE
  8
0
 62
7
  6
CONTINUOUS
 66
1
 70
0
  0
VERTEX
  8
0
 62
7
  6
CONTINUOUS
 10
14.3563799118
 20
91.4377655531
  0
VERTEX
  8
0
 62
7
  6
CONTINUOUS
 10
14.4396438751
 20
89.1846321491
  0
VERTEX
  8
0
 62
7
  6
CONTINUOUS
 10
14.5356694643
 20
86.8799419898
  0
VERTEX
  8
0
 62
7
  6
CONTINUOUS
 10
14.6502244646
 20
84.4546694521
  0
VERTEX
  8
0
 62
7
  6
CONTINUOUS
 10
14.7908506459
 20
81.8400537845
  0
VERTEX
  8
0
 62
7
  6
CONTINUOUS
 10
14.9599029079
 20
79.0836459354
  0
VERTEX
  8
0
 62
7
  6
CONTINUOUS
 10
15.160600912
 20
76.2058693114
  0
VERTEX
  8
0
 62
7
  6
CONTINUOUS
 10
15.3964137334
 20
73.2187364964
  0
VERTEX
  8
0
 62
7
  6
CONTINUOUS
 10
15.670476144
 20
70.1372285836
  0
VERTEX
  8
0
 62
7
  6
CONTINUOUS
 10
15.9864326079
 20
66.9726253542
  0
VERTEX
  8
0
 62
7
  6
CONTINUOUS
 10
16.3469391134
 20
63.7444616961
  0
VERTEX
  8
0
 62
7
  6
CONTINUOUS
 10
16.7579360458
 20
60.4428875553
  0
VERTEX
  8
0
 62
7
  6
CONTINUOUS
 10
17.2259083912
 20
57.0610174206
  0
VERTEX
  8
0
 62
7
  6
CONTINUOUS
 10
17.7552558412
 20
53.6108841745
  0
VERTEX
  8
0
 62
7
  6
CONTINUOUS
 10
18.3515872983
 20
50.0981527043
  0
VERTEX
  8
0
 62
7
  6
CONTINUOUS
 10
19.0196912963
 20
46.5358372314
  0
VERTEX
  8
0
 62
7
  6
CONTINUOUS
 10
19.7638712154
 20
42.9380808751
  0
VERTEX
  8
0
 62
7
  6
CONTINUOUS
 10
20.5908137
 20
39.3070062394
  0
VERTEX
  8
0
 62
7
  6
CONTINUOUS
 10
21.5064677795
 20
35.6494069522
  0
VERTEX
  8
0
 62
7
  6
CONTINUOUS
 10
22.5186987346
 20
31.9659689343
  0
VERTEX
  8
0
 62
7
  6
CONTINUOUS
 10
23.6357751194
 20
28.2588447209
  0
VERTEX
  8
0
 62
7
  6
CONTINUOUS
 10
24.8660266209
 20
24.5319075807
  0
VERTEX
  8
0
 62
7
  6
CONTINUOUS
 10
26.2184973942
 20
20.7884452246
  0
VERTEX
  8
0
 62
7
  6
CONTINUOUS
 10
27.702095809
 20
17.0335136145
  0
VERTEX
  8
0
 62
7
  6
CONTINUOUS
 10
29.3262524065
 20
13.2713809249
  0
VERTEX
  8
0
 62
7
  6
CONTINUOUS
 10
31.0998097155
 20
9.5082607518
  0
VERTEX
  8
0
 62
7
  6
CONTINUOUS
 10
33.0325733793
 20
5.7489288154
  0
VERTEX
  8
0
 62
7
  6
CONTINUOUS
 10
35.1322704634
 20
2.0024555265
  0
VERTEX
  8
0
 62
7
  6
CONTINUOUS
 10
37.4079706984
 20
-1.725793584
  0
VERTEX
  8
0
 62
7
  6
CONTINUOUS
 10
39.8617946194
 20
-5.421434934
  0
VERTEX
  8
0
 62
7
  6
CONTINUOUS
 10
42.4970534175
 20
-9.0746298567
  0
VERTEX
  8
0
 62
7
  6
CONTINUOUS
 10
45.3109164188
 20
-12.6698097125
  0
VERTEX
  8
0
 62
7
  6
CONTINUOUS
 10
48.297526059
 20
-16.1927925448
  0
VERTEX
  8
0
 62
7
  6
CONTINUOUS
 10
51.4523547231
 20
-19.6365510223
  0
VERTEX
  8
0
 62
7
  6
CONTINUOUS
 10
54.7614660159
 20
-22.9873596421
  0
VERTEX
  8
0
 62
7
  6
CONTINUOUS
 10
58.2338165153
 20
-26.2566574517
  0
VERTEX
  8
0
 62
7
  6
CONTINUOUS
 10
60.2553407718
 20
-28.0306195614
  0
SEQEND
  0
POLYLINE
  8
0
 62
7
  6
CONTINUOUS
 66
1
 70
0
  0
VERTEX
  8
0
 62
7
  6
CONTINUOUS
 10
56.487020339
 20
97.8989183301
  0
VERTEX
  8
0
 62
7
  6
CONTINUOUS
 10
58.2896491249
 20
54.2550883476
  0
VERTEX
  8
0
 62
7
  6
CONTINUOUS
 10
59.7053145759
 20
10.6777978289
  0
SEQEND
  0
POLYLINE
  8
0
 62
7
  6
CONTINUOUS
 66
1
 70
0
  0
VERTEX
  8
0
 62
7
  6
CONTINUOUS
 10
59.7053145759
 20
10.6777978289
  0
VERTEX
  8
0
 62
7
  6
CONTINUOUS
 10
60.3050013615
 20
-31.5255127996
  0
VERTEX
  8
0
 62
7
  6
CONTINUOUS
 10
59.9392252345
 20
-72.3376567077
  0
VERTEX
  8
0
 62
7
  6
CONTINUOUS
 10
58.6852880887
 20
-111.7250598117
  0
VERTEX
  8
0
 62
7
  6
CONTINUOUS
 10
56.849433446
 20
-149.6873317923
  0
SEQEND
  0
POLYLINE
  8
0
 62
7
  6
CONTINUOUS
 66
1
 70
0
  0
VERTEX
  8
0
 62
7
  6
CONTINUOUS
 10
53.6429541723
 20
-221.4318983565
  0
VERTEX
  8
0
 62
7
  6
CONTINUOUS
 10
54.2451315306
 20
-202.003440501
  0
VERTEX
  8
0
 62
7
  6
CONTINUOUS
 10
54.4821647165
 20
-196.2784560907
  0
SEQEND
  0
POLYLINE
  8
0
 62
7
  6
CONTINUOUS
 66
1
 70
0
  0
VERTEX
  8
0
 62
7
  6
CONTINUOUS
 10
52.6046254343
 20
104.434934383
  0
VERTEX
  8
0
 62
7
  6
CONTINUOUS
 10
53.5524058654
 20
103.7671068832
  0
VERTEX
  8
0
 62
7
  6
CONTINUOUS
 10
54.4924640582
 20
102.8594112774
  0
VERTEX
  8
0
 62
7
  6
CONTINUOUS
 10
55.2729572367
 20
101.8116806464
  0
VERTEX
  8
0
 62
7
  6
CONTINUOUS
 10
55.8737123207
 20
100.6525550188
  0
VERTEX
  8
0
 62
7
  6
CONTINUOUS
 10
56.2766332006
 20
99.4151988991
  0
VERTEX
  8
0
 62
7
  6
CONTINUOUS
 10
56.4736721845
 20
98.1335920448
  0
VERTEX
  8
0
 62
7
  6
CONTINUOUS
 10
56.4870197402
 20
97.8989187305
  0
SEQEND
  0
LINE
  8
0
 62
7
  6
CONTINUOUS
 10
6.6937447185
 20
161.2753337699
 11
6.7634129031
 21
161.1998365843
  0
LINE
  8
0
 62
7
  6
CONTINUOUS
 10
6.6880538284
 20
161.2816758172
 11
9.0957823473
 21
158.6041910555
  0
LINE
  8
0
 62
7
  6
CONTINUOUS
 10
54.4821647165
 20
-196.2784560907
 11
54.8175421695
 21
-188.8741569693
  0
LINE
  8
0
 62
7
  6
CONTINUOUS
 10
56.849433446
 20
-149.6873317923
 11
54.817682187
 21
-188.8718323569
  0
POLYLINE
  8
0
 62
7
  6
CONTINUOUS
 66
1
 70
0
  0
VERTEX
  8
0
 62
7
  6
CONTINUOUS
 10
56.6490431866
 20
-153.552072712
  0
VERTEX
  8
0
 62
7
  6
CONTINUOUS
 10
56.5932670238
 20
-154.2985337744
  0
VERTEX
  8
0
 62
7
  6
CONTINUOUS
 10
56.4558630666
 20
-156.0848243429
  0
VERTEX
  8
0
 62
7
  6
CONTINUOUS
 10
56.3071875594
 20
-157.9612724481
  0
VERTEX
  8
0
 62
7
  6
CONTINUOUS
 10
56.1464184225
 20
-159.9301410849
  0
VERTEX
  8
0
 62
7
  6
CONTINUOUS
 10
55.9721070848
 20
-162.0005238159
  0
VERTEX
  8
0
 62
7
  6
CONTINUOUS
 10
55.7829721429
 20
-164.178357088
  0
VERTEX
  8
0
 62
7
  6
CONTINUOUS
 10
55.5771321623
 20
-166.4753459103
  0
VERTEX
  8
0
 62
7
  6
CONTINUOUS
 10
55.3521471944
 20
-168.9077153501
  0
VERTEX
  8
0
 62
7
  6
CONTINUOUS
 10
55.1077143707
 20
-171.4678026343
  0
VERTEX
  8
0
 62
7
  6
CONTINUOUS
 10
54.8421404371
 20
-174.1630774537
  0
VERTEX
  8
0
 62
7
  6
CONTINUOUS
 10
54.5573267476
 20
-176.964365546
  0
VERTEX
  8
0
 62
7
  6
CONTINUOUS
 10
54.2554302786
 20
-179.8432054714
  0
VERTEX
  8
0
 62
7
  6
CONTINUOUS
 10
53.9354318684
 20
-182.8049857491
  0
VERTEX
  8
0
 62
7
  6
CONTINUOUS
 10
53.5971578146
 20
-185.8490036309
  0
VERTEX
  8
0
 62
7
  6
CONTINUOUS
 10
53.2417905591
 20
-188.9651339163
  0
VERTEX
  8
0
 62
7
  6
CONTINUOUS
 10
52.8713150762
 20
-192.1406316382
  0
VERTEX
  8
0
 62
7
  6
CONTINUOUS
 10
52.4861407111
 20
-195.3828329095
  0
VERTEX
  8
0
 62
7
  6
CONTINUOUS
 10
52.0877174674
 20
-198.6941995345
  0
VERTEX
  8
0
 62
7
  6
CONTINUOUS
 10
51.6779511207
 20
-202.0768286068
  0
VERTEX
  8
0
 62
7
  6
CONTINUOUS
 10
51.2587900274
 20
-205.5356516367
  0
VERTEX
  8
0
 62
7
  6
CONTINUOUS
 10
50.8338361758
 20
-209.0647841505
  0
VERTEX
  8
0
 62
7
  6
CONTINUOUS
 10
50.4074184266
 20
-212.6542465775
  0
VERTEX
  8
0
 62
7
  6
CONTINUOUS
 10
49.9808042507
 20
-216.3213628832
  0
VERTEX
  8
0
 62
7
  6
CONTINUOUS
 10
49.5569357731
 20
-220.0712522463
  0
VERTEX
  8
0
 62
7
  6
CONTINUOUS
 10
49.1366092536
 20
-223.9306582903
  0
VERTEX
  8
0
 62
7
  6
CONTINUOUS
 10
48.7226226537
 20
-227.9122103307
  0
VERTEX
  8
0
 62
7
  6
CONTINUOUS
 10
48.3146321926
 20
-232.0635749836
  0
VERTEX
  8
0
 62
7
  6
CONTINUOUS
 10
47.8912870781
 20
-236.643842183
  0
SEQEND
  0
POLYLINE
  8
0
 62
7
  6
CONTINUOUS
 66
1
 70
0
  0
VERTEX
  8
0
 62
7
  6
CONTINUOUS
 10
47.8895441056
 20
-236.6343073795
  0
VERTEX
  8
0
 62
7
  6
CONTINUOUS
 10
47.8793468905
 20
-236.7671434762
  0
VERTEX
  8
0
 62
7
  6
CONTINUOUS
 10
47.9412109723
 20
-237.9333224729
  0
VERTEX
  8
0
 62
7
  6
CONTINUOUS
 10
48.2746792234
 20
-239.0640766985
  0
VERTEX
  8
0
 62
7
  6
CONTINUOUS
 10
48.8088103145
 20
-240.0136217615
  0
VERTEX
  8
0
 62
7
  6
CONTINUOUS
 10
49.3940908669
 20
-240.6953917299
  0
VERTEX
  8
0
 62
7
  6
CONTINUOUS
 10
49.9492444283
 20
-241.1643875877
  0
VERTEX
  8
0
 62
7
  6
CONTINUOUS
 10
50.4099075993
 20
-241.4644235249
  0
VERTEX
  8
0
 62
7
  6
CONTINUOUS
 10
50.7832587572
 20
-241.6609276599
  0
VERTEX
  8
0
 62
7
  6
CONTINUOUS
 10
51.0915468183
 20
-241.7963627214
  0
VERTEX
  8
0
 62
7
  6
CONTINUOUS
 10
51.3437932147
 20
-241.891192977
  0
VERTEX
  8
0
 62
7
  6
CONTINUOUS
 10
51.5624983383
 20
-241.9629281322
  0
VERTEX
  8
0
 62
7
  6
CONTINUOUS
 10
51.7516352917
 20
-242.0178553043
  0
VERTEX
  8
0
 62
7
  6
CONTINUOUS
 10
51.9231771992
 20
-242.0625198073
  0
VERTEX
  8
0
 62
7
  6
CONTINUOUS
 10
52.0786923358
 20
-242.0991998634
  0
VERTEX
  8
0
 62
7
  6
CONTINUOUS
 10
52.222831665
 20
-242.130314796
  0
VERTEX
  8
0
 62
7
  6
CONTINUOUS
 10
52.3581145081
 20
-242.1573038105
  0
VERTEX
  8
0
 62
7
  6
CONTINUOUS
 10
52.4880479089
 20
-242.1814660167
  0
VERTEX
  8
0
 62
7
  6
CONTINUOUS
 10
52.6140555601
 20
-242.2034688109
  0
VERTEX
  8
0
 62
7
  6
CONTINUOUS
 10
52.7384752658
 20
-242.2239993723
  0
VERTEX
  8
0
 62
7
  6
CONTINUOUS
 10
52.8618956248
 20
-242.2433517749
  0
VERTEX
  8
0
 62
7
  6
CONTINUOUS
 10
52.9855690844
 20
-242.2618705967
  0
VERTEX
  8
0
 62
7
  6
CONTINUOUS
 10
53.1096991995
 20
-242.279699911
  0
VERTEX
  8
0
 62
7
  6
CONTINUOUS
 10
53.2348344062
 20
-242.2970121924
  0
VERTEX
  8
0
 62
7
  6
CONTINUOUS
 10
53.3610098795
 20
-242.313894358
  0
VERTEX
  8
0
 62
7
  6
CONTINUOUS
 10
53.4883850967
 20
-242.3304403532
  0
VERTEX
  8
0
 62
7
  6
CONTINUOUS
 10
53.616946423
 20
-242.3467124283
  0
VERTEX
  8
0
 62
7
  6
CONTINUOUS
 10
53.7467557899
 20
-242.3627760624
  0
VERTEX
  8
0
 62
7
  6
CONTINUOUS
 10
53.8776348963
 20
-242.3786623802
  0
VERTEX
  8
0
 62
7
  6
CONTINUOUS
 10
54.009100683
 20
-242.3943640567
  0
VERTEX
  8
0
 62
7
  6
CONTINUOUS
 10
54.1420231713
 20
-242.4100322718
  0
VERTEX
  8
0
 62
7
  6
CONTINUOUS
 10
54.2771735803
 20
-242.4257843543
  0
VERTEX
  8
0
 62
7
  6
CONTINUOUS
 10
54.4152971195
 20
-242.4416795142
  0
VERTEX
  8
0
 62
7
  6
CONTINUOUS
 10
54.557727004
 20
-242.4578289038
  0
VERTEX
  8
0
 62
7
  6
CONTINUOUS
 10
54.7043450837
 20
-242.4741742238
  0
VERTEX
  8
0
 62
7
  6
CONTINUOUS
 10
54.855414212
 20
-242.4907001208
  0
VERTEX
  8
0
 62
7
  6
CONTINUOUS
 10
55.0111902984
 20
-242.5073896049
  0
VERTEX
  8
0
 62
7
  6
CONTINUOUS
 10
55.1720524859
 20
-242.524237903
  0
VERTEX
  8
0
 62
7
  6
CONTINUOUS
 10
55.3379587809
 20
-242.5411970946
  0
VERTEX
  8
0
 62
7
  6
CONTINUOUS
 10
55.508724485
 20
-242.5582213206
  0
VERTEX
  8
0
 62
7
  6
CONTINUOUS
 10
55.6845718443
 20
-242.5753177092
  0
VERTEX
  8
0
 62
7
  6
CONTINUOUS
 10
55.8655458534
 20
-242.592476171
  0
VERTEX
  8
0
 62
7
  6
CONTINUOUS
 10
56.0519137838
 20
-242.6097077253
  0
VERTEX
  8
0
 62
7
  6
CONTINUOUS
 10
56.2439188766
 20
-242.6270200144
  0
VERTEX
  8
0
 62
7
  6
CONTINUOUS
 10
56.4417182002
 20
-242.644412264
  0
VERTEX
  8
0
 62
7
  6
CONTINUOUS
 10
56.6455227699
 20
-242.6618883915
  0
VERTEX
  8
0
 62
7
  6
CONTINUOUS
 10
56.8553601624
 20
-242.6794433066
  0
VERTEX
  8
0
 62
7
  6
CONTINUOUS
 10
57.0711248632
 20
-242.697069113
  0
VERTEX
  8
0
 62
7
  6
CONTINUOUS
 10
57.2929782795
 20
-242.7147804356
  0
VERTEX
  8
0
 62
7
  6
CONTINUOUS
 10
57.5210143229
 20
-242.7325857518
  0
VERTEX
  8
0
 62
7
  6
CONTINUOUS
 10
57.755323775
 20
-242.7504929187
  0
VERTEX
  8
0
 62
7
  6
CONTINUOUS
 10
57.9960009466
 20
-242.7685097343
  0
VERTEX
  8
0
 62
7
  6
CONTINUOUS
 10
58.24312602
 20
-242.7866426677
  0
VERTEX
  8
0
 62
7
  6
CONTINUOUS
 10
58.4967841763
 20
-242.8048983573
  0
VERTEX
  8
0
 62
7
  6
CONTINUOUS
 10
58.7570495398
 20
-242.8232824808
  0
VERTEX
  8
0
 62
7
  6
CONTINUOUS
 10
59.0239995493
 20
-242.841800839
  0
VERTEX
  8
0
 62
7
  6
CONTINUOUS
 10
59.2977021226
 20
-242.8604584889
  0
VERTEX
  8
0
 62
7
  6
CONTINUOUS
 10
59.5782147595
 20
-242.8792597572
  0
VERTEX
  8
0
 62
7
  6
CONTINUOUS
 10
59.8656364671
 20
-242.8982116962
  0
VERTEX
  8
0
 62
7
  6
CONTINUOUS
 10
60.1600837283
 20
-242.9173208165
  0
VERTEX
  8
0
 62
7
  6
CONTINUOUS
 10
60.4616933669
 20
-242.9365917156
  0
VERTEX
  8
0
 62
7
  6
CONTINUOUS
 10
60.7706258508
 20
-242.956029929
  0
VERTEX
  8
0
 62
7
  6
CONTINUOUS
 10
61.0870075716
 20
-242.9756386518
  0
VERTEX
  8
0
 62
7
  6
CONTINUOUS
 10
61.410976861
 20
-242.9954217021
  0
VERTEX
  8
0
 62
7
  6
CONTINUOUS
 10
61.7426723562
 20
-243.0153827847
  0
VERTEX
  8
0
 62
7
  6
CONTINUOUS
 10
62.082235949
 20
-243.0355256761
  0
VERTEX
  8
0
 62
7
  6
CONTINUOUS
 10
62.429809877
 20
-243.0558540547
  0
VERTEX
  8
0
 62
7
  6
CONTINUOUS
 10
62.785539559
 20
-243.0763716733
  0
VERTEX
  8
0
 62
7
  6
CONTINUOUS
 10
63.1495707351
 20
-243.0970821967
  0
VERTEX
  8
0
 62
7
  6
CONTINUOUS
 10
63.52207914
 20
-243.1179908663
  0
VERTEX
  8
0
 62
7
  6
CONTINUOUS
 10
63.7744070818
 20
-243.1319971551
  0
SEQEND
  0
LINE
  8
0
 62
7
  6
CONTINUOUS
 10
52.6025790913
 20
104.435967988
 11
52.5795577026
 21
104.4497623599
  0
POLYLINE
  8
0
 62
40
  6
CONTINUOUS
 66
1
 70
0
  0
VERTEX
  8
0
 62
40
  6
CONTINUOUS
 10
147.8150677843
 20
546.0173757729
  0
VERTEX
  8
0
 62
40
  6
CONTINUOUS
 10
147.8139122771
 20
545.9953506685
  0
VERTEX
  8
0
 62
40
  6
CONTINUOUS
 10
147.8127598083
 20
545.9660323148
  0
VERTEX
  8
0
 62
40
  6
CONTINUOUS
 10
147.8116115864
 20
545.9294514564
  0
VERTEX
  8
0
 62
40
  6
CONTINUOUS
 10
147.8104688154
 20
545.8856464534
  0
VERTEX
  8
0
 62
40
  6
CONTINUOUS
 10
147.8093326938
 20
545.8346632415
  0
VERTEX
  8
0
 62
40
  6
CONTINUOUS
 10
147.8082044129
 20
545.7765552839
  0
VERTEX
  8
0
 62
40
  6
CONTINUOUS
 10
147.8070851558
 20
545.7113835148
  0
VERTEX
  8
0
 62
40
  6
CONTINUOUS
 10
147.8059760964
 20
545.6392162762
  0
VERTEX
  8
0
 62
40
  6
CONTINUOUS
 10
147.8048783975
 20
545.5601292455
  0
VERTEX
  8
0
 62
40
  6
CONTINUOUS
 10
147.8037932102
 20
545.4742053566
  0
VERTEX
  8
0
 62
40
  6
CONTINUOUS
 10
147.8027216726
 20
545.3815347129
  0
VERTEX
  8
0
 62
40
  6
CONTINUOUS
 10
147.8016649083
 20
545.2822144927
  0
VERTEX
  8
0
 62
40
  6
CONTINUOUS
 10
147.8006240255
 20
545.1763488471
  0
VERTEX
  8
0
 62
40
  6
CONTINUOUS
 10
147.7996001156
 20
545.0640487913
  0
VERTEX
  8
0
 62
40
  6
CONTINUOUS
 10
147.7985942524
 20
544.9454320878
  0
VERTEX
  8
0
 62
40
  6
CONTINUOUS
 10
147.7976074908
 20
544.8206231227
  0
VERTEX
  8
0
 62
40
  6
CONTINUOUS
 10
147.7966408653
 20
544.6897527761
  0
VERTEX
  8
0
 62
40
  6
CONTINUOUS
 10
147.7956953897
 20
544.5529582839
  0
VERTEX
  8
0
 62
40
  6
CONTINUOUS
 10
147.7947720555
 20
544.4103830943
  0
VERTEX
  8
0
 62
40
  6
CONTINUOUS
 10
147.7938718309
 20
544.2621767178
  0
VERTEX
  8
0
 62
40
  6
CONTINUOUS
 10
147.7929956598
 20
544.1084945694
  0
VERTEX
  8
0
 62
40
  6
CONTINUOUS
 10
147.7921444612
 20
543.9494978068
  0
VERTEX
  8
0
 62
40
  6
CONTINUOUS
 10
147.7913191276
 20
543.7853531603
  0
VERTEX
  8
0
 62
40
  6
CONTINUOUS
 10
147.7905205244
 20
543.6162327588
  0
VERTEX
  8
0
 62
40
  6
CONTINUOUS
 10
147.7897494891
 20
543.442313949
  0
VERTEX
  8
0
 62
40
  6
CONTINUOUS
 10
147.7890068304
 20
543.2637791092
  0
VERTEX
  8
0
 62
40
  6
CONTINUOUS
 10
147.7882933268
 20
543.0808154584
  0
VERTEX
  8
0
 62
40
  6
CONTINUOUS
 10
147.7876097267
 20
542.8936148599
  0
VERTEX
  8
0
 62
40
  6
CONTINUOUS
 10
147.786956747
 20
542.7023736198
  0
VERTEX
  8
0
 62
40
  6
CONTINUOUS
 10
147.7863350722
 20
542.5072922816
  0
VERTEX
  8
0
 62
40
  6
CONTINUOUS
 10
147.7857453545
 20
542.3085754156
  0
VERTEX
  8
0
 62
40
  6
CONTINUOUS
 10
147.785188212
 20
542.1064314045
  0
VERTEX
  8
0
 62
40
  6
CONTINUOUS
 10
147.7841739555
 20
541.6927132246
  0
SEQEND
  0
POLYLINE
  8
0
 62
40
  6
CONTINUOUS
 66
1
 70
0
  0
VERTEX
  8
0
 62
40
  6
CONTINUOUS
 10
147.8490676003
 20
546.0173690487
  0
VERTEX
  8
0
 62
40
  6
CONTINUOUS
 10
147.8479120894
 20
545.9953435422
  0
VERTEX
  8
0
 62
40
  6
CONTINUOUS
 10
147.8467596152
 20
545.9660248068
  0
VERTEX
  8
0
 62
40
  6
CONTINUOUS
 10
147.8456113861
 20
545.9294435875
  0
VERTEX
  8
0
 62
40
  6
CONTINUOUS
 10
147.8444686063
 20
545.8856382446
  0
VERTEX
  8
0
 62
40
  6
CONTINUOUS
 10
147.8433324741
 20
545.8346547142
  0
VERTEX
  8
0
 62
40
  6
CONTINUOUS
 10
147.842204181
 20
545.7765464595
  0
VERTEX
  8
0
 62
40
  6
CONTINUOUS
 10
147.84108491
 20
545.711374415
  0
VERTEX
  8
0
 62
40
  6
CONTINUOUS
 10
147.8399758349
 20
545.6392069228
  0
VERTEX
  8
0
 62
40
  6
CONTINUOUS
 10
147.8388781188
 20
545.5601196603
  0
VERTEX
  8
0
 62
40
  6
CONTINUOUS
 10
147.8377929126
 20
545.4741955615
  0
VERTEX
  8
0
 62
40
  6
CONTINUOUS
 10
147.8367213545
 20
545.3815247297
  0
VERTEX
  8
0
 62
40
  6
CONTINUOUS
 10
147.8356645681
 20
545.2822043432
  0
VERTEX
  8
0
 62
40
  6
CONTINUOUS
 10
147.8346236615
 20
545.1763385531
  0
VERTEX
  8
0
 62
40
  6
CONTINUOUS
 10
147.8335997264
 20
545.0640383742
  0
VERTEX
  8
0
 62
40
  6
CONTINUOUS
 10
147.8325938364
 20
544.945421569
  0
VERTEX
  8
0
 62
40
  6
CONTINUOUS
 10
147.8316070463
 20
544.8206125235
  0
VERTEX
  8
0
 62
40
  6
CONTINUOUS
 10
147.8306403911
 20
544.6897421174
  0
VERTEX
  8
0
 62
40
  6
CONTINUOUS
 10
147.8296948842
 20
544.5529475862
  0
VERTEX
  8
0
 62
40
  6
CONTINUOUS
 10
147.8287715173
 20
544.4103723781
  0
VERTEX
  8
0
 62
40
  6
CONTINUOUS
 10
147.8278712585
 20
544.2621660028
  0
VERTEX
  8
0
 62
40
  6
CONTINUOUS
 10
147.826995052
 20
544.1084838753
  0
VERTEX
  8
0
 62
40
  6
CONTINUOUS
 10
147.8261438166
 20
543.9494871525
  0
VERTEX
  8
0
 62
40
  6
CONTINUOUS
 10
147.8253184448
 20
543.7853425646
  0
VERTEX
  8
0
 62
40
  6
CONTINUOUS
 10
147.8245198023
 20
543.6162222397
  0
VERTEX
  8
0
 62
40
  6
CONTINUOUS
 10
147.8237487265
 20
543.4423035241
  0
VERTEX
  8
0
 62
40
  6
CONTINUOUS
 10
147.823006026
 20
543.2637687955
  0
VERTEX
  8
0
 62
40
  6
CONTINUOUS
 10
147.8222924795
 20
543.0808052722
  0
VERTEX
  8
0
 62
40
  6
CONTINUOUS
 10
147.8216088355
 20
542.893604817
  0
VERTEX
  8
0
 62
40
  6
CONTINUOUS
 10
147.8209558107
 20
542.7023637353
  0
VERTEX
  8
0
 62
40
  6
CONTINUOUS
 10
147.8203340899
 20
542.50728257
  0
VERTEX
  8
0
 62
40
  6
CONTINUOUS
 10
147.8197443252
 20
542.3085658905
  0
VERTEX
  8
0
 62
40
  6
CONTINUOUS
 10
147.8191871349
 20
542.1064220789
  0
VERTEX
  8
0
 62
40
  6
CONTINUOUS
 10
147.8181727801
 20
541.6927043338
  0
SEQEND
  0
LINE
  8
0
 62
7
  6
CONTINUOUS
 10
47.8912870781
 20
-236.643842183
 11
47.8920072259
 21
-236.6386545491
  0
POLYLINE
  8
0
 62
7
  6
CONTINUOUS
 66
1
 70
0
  0
VERTEX
  8
0
 62
7
  6
CONTINUOUS
 10
182.5747747789
 20
558.6992813611
  0
VERTEX
  8
0
 62
7
  6
CONTINUOUS
 10
182.5701732376
 20
558.677061995
  0
VERTEX
  8
0
 62
7
  6
CONTINUOUS
 10
182.5557084344
 20
558.6536498204
  0
VERTEX
  8
0
 62
7
  6
CONTINUOUS
 10
182.5301991316
 20
558.6288597514
  0
VERTEX
  8
0
 62
7
  6
CONTINUOUS
 10
182.4932256938
 20
558.6032344932
  0
VERTEX
  8
0
 62
7
  6
CONTINUOUS
 10
182.4450653574
 20
558.5772179623
  0
VERTEX
  8
0
 62
7
  6
CONTINUOUS
 10
182.3857462681
 20
558.5509218292
  0
VERTEX
  8
0
 62
7
  6
CONTINUOUS
 10
182.3158079463
 20
558.5245953048
  0
VERTEX
  8
0
 62
7
  6
CONTINUOUS
 10
182.235364703
 20
558.4982710661
  0
VERTEX
  8
0
 62
7
  6
CONTINUOUS
 10
182.1446817046
 20
558.4720359678
  0
SEQEND
  0
LINE
  8
0
 62
7
  6
CONTINUOUS
 10
365.323278185
 20
503.7731258815
 11
366.8266282917
 21
505.6237302148
  0
LINE
  8
0
 62
7
  6
CONTINUOUS
 10
366.7627547458
 20
505.5473727036
 11
366.8223990128
 21
505.6185121184
  0
POLYLINE
  8
0
 62
40
  6
CONTINUOUS
 66
1
 70
0
  0
VERTEX
  8
0
 62
40
  6
CONTINUOUS
 10
147.8033137212
 20
-240.5185268194
  0
VERTEX
  8
0
 62
40
  6
CONTINUOUS
 10
147.8035592731
 20
-240.6238698048
  0
VERTEX
  8
0
 62
40
  6
CONTINUOUS
 10
147.8038392306
 20
-240.7248815915
  0
VERTEX
  8
0
 62
40
  6
CONTINUOUS
 10
147.8041532841
 20
-240.8214505597
  0
VERTEX
  8
0
 62
40
  6
CONTINUOUS
 10
147.8045010866
 20
-240.9134699993
  0
VERTEX
  8
0
 62
40
  6
CONTINUOUS
 10
147.8048822539
 20
-241.0008382271
  0
VERTEX
  8
0
 62
40
  6
CONTINUOUS
 10
147.8052963648
 20
-241.0834587
  0
VERTEX
  8
0
 62
40
  6
CONTINUOUS
 10
147.8057429616
 20
-241.1612401209
  0
VERTEX
  8
0
 62
40
  6
CONTINUOUS
 10
147.8062215508
 20
-241.23409654
  0
VERTEX
  8
0
 62
40
  6
CONTINUOUS
 10
147.8067316036
 20
-241.3019474499
  0
VERTEX
  8
0
 62
40
  6
CONTINUOUS
 10
147.8072725564
 20
-241.3647178742
  0
VERTEX
  8
0
 62
40
  6
CONTINUOUS
 10
147.8078438115
 20
-241.4223384505
  0
VERTEX
  8
0
 62
40
  6
CONTINUOUS
 10
147.8084447375
 20
-241.4747455071
  0
VERTEX
  8
0
 62
40
  6
CONTINUOUS
 10
147.8090746704
 20
-241.5218811334
  0
VERTEX
  8
0
 62
40
  6
CONTINUOUS
 10
147.8097329142
 20
-241.5636932438
  0
VERTEX
  8
0
 62
40
  6
CONTINUOUS
 10
147.8104187414
 20
-241.6001356351
  0
VERTEX
  8
0
 62
40
  6
CONTINUOUS
 10
147.8111313943
 20
-241.631168038
  0
VERTEX
  8
0
 62
40
  6
CONTINUOUS
 10
147.8118700854
 20
-241.6567561612
  0
VERTEX
  8
0
 62
40
  6
CONTINUOUS
 10
147.8126339983
 20
-241.6768717292
  0
VERTEX
  8
0
 62
40
  6
CONTINUOUS
 10
147.8134222889
 20
-241.6914925142
  0
VERTEX
  8
0
 62
40
  6
CONTINUOUS
 10
147.8142340862
 20
-241.7006023599
  0
VERTEX
  8
0
 62
40
  6
CONTINUOUS
 10
147.8150684932
 20
-241.7041911997
  0
SEQEND
  0
LINE
  8
0
 62
40
  6
CONTINUOUS
 10
147.8029268807
 20
-240.2953175328
 11
147.8033137212
 21
-240.5185268194
  0
LINE
  8
0
 62
40
  6
CONTINUOUS
 10
147.8026804184
 20
-240.0562400588
 11
147.8029268807
 21
-240.2953175328
  0
LINE
  8
0
 62
40
  6
CONTINUOUS
 10
147.8025754235
 20
-239.8023508434
 11
147.8026804184
 21
-240.0562400588
  0
LINE
  8
0
 62
40
  6
CONTINUOUS
 10
147.8026123599
 20
-239.5347717836
 11
147.8025754235
 21
-239.8023508434
  0
LINE
  8
0
 62
40
  6
CONTINUOUS
 10
147.7812201979
 20
539.493459165
 11
147.7810703071
 21
539.0403980747
  0
LINE
  8
0
 62
40
  6
CONTINUOUS
 10
147.815218494
 20
539.4934529498
 11
147.8150684932
 21
539.0403924457
  0
LINE
  8
0
 62
40
  6
CONTINUOUS
 10
147.7815193321
 20
539.9446203596
 11
147.7812201979
 21
539.493459165
  0
LINE
  8
0
 62
40
  6
CONTINUOUS
 10
147.8155177374
 20
539.9446135655
 11
147.815218494
 21
539.4934529498
  0
LINE
  8
0
 62
40
  6
CONTINUOUS
 10
147.8027910643
 20
-239.2546852697
 11
147.8026123599
 21
-239.5347717836
  0
LINE
  8
0
 62
40
  6
CONTINUOUS
 10
147.7819664553
 20
540.3919897298
 11
147.7815193321
 21
539.9446203596
  0
LINE
  8
0
 62
40
  6
CONTINUOUS
 10
147.8159649685
 20
540.3919823717
 11
147.8155177374
 21
539.9446135655
  0
LINE
  8
0
 62
40
  6
CONTINUOUS
 10
147.8031107471
 20
-238.9633289605
 11
147.8027910643
 21
-239.2546852697
  0
LINE
  8
0
 62
40
  6
CONTINUOUS
 10
147.7825596925
 20
540.833691248
 11
147.7819664553
 21
540.3919897298
  0
LINE
  8
0
 62
40
  6
CONTINUOUS
 10
147.8165583118
 20
540.8336833477
 11
147.8159649685
 21
540.3919823717
  0
LINE
  8
0
 62
40
  6
CONTINUOUS
 10
147.7832965559
 20
541.2678726544
 11
147.7825596925
 21
540.833691248
  0
LINE
  8
0
 62
40
  6
CONTINUOUS
 10
147.8172952791
 20
541.2678642409
 11
147.8165583118
 21
540.8336833477
  0
LINE
  8
0
 62
40
  6
CONTINUOUS
 10
147.8035699957
 20
-238.6619903141
 11
147.8031107471
 21
-238.9633289605
  0
POLYLINE
  8
0
 62
40
  6
CONTINUOUS
 66
1
 70
0
  0
VERTEX
  8
0
 62
40
  6
CONTINUOUS
 10
147.8094896974
 20
-238.6523563107
  0
VERTEX
  8
0
 62
40
  6
CONTINUOUS
 10
147.8092003913
 20
-238.8308572507
  0
VERTEX
  8
0
 62
40
  6
CONTINUOUS
 10
147.8089590702
 20
-239.0061080524
  0
VERTEX
  8
0
 62
40
  6
CONTINUOUS
 10
147.808766103
 20
-239.1778408684
  0
VERTEX
  8
0
 62
40
  6
CONTINUOUS
 10
147.8086217844
 20
-239.3457932279
  0
VERTEX
  8
0
 62
40
  6
CONTINUOUS
 10
147.8085263352
 20
-239.5097084381
  0
VERTEX
  8
0
 62
40
  6
CONTINUOUS
 10
147.8084799012
 20
-239.6693359764
  0
VERTEX
  8
0
 62
40
  6
CONTINUOUS
 10
147.8084825533
 20
-239.8244318733
  0
VERTEX
  8
0
 62
40
  6
CONTINUOUS
 10
147.8085342875
 20
-239.9747590855
  0
VERTEX
  8
0
 62
40
  6
CONTINUOUS
 10
147.8086350248
 20
-240.1200878578
  0
VERTEX
  8
0
 62
40
  6
CONTINUOUS
 10
147.8087846111
 20
-240.2601960744
  0
VERTEX
  8
0
 62
40
  6
CONTINUOUS
 10
147.8089828179
 20
-240.3948695988
  0
VERTEX
  8
0
 62
40
  6
CONTINUOUS
 10
147.8092293422
 20
-240.5239026002
  0
VERTEX
  8
0
 62
40
  6
CONTINUOUS
 10
147.8095238073
 20
-240.6470978689
  0
VERTEX
  8
0
 62
40
  6
CONTINUOUS
 10
147.809865763
 20
-240.7642671175
  0
VERTEX
  8
0
 62
40
  6
CONTINUOUS
 10
147.8102546868
 20
-240.8752312681
  0
VERTEX
  8
0
 62
40
  6
CONTINUOUS
 10
147.8106899843
 20
-240.979820727
  0
VERTEX
  8
0
 62
40
  6
CONTINUOUS
 10
147.81117099
 20
-241.0778756431
  0
VERTEX
  8
0
 62
40
  6
CONTINUOUS
 10
147.811696969
 20
-241.1692461524
  0
VERTEX
  8
0
 62
40
  6
CONTINUOUS
 10
147.8122671172
 20
-241.2537926073
  0
VERTEX
  8
0
 62
40
  6
CONTINUOUS
 10
147.8128805634
 20
-241.3313857898
  0
VERTEX
  8
0
 62
40
  6
CONTINUOUS
 10
147.8135363699
 20
-241.4019071091
  0
VERTEX
  8
0
 62
40
  6
CONTINUOUS
 10
147.8142335344
 20
-241.4652487827
  0
VERTEX
  8
0
 62
40
  6
CONTINUOUS
 10
147.8149709914
 20
-241.5213140012
  0
VERTEX
  8
0
 62
40
  6
CONTINUOUS
 10
147.8157476138
 20
-241.5700170766
  0
VERTEX
  8
0
 62
40
  6
CONTINUOUS
 10
147.8165622147
 20
-241.6112835725
  0
VERTEX
  8
0
 62
40
  6
CONTINUOUS
 10
147.8174135489
 20
-241.6450504187
  0
VERTEX
  8
0
 62
40
  6
CONTINUOUS
 10
147.8183003154
 20
-241.671266007
  0
VERTEX
  8
0
 62
40
  6
CONTINUOUS
 10
147.8192211589
 20
-241.6898902704
  0
VERTEX
  8
0
 62
40
  6
CONTINUOUS
 10
147.820174672
 20
-241.7008947441
  0
VERTEX
  8
0
 62
40
  6
CONTINUOUS
 10
147.8211593973
 20
-241.7042626094
  0
VERTEX
  8
0
 62
40
  6
CONTINUOUS
 10
147.8221738298
 20
-241.6999887188
  0
VERTEX
  8
0
 62
40
  6
CONTINUOUS
 10
147.8232164192
 20
-241.6880796045
  0
VERTEX
  8
0
 62
40
  6
CONTINUOUS
 10
147.8242855719
 20
-241.6685534679
  0
VERTEX
  8
0
 62
40
  6
CONTINUOUS
 10
147.8253796539
 20
-241.6414401522
  0
VERTEX
  8
0
 62
40
  6
CONTINUOUS
 10
147.8264969931
 20
-241.6067810963
  0
VERTEX
  8
0
 62
40
  6
CONTINUOUS
 10
147.8276358817
 20
-241.5646292722
  0
VERTEX
  8
0
 62
40
  6
CONTINUOUS
 10
147.828794579
 20
-241.5150491032
  0
VERTEX
  8
0
 62
40
  6
CONTINUOUS
 10
147.8299713143
 20
-241.458116366
  0
VERTEX
  8
0
 62
40
  6
CONTINUOUS
 10
147.8311642889
 20
-241.3939180748
  0
VERTEX
  8
0
 62
40
  6
CONTINUOUS
 10
147.8323716797
 20
-241.322552348
  0
VERTEX
  8
0
 62
40
  6
CONTINUOUS
 10
147.8335916412
 20
-241.2441282588
  0
VERTEX
  8
0
 62
40
  6
CONTINUOUS
 10
147.8348223089
 20
-241.1587656678
  0
VERTEX
  8
0
 62
40
  6
CONTINUOUS
 10
147.8360618019
 20
-241.0665950404
  0
VERTEX
  8
0
 62
40
  6
CONTINUOUS
 10
147.8373082258
 20
-240.9677572472
  0
VERTEX
  8
0
 62
40
  6
CONTINUOUS
 10
147.8385596756
 20
-240.8624033486
  0
VERTEX
  8
0
 62
40
  6
CONTINUOUS
 10
147.8398142386
 20
-240.750694364
  0
VERTEX
  8
0
 62
40
  6
CONTINUOUS
 10
147.8410699974
 20
-240.6328010257
  0
SEQEND
  0
LINE
  8
0
 62
40
  6
CONTINUOUS
 10
147.8041667808
 20
-238.3520008991
 11
147.8035699957
 21
-238.6619903141
  0
LINE
  8
0
 62
40
  6
CONTINUOUS
 10
147.8102104232
 20
-238.2866998263
 11
147.8094896974
 21
-238.6523563107
  0
LINE
  8
0
 62
40
  6
CONTINUOUS
 10
147.7841739555
 20
541.6927132246
 11
147.7832965559
 21
541.2678726544
  0
LINE
  8
0
 62
40
  6
CONTINUOUS
 10
147.8181727801
 20
541.6927043338
 11
147.8172952791
 21
541.2678642409
  0
LINE
  8
0
 62
40
  6
CONTINUOUS
 10
147.8048984651
 20
-238.0347305106
 11
147.8041667808
 21
-238.3520008991
  0
LINE
  8
0
 62
40
  6
CONTINUOUS
 10
147.8111168431
 20
-237.9113731742
 11
147.8102104232
 21
-238.2866998263
  0
LINE
  8
0
 62
40
  6
CONTINUOUS
 10
147.8057618156
 20
-237.711581117
 11
147.8048984651
 21
-238.0347305106
  0
LINE
  8
0
 62
40
  6
CONTINUOUS
 10
147.812203418
 20
-237.5286700248
 11
147.8111168431
 21
-237.9113731742
  0
LINE
  8
0
 62
40
  6
CONTINUOUS
 10
147.8067530172
 20
-237.3839806652
 11
147.8057618156
 21
-237.711581117
  0
LINE
  8
0
 62
40
  6
CONTINUOUS
 10
147.8134635075
 20
-237.1409291276
 11
147.812203418
 21
-237.5286700248
  0
LINE
  8
0
 62
40
  6
CONTINUOUS
 10
147.8078676899
 20
-237.0533767707
 11
147.8067530172
 21
-237.3839806652
  0
POLYLINE
  8
0
 62
40
  6
CONTINUOUS
 66
1
 70
0
  0
VERTEX
  8
0
 62
40
  6
CONTINUOUS
 10
147.8156618585
 20
-236.5550602207
  0
VERTEX
  8
0
 62
40
  6
CONTINUOUS
 10
147.8148894112
 20
-236.7505200181
  0
VERTEX
  8
0
 62
40
  6
CONTINUOUS
 10
147.8134635075
 20
-237.1409291276
  0
SEQEND
  0
POLYLINE
  8
0
 62
40
  6
CONTINUOUS
 66
1
 70
0
  0
VERTEX
  8
0
 62
40
  6
CONTINUOUS
 10
147.8097602888
 20
-236.5550372056
  0
VERTEX
  8
0
 62
40
  6
CONTINUOUS
 10
147.8091009082
 20
-236.7212303207
  0
VERTEX
  8
0
 62
40
  6
CONTINUOUS
 10
147.8078676899
 20
-237.0533767707
  0
SEQEND
  0
POLYLINE
  8
0
 62
7
  6
CONTINUOUS
 66
1
 70
0
  0
VERTEX
  8
0
 62
7
  6
CONTINUOUS
 10
366.8262173776
 20
505.6232221776
  0
VERTEX
  8
0
 62
7
  6
CONTINUOUS
 10
367.028977282
 20
505.905698515
  0
VERTEX
  8
0
 62
7
  6
CONTINUOUS
 10
367.2424391567
 20
506.3063960687
  0
VERTEX
  8
0
 62
7
  6
CONTINUOUS
 10
367.3927523064
 20
506.7328221538
  0
VERTEX
  8
0
 62
7
  6
CONTINUOUS
 10
367.4777066711
 20
507.178844106
  0
VERTEX
  8
0
 62
7
  6
CONTINUOUS
 10
367.4960223119
 20
507.5854473426
  0
SEQEND
  0
LINE
  8
0
 62
7
  6
CONTINUOUS
 10
182.0747747789
 20
558.4944539657
 11
182.0747747789
 21
559.0685315854
  0
LINE
  8
0
 62
7
  6
CONTINUOUS
 10
182.5747747789
 20
559.2717136791
 11
182.5747747789
 21
558.6992812805
  0
POLYLINE
  8
0
 62
7
  6
CONTINUOUS
 66
1
 70
0
  0
VERTEX
  8
0
 62
7
  6
CONTINUOUS
 10
147.8299909784
 20
160.3201219059
  0
VERTEX
  8
0
 62
7
  6
CONTINUOUS
 10
129.0996542556
 20
160.3173555602
  0
VERTEX
  8
0
 62
7
  6
CONTINUOUS
 10
107.9533165089
 20
160.3141736172
  0
SEQEND
  0
POLYLINE
  8
0
 62
7
  6
CONTINUOUS
 66
1
 70
0
  0
VERTEX
  8
0
 62
7
  6
CONTINUOUS
 10
107.9533165089
 20
160.3141736172
  0
VERTEX
  8
0
 62
7
  6
CONTINUOUS
 10
62.4708901894
 20
160.3072005817
  0
VERTEX
  8
0
 62
7
  6
CONTINUOUS
 10
13.9785288763
 20
160.2998214036
  0
SEQEND
  0
POLYLINE
  8
0
 62
7
  6
CONTINUOUS
 66
1
 70
0
  0
VERTEX
  8
0
 62
7
  6
CONTINUOUS
 10
217.8002713261
 20
160.3201552599
  0
VERTEX
  8
0
 62
7
  6
CONTINUOUS
 10
207.3346937391
 20
160.3203762414
  0
VERTEX
  8
0
 62
7
  6
CONTINUOUS
 10
195.406140266
 20
160.3201425979
  0
VERTEX
  8
0
 62
7
  6
CONTINUOUS
 10
183.3669948127
 20
160.3202122676
  0
VERTEX
  8
0
 62
7
  6
CONTINUOUS
 10
171.2176544332
 20
160.3201559358
  0
VERTEX
  8
0
 62
7
  6
CONTINUOUS
 10
158.9584883612
 20
160.3203483172
  0
VERTEX
  8
0
 62
7
  6
CONTINUOUS
 10
147.8299909793
 20
160.3201219059
  0
SEQEND
  0
LINE
  8
0
 62
7
  6
CONTINUOUS
 10
257.6768650473
 20
160.3141751038
 11
217.8002713267
 21
160.3201552599
  0
POLYLINE
  8
0
 62
7
  6
CONTINUOUS
 66
1
 70
0
  0
VERTEX
  8
0
 62
7
  6
CONTINUOUS
 10
351.6516084499
 20
160.2998218951
  0
VERTEX
  8
0
 62
7
  6
CONTINUOUS
 10
303.1592886667
 20
160.3071980668
  0
VERTEX
  8
0
 62
7
  6
CONTINUOUS
 10
257.6768650473
 20
160.3141751038
  0
SEQEND
  0
POLYLINE
  8
0
 62
7
  6
CONTINUOUS
 66
1
 70
0
  0
VERTEX
  8
0
 62
7
  6
CONTINUOUS
 10
13.9785287653
 20
160.2998214035
  0
VERTEX
  8
0
 62
7
  6
CONTINUOUS
 10
13.1863863982
 20
160.2603809453
  0
VERTEX
  8
0
 62
7
  6
CONTINUOUS
 10
11.962759345
 20
160.0415268182
  0
VERTEX
  8
0
 62
7
  6
CONTINUOUS
 10
10.7838542521
 20
159.6337870174
  0
VERTEX
  8
0
 62
7
  6
CONTINUOUS
 10
9.6828285077
 20
159.0462983145
  0
VERTEX
  8
0
 62
7
  6
CONTINUOUS
 10
8.6850238441
 20
158.2948468707
  0
VERTEX
  8
0
 62
7
  6
CONTINUOUS
 10
7.8173464583
 20
157.4004913573
  0
VERTEX
  8
0
 62
7
  6
CONTINUOUS
 10
7.1026710554
 20
156.3853010705
  0
VERTEX
  8
0
 62
7
  6
CONTINUOUS
 10
6.5554625988
 20
155.2771128176
  0
VERTEX
  8
0
 62
7
  6
CONTINUOUS
 10
6.1869964749
 20
154.1052929362
  0
VERTEX
  8
0
 62
7
  6
CONTINUOUS
 10
6.0041279892
 20
152.9001091911
  0
VERTEX
  8
0
 62
7
  6
CONTINUOUS
 10
5.9815654715
 20
152.2959413655
  0
SEQEND
  0
POLYLINE
  8
0
 62
40
  6
CONTINUOUS
 66
1
 70
0
  0
VERTEX
  8
0
 62
40
  6
CONTINUOUS
 10
217.781069386
 20
546.0173690487
  0
VERTEX
  8
0
 62
40
  6
CONTINUOUS
 10
217.7822248969
 20
545.9953435422
  0
VERTEX
  8
0
 62
40
  6
CONTINUOUS
 10
217.7833773711
 20
545.9660248068
  0
VERTEX
  8
0
 62
40
  6
CONTINUOUS
 10
217.7845256002
 20
545.9294435875
  0
VERTEX
  8
0
 62
40
  6
CONTINUOUS
 10
217.78566838
 20
545.8856382446
  0
VERTEX
  8
0
 62
40
  6
CONTINUOUS
 10
217.7868045122
 20
545.8346547142
  0
VERTEX
  8
0
 62
40
  6
CONTINUOUS
 10
217.7879328053
 20
545.7765464595
  0
VERTEX
  8
0
 62
40
  6
CONTINUOUS
 10
217.7890520763
 20
545.711374415
  0
VERTEX
  8
0
 62
40
  6
CONTINUOUS
 10
217.7901611514
 20
545.6392069228
  0
VERTEX
  8
0
 62
40
  6
CONTINUOUS
 10
217.7912588675
 20
545.5601196603
  0
VERTEX
  8
0
 62
40
  6
CONTINUOUS
 10
217.7923440737
 20
545.4741955615
  0
VERTEX
  8
0
 62
40
  6
CONTINUOUS
 10
217.7934156318
 20
545.3815247297
  0
VERTEX
  8
0
 62
40
  6
CONTINUOUS
 10
217.7944724182
 20
545.2822043432
  0
VERTEX
  8
0
 62
40
  6
CONTINUOUS
 10
217.7955133248
 20
545.1763385531
  0
VERTEX
  8
0
 62
40
  6
CONTINUOUS
 10
217.7965372599
 20
545.0640383742
  0
VERTEX
  8
0
 62
40
  6
CONTINUOUS
 10
217.7975431499
 20
544.945421569
  0
VERTEX
  8
0
 62
40
  6
CONTINUOUS
 10
217.79852994
 20
544.8206125235
  0
VERTEX
  8
0
 62
40
  6
CONTINUOUS
 10
217.7994965952
 20
544.6897421174
  0
VERTEX
  8
0
 62
40
  6
CONTINUOUS
 10
217.8004421021
 20
544.5529475862
  0
VERTEX
  8
0
 62
40
  6
CONTINUOUS
 10
217.801365469
 20
544.4103723781
  0
VERTEX
  8
0
 62
40
  6
CONTINUOUS
 10
217.8022657278
 20
544.2621660028
  0
VERTEX
  8
0
 62
40
  6
CONTINUOUS
 10
217.8031419343
 20
544.1084838753
  0
VERTEX
  8
0
 62
40
  6
CONTINUOUS
 10
217.8039931697
 20
543.9494871525
  0
VERTEX
  8
0
 62
40
  6
CONTINUOUS
 10
217.8048185415
 20
543.7853425646
  0
VERTEX
  8
0
 62
40
  6
CONTINUOUS
 10
217.805617184
 20
543.6162222397
  0
VERTEX
  8
0
 62
40
  6
CONTINUOUS
 10
217.8063882598
 20
543.4423035241
  0
VERTEX
  8
0
 62
40
  6
CONTINUOUS
 10
217.8071309603
 20
543.2637687955
  0
VERTEX
  8
0
 62
40
  6
CONTINUOUS
 10
217.8078445068
 20
543.0808052722
  0
VERTEX
  8
0
 62
40
  6
CONTINUOUS
 10
217.8085281508
 20
542.893604817
  0
VERTEX
  8
0
 62
40
  6
CONTINUOUS
 10
217.8091811756
 20
542.7023637353
  0
VERTEX
  8
0
 62
40
  6
CONTINUOUS
 10
217.8098028964
 20
542.50728257
  0
VERTEX
  8
0
 62
40
  6
CONTINUOUS
 10
217.8103926611
 20
542.3085658905
  0
SEQEND
  0
LINE
  8
0
 62
40
  6
CONTINUOUS
 10
217.8203766975
 20
-236.5550372056
 11
217.8210360781
 21
-236.7212303207
  0
LINE
  8
0
 62
40
  6
CONTINUOUS
 10
217.8144751278
 20
-236.5550602207
 11
217.8159807322
 21
-236.9459091959
  0
LINE
  8
0
 62
40
  6
CONTINUOUS
 10
217.8210360781
 20
-236.7212303207
 11
217.8222692964
 21
-237.0533767707
  0
LINE
  8
0
 62
40
  6
CONTINUOUS
 10
217.8159807322
 20
-236.9459091959
 11
217.8173247559
 21
-237.3352817513
  0
LINE
  8
0
 62
40
  6
CONTINUOUS
 10
217.8222692964
 20
-237.0533767707
 11
217.8233839691
 21
-237.3839806652
  0
LINE
  8
0
 62
40
  6
CONTINUOUS
 10
217.8173247559
 20
-237.3352817513
 11
217.8184989855
 21
-237.72079838
  0
LINE
  8
0
 62
40
  6
CONTINUOUS
 10
217.8233839691
 20
-237.3839806652
 11
217.8243751707
 21
-237.711581117
  0
POLYLINE
  8
0
 62
40
  6
CONTINUOUS
 66
1
 70
0
  0
VERTEX
  8
0
 62
40
  6
CONTINUOUS
 10
217.8443915669
 20
542.3085754156
  0
VERTEX
  8
0
 62
40
  6
CONTINUOUS
 10
217.8438018491
 20
542.5072922816
  0
VERTEX
  8
0
 62
40
  6
CONTINUOUS
 10
217.8431801744
 20
542.7023736198
  0
VERTEX
  8
0
 62
40
  6
CONTINUOUS
 10
217.8425271946
 20
542.8936148599
  0
VERTEX
  8
0
 62
40
  6
CONTINUOUS
 10
217.8418435946
 20
543.0808154584
  0
VERTEX
  8
0
 62
40
  6
CONTINUOUS
 10
217.841130091
 20
543.2637791092
  0
VERTEX
  8
0
 62
40
  6
CONTINUOUS
 10
217.8403874322
 20
543.442313949
  0
VERTEX
  8
0
 62
40
  6
CONTINUOUS
 10
217.839616397
 20
543.6162327588
  0
VERTEX
  8
0
 62
40
  6
CONTINUOUS
 10
217.8388177938
 20
543.7853531603
  0
VERTEX
  8
0
 62
40
  6
CONTINUOUS
 10
217.8379924602
 20
543.9494978068
  0
VERTEX
  8
0
 62
40
  6
CONTINUOUS
 10
217.8371412615
 20
544.1084945694
  0
VERTEX
  8
0
 62
40
  6
CONTINUOUS
 10
217.8362650905
 20
544.2621767178
  0
VERTEX
  8
0
 62
40
  6
CONTINUOUS
 10
217.8353648659
 20
544.4103830943
  0
VERTEX
  8
0
 62
40
  6
CONTINUOUS
 10
217.8344415317
 20
544.5529582838
  0
VERTEX
  8
0
 62
40
  6
CONTINUOUS
 10
217.8334960561
 20
544.6897527761
  0
VERTEX
  8
0
 62
40
  6
CONTINUOUS
 10
217.8325294306
 20
544.8206231227
  0
VERTEX
  8
0
 62
40
  6
CONTINUOUS
 10
217.8315426689
 20
544.9454320877
  0
VERTEX
  8
0
 62
40
  6
CONTINUOUS
 10
217.8305368058
 20
545.0640487913
  0
VERTEX
  8
0
 62
40
  6
CONTINUOUS
 10
217.8295128959
 20
545.1763488471
  0
VERTEX
  8
0
 62
40
  6
CONTINUOUS
 10
217.8284720131
 20
545.2822144927
  0
VERTEX
  8
0
 62
40
  6
CONTINUOUS
 10
217.8274152488
 20
545.3815347129
  0
VERTEX
  8
0
 62
40
  6
CONTINUOUS
 10
217.8263437112
 20
545.4742053566
  0
VERTEX
  8
0
 62
40
  6
CONTINUOUS
 10
217.8252585239
 20
545.5601292454
  0
VERTEX
  8
0
 62
40
  6
CONTINUOUS
 10
217.824160825
 20
545.6392162762
  0
VERTEX
  8
0
 62
40
  6
CONTINUOUS
 10
217.8230517655
 20
545.7113835148
  0
VERTEX
  8
0
 62
40
  6
CONTINUOUS
 10
217.8219325085
 20
545.7765552839
  0
VERTEX
  8
0
 62
40
  6
CONTINUOUS
 10
217.8208042276
 20
545.8346632415
  0
VERTEX
  8
0
 62
40
  6
CONTINUOUS
 10
217.8196681059
 20
545.8856464534
  0
VERTEX
  8
0
 62
40
  6
CONTINUOUS
 10
217.818525335
 20
545.9294514564
  0
VERTEX
  8
0
 62
40
  6
CONTINUOUS
 10
217.8173771131
 20
545.9660323148
  0
VERTEX
  8
0
 62
40
  6
CONTINUOUS
 10
217.8162246442
 20
545.9953506685
  0
VERTEX
  8
0
 62
40
  6
CONTINUOUS
 10
217.8150691371
 20
546.0173757729
  0
SEQEND
  0
LINE
  8
0
 62
40
  6
CONTINUOUS
 10
217.8243751707
 20
-237.711581117
 11
217.8252385212
 21
-238.0347305106
  0
LINE
  8
0
 62
40
  6
CONTINUOUS
 10
217.8184989855
 20
-237.72079838
 11
217.819496245
 21
-238.1001031392
  0
LINE
  8
0
 62
40
  6
CONTINUOUS
 10
217.8103926611
 20
542.3085658905
 11
217.811473883
 21
541.9010631109
  0
LINE
  8
0
 62
40
  6
CONTINUOUS
 10
217.8454726921
 20
541.9010722248
 11
217.8443915669
 21
542.3085754156
  0
LINE
  8
0
 62
40
  6
CONTINUOUS
 10
217.8252385212
 20
-238.0347305106
 11
217.8259702055
 21
-238.3520008991
  0
POLYLINE
  8
0
 62
40
  6
CONTINUOUS
 66
1
 70
0
  0
VERTEX
  8
0
 62
40
  6
CONTINUOUS
 10
217.819496245
 20
-238.1001031392
  0
VERTEX
  8
0
 62
40
  6
CONTINUOUS
 10
217.82031044
 20
-238.4708780475
  0
VERTEX
  8
0
 62
40
  6
CONTINUOUS
 10
217.8206472889
 20
-238.6523563107
  0
VERTEX
  8
0
 62
40
  6
CONTINUOUS
 10
217.820936595
 20
-238.8308572507
  0
VERTEX
  8
0
 62
40
  6
CONTINUOUS
 10
217.8211779161
 20
-239.0061080524
  0
VERTEX
  8
0
 62
40
  6
CONTINUOUS
 10
217.8213708833
 20
-239.1778408684
  0
VERTEX
  8
0
 62
40
  6
CONTINUOUS
 10
217.8215152019
 20
-239.3457932279
  0
VERTEX
  8
0
 62
40
  6
CONTINUOUS
 10
217.8216106511
 20
-239.5097084381
  0
VERTEX
  8
0
 62
40
  6
CONTINUOUS
 10
217.8216570851
 20
-239.6693359764
  0
VERTEX
  8
0
 62
40
  6
CONTINUOUS
 10
217.821654433
 20
-239.8244318733
  0
VERTEX
  8
0
 62
40
  6
CONTINUOUS
 10
217.8216026988
 20
-239.9747590855
  0
VERTEX
  8
0
 62
40
  6
CONTINUOUS
 10
217.8215019615
 20
-240.1200878578
  0
VERTEX
  8
0
 62
40
  6
CONTINUOUS
 10
217.8213523752
 20
-240.2601960744
  0
VERTEX
  8
0
 62
40
  6
CONTINUOUS
 10
217.8211541684
 20
-240.3948695988
  0
VERTEX
  8
0
 62
40
  6
CONTINUOUS
 10
217.8209076441
 20
-240.5239026002
  0
VERTEX
  8
0
 62
40
  6
CONTINUOUS
 10
217.820613179
 20
-240.6470978689
  0
VERTEX
  8
0
 62
40
  6
CONTINUOUS
 10
217.8202712233
 20
-240.7642671175
  0
VERTEX
  8
0
 62
40
  6
CONTINUOUS
 10
217.8198822995
 20
-240.8752312681
  0
VERTEX
  8
0
 62
40
  6
CONTINUOUS
 10
217.819447002
 20
-240.979820727
  0
VERTEX
  8
0
 62
40
  6
CONTINUOUS
 10
217.8189659963
 20
-241.0778756431
  0
VERTEX
  8
0
 62
40
  6
CONTINUOUS
 10
217.8184400173
 20
-241.1692461524
  0
VERTEX
  8
0
 62
40
  6
CONTINUOUS
 10
217.8178698691
 20
-241.2537926073
  0
VERTEX
  8
0
 62
40
  6
CONTINUOUS
 10
217.8172564229
 20
-241.3313857898
  0
VERTEX
  8
0
 62
40
  6
CONTINUOUS
 10
217.8166006164
 20
-241.4019071091
  0
VERTEX
  8
0
 62
40
  6
CONTINUOUS
 10
217.8159034519
 20
-241.4652487827
  0
VERTEX
  8
0
 62
40
  6
CONTINUOUS
 10
217.8151659949
 20
-241.5213140012
  0
VERTEX
  8
0
 62
40
  6
CONTINUOUS
 10
217.8143893725
 20
-241.5700170766
  0
VERTEX
  8
0
 62
40
  6
CONTINUOUS
 10
217.8135747717
 20
-241.6112835725
  0
VERTEX
  8
0
 62
40
  6
CONTINUOUS
 10
217.8127234374
 20
-241.6450504187
  0
VERTEX
  8
0
 62
40
  6
CONTINUOUS
 10
217.8118366709
 20
-241.671266007
  0
VERTEX
  8
0
 62
40
  6
CONTINUOUS
 10
217.8109158274
 20
-241.6898902704
  0
VERTEX
  8
0
 62
40
  6
CONTINUOUS
 10
217.8099623143
 20
-241.7008947441
  0
VERTEX
  8
0
 62
40
  6
CONTINUOUS
 10
217.808977589
 20
-241.7042626094
  0
VERTEX
  8
0
 62
40
  6
CONTINUOUS
 10
217.8079631565
 20
-241.6999887188
  0
VERTEX
  8
0
 62
40
  6
CONTINUOUS
 10
217.8069205671
 20
-241.6880796045
  0
VERTEX
  8
0
 62
40
  6
CONTINUOUS
 10
217.8058514144
 20
-241.6685534679
  0
VERTEX
  8
0
 62
40
  6
CONTINUOUS
 10
217.8047573324
 20
-241.6414401522
  0
VERTEX
  8
0
 62
40
  6
CONTINUOUS
 10
217.8036399932
 20
-241.6067810963
  0
VERTEX
  8
0
 62
40
  6
CONTINUOUS
 10
217.8025011046
 20
-241.5646292722
  0
VERTEX
  8
0
 62
40
  6
CONTINUOUS
 10
217.8013424073
 20
-241.5150491032
  0
VERTEX
  8
0
 62
40
  6
CONTINUOUS
 10
217.800165672
 20
-241.458116366
  0
VERTEX
  8
0
 62
40
  6
CONTINUOUS
 10
217.7989726974
 20
-241.3939180748
  0
VERTEX
  8
0
 62
40
  6
CONTINUOUS
 10
217.7977653066
 20
-241.322552348
  0
VERTEX
  8
0
 62
40
  6
CONTINUOUS
 10
217.7965453451
 20
-241.2441282588
  0
VERTEX
  8
0
 62
40
  6
CONTINUOUS
 10
217.7953146774
 20
-241.1587656678
  0
VERTEX
  8
0
 62
40
  6
CONTINUOUS
 10
217.7940751844
 20
-241.0665950404
  0
VERTEX
  8
0
 62
40
  6
CONTINUOUS
 10
217.7928287605
 20
-240.9677572472
  0
VERTEX
  8
0
 62
40
  6
CONTINUOUS
 10
217.7915773107
 20
-240.8624033486
  0
VERTEX
  8
0
 62
40
  6
CONTINUOUS
 10
217.7903227477
 20
-240.750694364
  0
VERTEX
  8
0
 62
40
  6
CONTINUOUS
 10
217.7890669889
 20
-240.6328010257
  0
SEQEND
  0
LINE
  8
0
 62
40
  6
CONTINUOUS
 10
217.811473883
 20
541.9010631109
 11
217.8124203071
 21
541.4815642406
  0
LINE
  8
0
 62
40
  6
CONTINUOUS
 10
217.8464190164
 20
541.4815728976
 11
217.8454726921
 21
541.9010722248
  0
LINE
  8
0
 62
40
  6
CONTINUOUS
 10
217.8259702055
 20
-238.3520008991
 11
217.8265669906
 21
-238.6619903141
  0
LINE
  8
0
 62
40
  6
CONTINUOUS
 10
217.8124203071
 20
541.4815642406
 11
217.8132279647
 21
541.0518284288
  0
LINE
  8
0
 62
40
  6
CONTINUOUS
 10
217.8472265713
 20
541.0518365898
 11
217.8464190164
 21
541.4815728976
  0
LINE
  8
0
 62
40
  6
CONTINUOUS
 10
217.8265669906
 20
-238.6619903141
 11
217.8270262392
 21
-238.9633289605
  0
LINE
  8
0
 62
40
  6
CONTINUOUS
 10
217.8132279647
 20
541.0518284288
 11
217.813893469
 21
540.6136577529
  0
LINE
  8
0
 62
40
  6
CONTINUOUS
 10
217.8478919705
 20
540.6136653853
 11
217.8472265713
 21
541.0518365898
  0
LINE
  8
0
 62
40
  6
CONTINUOUS
 10
217.813893469
 20
540.6136577529
 11
217.8144140291
 21
540.1688896614
  0
LINE
  8
0
 62
40
  6
CONTINUOUS
 10
217.8484124236
 20
540.1688967397
 11
217.8478919705
 21
540.6136653853
  0
LINE
  8
0
 62
40
  6
CONTINUOUS
 10
217.8270262392
 20
-238.9633289605
 11
217.827345922
 21
-239.2546852697
  0
LINE
  8
0
 62
40
  6
CONTINUOUS
 10
217.8144140291
 20
540.1688896614
 11
217.8147874621
 21
539.7193892688
  0
LINE
  8
0
 62
40
  6
CONTINUOUS
 10
217.848785748
 20
539.7193957747
 11
217.8484124236
 21
540.1688967397
  0
LINE
  8
0
 62
40
  6
CONTINUOUS
 10
217.827345922
 20
-239.2546852697
 11
217.8275246264
 21
-239.5347717836
  0
POLYLINE
  8
0
 62
40
  6
CONTINUOUS
 66
1
 70
0
  0
VERTEX
  8
0
 62
40
  6
CONTINUOUS
 10
217.8147874621
 20
539.7193892688
  0
VERTEX
  8
0
 62
40
  6
CONTINUOUS
 10
217.8150122021
 20
539.2670415342
  0
VERTEX
  8
0
 62
40
  6
CONTINUOUS
 10
217.8150684932
 20
539.0403924457
  0
SEQEND
  0
POLYLINE
  8
0
 62
40
  6
CONTINUOUS
 66
1
 70
0
  0
VERTEX
  8
0
 62
40
  6
CONTINUOUS
 10
217.8490666143
 20
539.0403980747
  0
VERTEX
  8
0
 62
40
  6
CONTINUOUS
 10
217.8490103783
 20
539.2670474568
  0
VERTEX
  8
0
 62
40
  6
CONTINUOUS
 10
217.848785748
 20
539.7193957747
  0
SEQEND
  0
LINE
  8
0
 62
40
  6
CONTINUOUS
 10
217.8275246264
 20
-239.5347717836
 11
217.8275615628
 21
-239.8023508434
  0
LINE
  8
0
 62
40
  6
CONTINUOUS
 10
217.8275615628
 20
-239.8023508434
 11
217.8274565679
 21
-240.0562400588
  0
LINE
  8
0
 62
40
  6
CONTINUOUS
 10
217.8274565679
 20
-240.0562400588
 11
217.8272101056
 21
-240.2953175328
  0
POLYLINE
  8
0
 62
40
  6
CONTINUOUS
 66
1
 70
0
  0
VERTEX
  8
0
 62
40
  6
CONTINUOUS
 10
217.8272101056
 20
-240.2953175328
  0
VERTEX
  8
0
 62
40
  6
CONTINUOUS
 10
217.8268232651
 20
-240.5185268194
  0
VERTEX
  8
0
 62
40
  6
CONTINUOUS
 10
217.8265777132
 20
-240.6238698048
  0
VERTEX
  8
0
 62
40
  6
CONTINUOUS
 10
217.8262977557
 20
-240.7248815915
  0
VERTEX
  8
0
 62
40
  6
CONTINUOUS
 10
217.8259837022
 20
-240.8214505597
  0
VERTEX
  8
0
 62
40
  6
CONTINUOUS
 10
217.8256358997
 20
-240.9134699993
  0
VERTEX
  8
0
 62
40
  6
CONTINUOUS
 10
217.8252547324
 20
-241.0008382271
  0
VERTEX
  8
0
 62
40
  6
CONTINUOUS
 10
217.8248406215
 20
-241.0834587
  0
VERTEX
  8
0
 62
40
  6
CONTINUOUS
 10
217.8243940247
 20
-241.1612401209
  0
VERTEX
  8
0
 62
40
  6
CONTINUOUS
 10
217.8239154355
 20
-241.23409654
  0
VERTEX
  8
0
 62
40
  6
CONTINUOUS
 10
217.8234053827
 20
-241.3019474499
  0
VERTEX
  8
0
 62
40
  6
CONTINUOUS
 10
217.8228644299
 20
-241.3647178742
  0
VERTEX
  8
0
 62
40
  6
CONTINUOUS
 10
217.8222931748
 20
-241.4223384505
  0
VERTEX
  8
0
 62
40
  6
CONTINUOUS
 10
217.8216922488
 20
-241.4747455071
  0
VERTEX
  8
0
 62
40
  6
CONTINUOUS
 10
217.8210623159
 20
-241.5218811334
  0
VERTEX
  8
0
 62
40
  6
CONTINUOUS
 10
217.8204040721
 20
-241.5636932438
  0
VERTEX
  8
0
 62
40
  6
CONTINUOUS
 10
217.8197182449
 20
-241.6001356351
  0
VERTEX
  8
0
 62
40
  6
CONTINUOUS
 10
217.819005592
 20
-241.631168038
  0
VERTEX
  8
0
 62
40
  6
CONTINUOUS
 10
217.8182669009
 20
-241.6567561612
  0
VERTEX
  8
0
 62
40
  6
CONTINUOUS
 10
217.817502988
 20
-241.6768717292
  0
VERTEX
  8
0
 62
40
  6
CONTINUOUS
 10
217.8167146974
 20
-241.6914925142
  0
VERTEX
  8
0
 62
40
  6
CONTINUOUS
 10
217.8159029001
 20
-241.7006023599
  0
VERTEX
  8
0
 62
40
  6
CONTINUOUS
 10
217.8150684932
 20
-241.7041911997
  0
SEQEND
  0
POLYLINE
  8
0
 62
7
  6
CONTINUOUS
 66
1
 70
0
  0
VERTEX
  8
0
 62
7
  6
CONTINUOUS
 10
353.6124042354
 20
110.5363377425
  0
VERTEX
  8
0
 62
7
  6
CONTINUOUS
 10
353.6266586608
 20
110.5254068743
  0
VERTEX
  8
0
 62
7
  6
CONTINUOUS
 10
353.6603789869
 20
110.5505683032
  0
VERTEX
  8
0
 62
7
  6
CONTINUOUS
 10
353.7119759418
 20
110.6043095116
  0
SEQEND
  0
POLYLINE
  8
0
 62
7
  6
CONTINUOUS
 66
1
 70
0
  0
VERTEX
  8
0
 62
7
  6
CONTINUOUS
 10
353.7113978215
 20
110.5374027309
  0
VERTEX
  8
0
 62
7
  6
CONTINUOUS
 10
353.6739823669
 20
110.5741934869
  0
VERTEX
  8
0
 62
7
  6
CONTINUOUS
 10
353.6450848393
 20
110.5903605383
  0
VERTEX
  8
0
 62
7
  6
CONTINUOUS
 10
353.6239563005
 20
110.5811154705
  0
VERTEX
  8
0
 62
7
  6
CONTINUOUS
 10
353.6128438112
 20
110.5608235899
  0
VERTEX
  8
0
 62
7
  6
CONTINUOUS
 10
353.6124042354
 20
110.5363377425
  0
SEQEND
  0
LINE
  8
0
 62
7
  6
CONTINUOUS
 10
-1.1922620265
 20
505.6185121184
 11
-1.1272844777
 21
505.5412250408
  0
LINE
  8
0
 62
7
  6
CONTINUOUS
 10
-1.1967975438
 20
505.6241089828
 11
0.3061598498
 21
503.7739862761
  0
LINE
  8
0
 62
7
  6
CONTINUOUS
 10
317.7381328386
 20
-236.6386636409
 11
317.7388595164
 21
-236.6439577893
  0
POLYLINE
  8
0
 62
7
  6
CONTINUOUS
 66
1
 70
0
  0
VERTEX
  8
0
 62
7
  6
CONTINUOUS
 10
317.7388595164
 20
-236.6439577893
  0
VERTEX
  8
0
 62
7
  6
CONTINUOUS
 10
317.4372793137
 20
-233.3525103171
  0
VERTEX
  8
0
 62
7
  6
CONTINUOUS
 10
317.0524386367
 20
-229.3580879423
  0
VERTEX
  8
0
 62
7
  6
CONTINUOUS
 10
316.6377222129
 20
-225.2946309489
  0
VERTEX
  8
0
 62
7
  6
CONTINUOUS
 10
316.1961120958
 20
-221.183507382
  0
VERTEX
  8
0
 62
7
  6
CONTINUOUS
 10
315.734174201
 20
-217.0623728979
  0
VERTEX
  8
0
 62
7
  6
CONTINUOUS
 10
315.2585139035
 20
-212.9586102229
  0
VERTEX
  8
0
 62
7
  6
CONTINUOUS
 10
314.7794373418
 20
-208.9239971017
  0
VERTEX
  8
0
 62
7
  6
CONTINUOUS
 10
314.3097349359
 20
-205.0264349224
  0
VERTEX
  8
0
 62
7
  6
CONTINUOUS
 10
313.8512733398
 20
-201.2447737923
  0
VERTEX
  8
0
 62
7
  6
CONTINUOUS
 10
313.4084949965
 20
-197.5846365932
  0
VERTEX
  8
0
 62
7
  6
CONTINUOUS
 10
312.9830166144
 20
-194.0338426851
  0
VERTEX
  8
0
 62
7
  6
CONTINUOUS
 10
312.57613855
 20
-190.5829672101
  0
VERTEX
  8
0
 62
7
  6
CONTINUOUS
 10
312.189347565
 20
-187.229629883
  0
VERTEX
  8
0
 62
7
  6
CONTINUOUS
 10
311.8224845964
 20
-183.9646043549
  0
VERTEX
  8
0
 62
7
  6
CONTINUOUS
 10
311.4769897743
 20
-180.79935075
  0
VERTEX
  8
0
 62
7
  6
CONTINUOUS
 10
311.1534310689
 20
-177.7418258089
  0
VERTEX
  8
0
 62
7
  6
CONTINUOUS
 10
310.8513105226
 20
-174.7934626378
  0
VERTEX
  8
0
 62
7
  6
CONTINUOUS
 10
310.5691946498
 20
-171.9486972097
  0
VERTEX
  8
0
 62
7
  6
CONTINUOUS
 10
310.3089503315
 20
-169.2365318537
  0
VERTEX
  8
0
 62
7
  6
CONTINUOUS
 10
310.0729111907
 20
-166.6937259781
  0
VERTEX
  8
0
 62
7
  6
CONTINUOUS
 10
309.8571501883
 20
-164.2914827291
  0
VERTEX
  8
0
 62
7
  6
CONTINUOUS
 10
309.6594439383
 20
-162.0170624088
  0
VERTEX
  8
0
 62
7
  6
CONTINUOUS
 10
309.4778249247
 20
-159.8590043756
  0
VERTEX
  8
0
 62
7
  6
CONTINUOUS
 10
309.3102991236
 20
-157.8037666813
  0
VERTEX
  8
0
 62
7
  6
CONTINUOUS
 10
309.1555773355
 20
-155.8448081502
  0
VERTEX
  8
0
 62
7
  6
CONTINUOUS
 10
309.0121520435
 20
-153.9715247301
  0
VERTEX
  8
0
 62
7
  6
CONTINUOUS
 10
308.9856854937
 20
-153.6150885129
  0
SEQEND
  0
POLYLINE
  8
0
 62
7
  6
CONTINUOUS
 66
1
 70
0
  0
VERTEX
  8
0
 62
7
  6
CONTINUOUS
 10
310.6165103356
 20
-184.7755611668
  0
VERTEX
  8
0
 62
7
  6
CONTINUOUS
 10
308.7137430109
 20
-148.419033069
  0
VERTEX
  8
0
 62
7
  6
CONTINUOUS
 10
306.8999990765
 20
-110.6449123732
  0
VERTEX
  8
0
 62
7
  6
CONTINUOUS
 10
305.6725092183
 20
-71.4522789767
  0
VERTEX
  8
0
 62
7
  6
CONTINUOUS
 10
305.3272446838
 20
-30.849533498
  0
SEQEND
  0
LINE
  8
0
 62
7
  6
CONTINUOUS
 10
310.8187004894
 20
-189.0051626457
 11
310.6165103356
 21
-184.7755611668
  0
LINE
  8
0
 62
7
  6
CONTINUOUS
 10
310.8190433108
 20
-189.0110486494
 11
311.1477078238
 21
-196.2723425357
  0
POLYLINE
  8
0
 62
7
  6
CONTINUOUS
 66
1
 70
0
  0
VERTEX
  8
0
 62
7
  6
CONTINUOUS
 10
311.1477078238
 20
-196.2723425357
  0
VERTEX
  8
0
 62
7
  6
CONTINUOUS
 10
311.384924819
 20
-202.0013958762
  0
VERTEX
  8
0
 62
7
  6
CONTINUOUS
 10
311.9507221215
 20
-219.7849630102
  0
SEQEND
  0
LINE
  8
0
 62
7
  6
CONTINUOUS
 10
313.0452255731
 20
104.4465637622
 11
313.0273384269
 21
104.4358360033
  0
POLYLINE
  8
0
 62
7
  6
CONTINUOUS
 66
1
 70
0
  0
VERTEX
  8
0
 62
7
  6
CONTINUOUS
 10
305.3272446838
 20
-30.849533498
  0
VERTEX
  8
0
 62
7
  6
CONTINUOUS
 10
305.9360814076
 20
11.1352571007
  0
VERTEX
  8
0
 62
7
  6
CONTINUOUS
 10
307.3494888959
 20
54.4876499317
  0
VERTEX
  8
0
 62
7
  6
CONTINUOUS
 10
309.1431166543
 20
97.8989183329
  0
SEQEND
  0
POLYLINE
  8
0
 62
7
  6
CONTINUOUS
 66
1
 70
0
  0
VERTEX
  8
0
 62
7
  6
CONTINUOUS
 10
309.1431172659
 20
97.8989187827
  0
VERTEX
  8
0
 62
7
  6
CONTINUOUS
 10
309.1553474811
 20
98.1185566504
  0
VERTEX
  8
0
 62
7
  6
CONTINUOUS
 10
309.3618208313
 20
99.4497296197
  0
VERTEX
  8
0
 62
7
  6
CONTINUOUS
 10
309.7859227537
 20
100.7218180569
  0
VERTEX
  8
0
 62
7
  6
CONTINUOUS
 10
310.4073426759
 20
101.892055217
  0
VERTEX
  8
0
 62
7
  6
CONTINUOUS
 10
311.1957267798
 20
102.9253792872
  0
VERTEX
  8
0
 62
7
  6
CONTINUOUS
 10
312.1315659747
 20
103.8101563281
  0
VERTEX
  8
0
 62
7
  6
CONTINUOUS
 10
313.0264926668
 20
104.4346849473
  0
SEQEND
  0
POLYLINE
  8
0
 62
7
  6
CONTINUOUS
 66
1
 70
0
  0
VERTEX
  8
0
 62
7
  6
CONTINUOUS
 10
358.9421613513
 20
161.2817631473
  0
VERTEX
  8
0
 62
7
  6
CONTINUOUS
 10
359.2437504507
 20
161.6627073292
  0
VERTEX
  8
0
 62
7
  6
CONTINUOUS
 10
359.5561812684
 20
162.1933104452
  0
VERTEX
  8
0
 62
7
  6
CONTINUOUS
 10
359.7826757685
 20
162.7624384753
  0
VERTEX
  8
0
 62
7
  6
CONTINUOUS
 10
359.9201522594
 20
163.3620847257
  0
VERTEX
  8
0
 62
7
  6
CONTINUOUS
 10
359.9635392245
 20
163.8800645403
  0
SEQEND
  0
LINE
  8
0
 62
7
  6
CONTINUOUS
 10
356.5413076932
 20
158.6119230743
 11
358.9428853326
 21
161.2825719699
  0
LINE
  8
0
 62
7
  6
CONTINUOUS
 10
358.8605093294
 20
161.1932881241
 11
358.9363922678
 21
161.2753337699
  0
POLYLINE
  8
0
 62
7
  6
CONTINUOUS
 66
1
 70
0
  0
VERTEX
  8
0
 62
7
  6
CONTINUOUS
 10
359.6496797245
 20
152.29595387
  0
VERTEX
  8
0
 62
7
  6
CONTINUOUS
 10
359.6082865089
 20
153.1135761194
  0
VERTEX
  8
0
 62
7
  6
CONTINUOUS
 10
359.362285402
 20
154.4259481628
  0
VERTEX
  8
0
 62
7
  6
CONTINUOUS
 10
358.8995906256
 20
155.6806773549
  0
VERTEX
  8
0
 62
7
  6
CONTINUOUS
 10
358.2361118091
 20
156.8387662914
  0
VERTEX
  8
0
 62
7
  6
CONTINUOUS
 10
357.3919410849
 20
157.8700807667
  0
VERTEX
  8
0
 62
7
  6
CONTINUOUS
 10
356.3898216133
 20
158.744034962
  0
VERTEX
  8
0
 62
7
  6
CONTINUOUS
 10
355.2599381873
 20
159.4388463164
  0
VERTEX
  8
0
 62
7
  6
CONTINUOUS
 10
354.0323984621
 20
159.9368111347
  0
VERTEX
  8
0
 62
7
  6
CONTINUOUS
 10
352.7442080421
 20
160.2244844982
  0
VERTEX
  8
0
 62
7
  6
CONTINUOUS
 10
351.6516085799
 20
160.299821895
  0
SEQEND
  0
LINE
  8
0
 62
7
  6
CONTINUOUS
 10
359.9635806348
 20
163.8801518763
 11
366.2530305784
 21
501.5482970266
  0
POLYLINE
  8
0
 62
7
  6
CONTINUOUS
 66
1
 70
0
  0
VERTEX
  8
0
 62
7
  6
CONTINUOUS
 10
359.6470955826
 20
152.1143012506
  0
VERTEX
  8
0
 62
7
  6
CONTINUOUS
 10
359.6477347915
 20
152.144582571
  0
VERTEX
  8
0
 62
7
  6
CONTINUOUS
 10
359.6482558262
 20
152.1748578167
  0
VERTEX
  8
0
 62
7
  6
CONTINUOUS
 10
359.6486569104
 20
152.2051231495
  0
VERTEX
  8
0
 62
7
  6
CONTINUOUS
 10
359.6489433747
 20
152.2353883494
  0
VERTEX
  8
0
 62
7
  6
CONTINUOUS
 10
359.6491205695
 20
152.2656631965
  0
VERTEX
  8
0
 62
7
  6
CONTINUOUS
 10
359.649186742
 20
152.2959438525
  0
SEQEND
  0
LINE
  8
0
 62
7
  6
CONTINUOUS
 10
359.6359819571
 20
151.6315711187
 11
359.6465398956
 21
152.0941313358
  0
LINE
  8
0
 62
7
  6
CONTINUOUS
 10
359.6359819571
 20
151.6315711187
 11
358.6840999031
 21
110.4640103873
  0
LINE
  8
0
 62
7
  6
CONTINUOUS
 10
366.2530310232
 20
501.5483486267
 11
366.2530328094
 21
501.5484168005
  0
LINE
  8
0
 62
7
  6
CONTINUOUS
 10
351.2725696041
 20
91.4121068005
 11
351.2737505016
 21
91.4375787732
  0
POLYLINE
  8
0
 62
7
  6
CONTINUOUS
 66
1
 70
0
  0
VERTEX
  8
0
 62
7
  6
CONTINUOUS
 10
351.2844597694
 20
91.4118205327
  0
VERTEX
  8
0
 62
7
  6
CONTINUOUS
 10
351.3304026871
 20
92.0173511015
  0
VERTEX
  8
0
 62
7
  6
CONTINUOUS
 10
351.3713218293
 20
92.3040350079
  0
VERTEX
  8
0
 62
7
  6
CONTINUOUS
 10
351.40189666
 20
92.4681239842
  0
VERTEX
  8
0
 62
7
  6
CONTINUOUS
 10
351.4731022978
 20
92.7708062674
  0
VERTEX
  8
0
 62
7
  6
CONTINUOUS
 10
351.5717951854
 20
93.1034744757
  0
VERTEX
  8
0
 62
7
  6
CONTINUOUS
 10
351.6975850918
 20
93.4480466246
  0
VERTEX
  8
0
 62
7
  6
CONTINUOUS
 10
351.821822377
 20
93.7322086151
  0
SEQEND
  0
LINE
  8
0
 62
7
  6
CONTINUOUS
 10
353.7621468676
 20
98.7398614557
 11
353.8563776828
 21
99.0703125002
  0
POLYLINE
  8
0
 62
7
  6
CONTINUOUS
 66
1
 70
0
  0
VERTEX
  8
0
 62
7
  6
CONTINUOUS
 10
353.8563776828
 20
99.0703125002
  0
VERTEX
  8
0
 62
7
  6
CONTINUOUS
 10
353.8955722742
 20
99.2068327851
  0
VERTEX
  8
0
 62
7
  6
CONTINUOUS
 10
353.9089170255
 20
99.2522504073
  0
SEQEND
  0
POLYLINE
  8
0
 62
7
  6
CONTINUOUS
 66
1
 70
0
  0
VERTEX
  8
0
 62
7
  6
CONTINUOUS
 10
352.3360197003
 20
94.7038810677
  0
VERTEX
  8
0
 62
7
  6
CONTINUOUS
 10
352.4944027575
 20
95.0557734686
  0
VERTEX
  8
0
 62
7
  6
CONTINUOUS
 10
352.6536102055
 20
95.4437862288
  0
VERTEX
  8
0
 62
7
  6
CONTINUOUS
 10
352.7772423274
 20
95.7642924287
  0
VERTEX
  8
0
 62
7
  6
CONTINUOUS
 10
352.886009739
 20
96.0537520744
  0
VERTEX
  8
0
 62
7
  6
CONTINUOUS
 10
352.9957647126
 20
96.3491800232
  0
VERTEX
  8
0
 62
7
  6
CONTINUOUS
 10
353.1044492858
 20
96.6488643471
  0
VERTEX
  8
0
 62
7
  6
CONTINUOUS
 10
353.2183191098
 20
96.9746638133
  0
VERTEX
  8
0
 62
7
  6
CONTINUOUS
 10
353.328719381
 20
97.305374477
  0
VERTEX
  8
0
 62
7
  6
CONTINUOUS
 10
353.4290282893
 20
97.6196144158
  0
VERTEX
  8
0
 62
7
  6
CONTINUOUS
 10
353.5221087624
 20
97.9217881832
  0
VERTEX
  8
0
 62
7
  6
CONTINUOUS
 10
353.6078252146
 20
98.2079848543
  0
VERTEX
  8
0
 62
7
  6
CONTINUOUS
 10
353.6872902398
 20
98.479470673
  0
VERTEX
  8
0
 62
7
  6
CONTINUOUS
 10
353.7621468676
 20
98.7398614557
  0
SEQEND
  0
LINE
  8
0
 62
7
  6
CONTINUOUS
 10
358.2151851378
 20
108.4617153496
 11
353.8027868535
 21
99.0252917658
  0
LINE
  8
0
 62
7
  6
CONTINUOUS
 10
352.2982256464
 20
94.6248753907
 11
352.3388065387
 21
94.7097629589
  0
LINE
  8
0
 62
7
  6
CONTINUOUS
 10
351.834652384
 20
93.7590317153
 11
351.8213085996
 21
93.7311191514
  0
POLYLINE
  8
0
 62
7
  6
CONTINUOUS
 66
1
 70
0
  0
VERTEX
  8
0
 62
7
  6
CONTINUOUS
 10
351.835151425
 20
93.760067393
  0
VERTEX
  8
0
 62
7
  6
CONTINUOUS
 10
351.8419523805
 20
93.7740752034
  0
VERTEX
  8
0
 62
7
  6
CONTINUOUS
 10
351.8678998428
 20
93.8260886026
  0
VERTEX
  8
0
 62
7
  6
CONTINUOUS
 10
351.902902326
 20
93.8931888448
  0
VERTEX
  8
0
 62
7
  6
CONTINUOUS
 10
351.9426316463
 20
93.9656516723
  0
SEQEND
  0
LINE
  8
0
 62
7
  6
CONTINUOUS
 10
352.1355264009
 20
94.3244337544
 11
352.3360197003
 21
94.7038810677
  0
LINE
  8
0
 62
7
  6
CONTINUOUS
 10
352.1402286291
 20
94.3343709001
 11
351.8335178965
 21
93.756695481
  0
LINE
  8
0
 62
7
  6
CONTINUOUS
 10
352.135461387
 20
94.3243225827
 11
351.834652384
 21
93.7590317153
  0
LINE
  8
0
 62
7
  6
CONTINUOUS
 10
351.9426316463
 20
93.9656516723
 11
351.9825890683
 21
94.0349120714
  0
POLYLINE
  8
0
 62
7
  6
CONTINUOUS
 66
1
 70
0
  0
VERTEX
  8
0
 62
7
  6
CONTINUOUS
 10
351.9716358973
 20
94.0129642296
  0
VERTEX
  8
0
 62
7
  6
CONTINUOUS
 10
352.0187849892
 20
94.0935045718
  0
VERTEX
  8
0
 62
7
  6
CONTINUOUS
 10
352.1266691582
 20
94.2874756506
  0
VERTEX
  8
0
 62
7
  6
CONTINUOUS
 10
352.2185786223
 20
94.463795897
  0
VERTEX
  8
0
 62
7
  6
CONTINUOUS
 10
352.2982256464
 20
94.6248753907
  0
SEQEND
  0
LINE
  8
0
 62
7
  6
CONTINUOUS
 10
351.9713568731
 20
94.0161629138
 11
351.9825890683
 21
94.0349120714
  0
POLYLINE
  8
0
 62
7
  6
CONTINUOUS
 66
1
 70
0
  0
VERTEX
  8
0
 62
7
  6
CONTINUOUS
 10
366.2529884824
 20
501.5481718321
  0
VERTEX
  8
0
 62
7
  6
CONTINUOUS
 10
366.2388023813
 20
501.9012384709
  0
VERTEX
  8
0
 62
7
  6
CONTINUOUS
 10
366.1613369101
 20
502.3429437843
  0
VERTEX
  8
0
 62
7
  6
CONTINUOUS
 10
366.0296588299
 20
502.7425945177
  0
VERTEX
  8
0
 62
7
  6
CONTINUOUS
 10
365.85333195
 20
503.1029810869
  0
VERTEX
  8
0
 62
7
  6
CONTINUOUS
 10
365.6407204686
 20
503.4235111861
  0
VERTEX
  8
0
 62
7
  6
CONTINUOUS
 10
365.3942371034
 20
503.7090017758
  0
VERTEX
  8
0
 62
7
  6
CONTINUOUS
 10
365.1203624115
 20
503.9564966654
  0
VERTEX
  8
0
 62
7
  6
CONTINUOUS
 10
364.8163398728
 20
504.1700692925
  0
VERTEX
  8
0
 62
7
  6
CONTINUOUS
 10
364.5044334728
 20
504.3377047525
  0
VERTEX
  8
0
 62
7
  6
CONTINUOUS
 10
364.1963308063
 20
504.4614582193
  0
VERTEX
  8
0
 62
7
  6
CONTINUOUS
 10
363.9163472636
 20
504.5432292534
  0
VERTEX
  8
0
 62
7
  6
CONTINUOUS
 10
363.6909472606
 20
504.5909169354
  0
VERTEX
  8
0
 62
7
  6
CONTINUOUS
 10
363.4929898031
 20
504.6219748962
  0
VERTEX
  8
0
 62
7
  6
CONTINUOUS
 10
363.3113553553
 20
504.6438336643
  0
VERTEX
  8
0
 62
7
  6
CONTINUOUS
 10
363.1285316557
 20
504.6613784945
  0
VERTEX
  8
0
 62
7
  6
CONTINUOUS
 10
362.927648375
 20
504.6771542962
  0
VERTEX
  8
0
 62
7
  6
CONTINUOUS
 10
362.7078013475
 20
504.6915608552
  0
VERTEX
  8
0
 62
7
  6
CONTINUOUS
 10
362.4679516141
 20
504.7049187897
  0
VERTEX
  8
0
 62
7
  6
CONTINUOUS
 10
362.2044052273
 20
504.7175540073
  0
VERTEX
  8
0
 62
7
  6
CONTINUOUS
 10
361.9130178718
 20
504.7296644935
  0
VERTEX
  8
0
 62
7
  6
CONTINUOUS
 10
361.593521981
 20
504.7412101844
  0
VERTEX
  8
0
 62
7
  6
CONTINUOUS
 10
361.2446849237
 20
504.7521698194
  0
VERTEX
  8
0
 62
7
  6
CONTINUOUS
 10
360.8664251453
 20
504.7624815325
  0
VERTEX
  8
0
 62
7
  6
CONTINUOUS
 10
360.4590235449
 20
504.7720866259
  0
VERTEX
  8
0
 62
7
  6
CONTINUOUS
 10
360.0231410724
 20
504.7809110423
  0
VERTEX
  8
0
 62
7
  6
CONTINUOUS
 10
359.5596964313
 20
504.7888694628
  0
VERTEX
  8
0
 62
7
  6
CONTINUOUS
 10
359.0696653061
 20
504.7958690414
  0
VERTEX
  8
0
 62
7
  6
CONTINUOUS
 10
358.5543208082
 20
504.8018106451
  0
VERTEX
  8
0
 62
7
  6
CONTINUOUS
 10
358.0156976638
 20
504.8066076948
  0
VERTEX
  8
0
 62
7
  6
CONTINUOUS
 10
357.4562040309
 20
504.8101744988
  0
VERTEX
  8
0
 62
7
  6
CONTINUOUS
 10
356.8786728095
 20
504.8124183022
  0
VERTEX
  8
0
 62
7
  6
CONTINUOUS
 10
356.292427829
 20
504.8132390139
  0
SEQEND
  0
POLYLINE
  8
0
 62
7
  6
CONTINUOUS
 66
1
 70
0
  0
VERTEX
  8
0
 62
7
  6
CONTINUOUS
 10
366.8240366745
 20
537.2395400414
  0
VERTEX
  8
0
 62
7
  6
CONTINUOUS
 10
366.8149522197
 20
537.4713988118
  0
VERTEX
  8
0
 62
7
  6
CONTINUOUS
 10
366.7227737987
 20
538.2798025748
  0
VERTEX
  8
0
 62
7
  6
CONTINUOUS
 10
366.5389817312
 20
539.0683637008
  0
VERTEX
  8
0
 62
7
  6
CONTINUOUS
 10
366.4160034864
 20
539.4460587039
  0
SEQEND
  0
LINE
  8
0
 62
7
  6
CONTINUOUS
 10
366.8240697953
 20
537.2394245242
 11
367.4960661548
 21
507.58556406
  0
POLYLINE
  8
0
 62
7
  6
CONTINUOUS
 66
1
 70
0
  0
VERTEX
  8
0
 62
7
  6
CONTINUOUS
 10
358.2153307195
 20
108.4620267214
  0
VERTEX
  8
0
 62
7
  6
CONTINUOUS
 10
358.4118929769
 20
108.9472626206
  0
VERTEX
  8
0
 62
7
  6
CONTINUOUS
 10
358.6068345802
 20
109.6950607854
  0
VERTEX
  8
0
 62
7
  6
CONTINUOUS
 10
358.684099903
 20
110.4640103873
  0
SEQEND
  0
POLYLINE
  8
0
 62
7
  6
CONTINUOUS
 66
1
 70
0
  0
VERTEX
  8
0
 62
7
  6
CONTINUOUS
 10
305.3676861282
 20
-28.0607306776
  0
VERTEX
  8
0
 62
7
  6
CONTINUOUS
 10
305.4651030117
 20
-27.9787299567
  0
VERTEX
  8
0
 62
7
  6
CONTINUOUS
 10
309.5649475865
 20
-24.2424965422
  0
VERTEX
  8
0
 62
7
  6
CONTINUOUS
 10
313.4453208696
 20
-20.3998777637
  0
VERTEX
  8
0
 62
7
  6
CONTINUOUS
 10
317.1053831651
 20
-16.4498244461
  0
VERTEX
  8
0
 62
7
  6
CONTINUOUS
 10
320.5526879405
 20
-12.3823357364
  0
VERTEX
  8
0
 62
7
  6
CONTINUOUS
 10
323.7686410026
 20
-8.2206837596
  0
VERTEX
  8
0
 62
7
  6
CONTINUOUS
 10
326.7474218463
 20
-3.9836570386
  0
VERTEX
  8
0
 62
7
  6
CONTINUOUS
 10
329.4900309077
 20
0.3122049849
  0
VERTEX
  8
0
 62
7
  6
CONTINUOUS
 10
331.9980152704
 20
4.6459130709
  0
VERTEX
  8
0
 62
7
  6
CONTINUOUS
 10
334.2811610758
 20
9.0049217703
  0
VERTEX
  8
0
 62
7
  6
CONTINUOUS
 10
336.3489712299
 20
13.3714706697
  0
VERTEX
  8
0
 62
7
  6
CONTINUOUS
 10
338.2154885965
 20
17.7354170758
  0
VERTEX
  8
0
 62
7
  6
CONTINUOUS
 10
339.8934271029
 20
22.0837516959
  0
VERTEX
  8
0
 62
7
  6
CONTINUOUS
 10
341.3970225635
 20
26.407006534
  0
VERTEX
  8
0
 62
7
  6
CONTINUOUS
 10
342.7396888064
 20
30.694150626
  0
VERTEX
  8
0
 62
7
  6
CONTINUOUS
 10
343.9352666784
 20
34.9374155055
  0
VERTEX
  8
0
 62
7
  6
CONTINUOUS
 10
344.9965571009
 20
39.1282845299
  0
VERTEX
  8
0
 62
7
  6
CONTINUOUS
 10
345.9357704924
 20
43.2597525605
  0
VERTEX
  8
0
 62
7
  6
CONTINUOUS
 10
346.7648119
 20
47.3282683859
  0
VERTEX
  8
0
 62
7
  6
CONTINUOUS
 10
347.4922839972
 20
51.317060968
  0
VERTEX
  8
0
 62
7
  6
CONTINUOUS
 10
348.127250356
 20
55.2119585278
  0
VERTEX
  8
0
 62
7
  6
CONTINUOUS
 10
348.6788154632
 20
59.0021962777
  0
VERTEX
  8
0
 62
7
  6
CONTINUOUS
 10
349.1549834591
 20
62.6759475301
  0
VERTEX
  8
0
 62
7
  6
CONTINUOUS
 10
349.5636278106
 20
66.2240767466
  0
VERTEX
  8
0
 62
7
  6
CONTINUOUS
 10
349.9119783291
 20
69.6357630192
  0
VERTEX
  8
0
 62
7
  6
CONTINUOUS
 10
350.2073071676
 20
72.9053328968
  0
VERTEX
  8
0
 62
7
  6
CONTINUOUS
 10
350.4559041641
 20
76.0228224014
  0
VERTEX
  8
0
 62
7
  6
CONTINUOUS
 10
350.6642187447
 20
78.9918179235
  0
VERTEX
  8
0
 62
7
  6
CONTINUOUS
 10
350.8382808021
 20
81.8225354631
  0
VERTEX
  8
0
 62
7
  6
CONTINUOUS
 10
350.9815278566
 20
84.4868161457
  0
VERTEX
  8
0
 62
7
  6
CONTINUOUS
 10
351.0969354951
 20
86.9357667284
  0
VERTEX
  8
0
 62
7
  6
CONTINUOUS
 10
351.1927161283
 20
89.2414778469
  0
VERTEX
  8
0
 62
7
  6
CONTINUOUS
 10
351.2737505016
 20
91.4375787732
  0
SEQEND
  0
LINE
  8
0
 62
7
  6
CONTINUOUS
 10
201.4391642527
 20
556.9932550688
 11
204.2778957289
 21
553.3307915926
  0
POLYLINE
  8
0
 62
7
  6
CONTINUOUS
 66
1
 70
0
  0
VERTEX
  8
0
 62
7
  6
CONTINUOUS
 10
210.3065948135
 20
551.5689402518
  0
VERTEX
  8
0
 62
7
  6
CONTINUOUS
 10
210.3770575437
 20
551.4972076754
  0
VERTEX
  8
0
 62
7
  6
CONTINUOUS
 10
210.4405714632
 20
551.417942576
  0
VERTEX
  8
0
 62
7
  6
CONTINUOUS
 10
210.5084818987
 20
551.309861578
  0
VERTEX
  8
0
 62
7
  6
CONTINUOUS
 10
210.5693001811
 20
551.1748103942
  0
SEQEND
  0
POLYLINE
  8
0
 62
7
  6
CONTINUOUS
 66
1
 70
0
  0
VERTEX
  8
0
 62
7
  6
CONTINUOUS
 10
366.4183100285
 20
539.4395898959
  0
VERTEX
  8
0
 62
7
  6
CONTINUOUS
 10
366.1217671924
 20
540.2273364288
  0
VERTEX
  8
0
 62
7
  6
CONTINUOUS
 10
365.7663036322
 20
541.0607217446
  0
VERTEX
  8
0
 62
7
  6
CONTINUOUS
 10
365.3672830636
 20
541.8684293088
  0
VERTEX
  8
0
 62
7
  6
CONTINUOUS
 10
364.887825754
 20
542.6884998921
  0
VERTEX
  8
0
 62
7
  6
CONTINUOUS
 10
364.2867671155
 20
543.5321225871
  0
VERTEX
  8
0
 62
7
  6
CONTINUOUS
 10
363.498594177
 20
544.4048825416
  0
VERTEX
  8
0
 62
7
  6
CONTINUOUS
 10
362.4310144268
 20
545.2827882905
  0
VERTEX
  8
0
 62
7
  6
CONTINUOUS
 10
361.0738933625
 20
546.035627614
  0
VERTEX
  8
0
 62
7
  6
CONTINUOUS
 10
359.4638742216
 20
546.5298787904
  0
VERTEX
  8
0
 62
7
  6
CONTINUOUS
 10
358.3066575077
 20
546.6586952984
  0
SEQEND
  0
LINE
  8
0
 62
7
  6
CONTINUOUS
 10
366.4183026648
 20
539.4396105799
 11
366.4160034864
 21
539.4460587039
  0
POLYLINE
  8
0
 62
7
  6
CONTINUOUS
 66
1
 70
0
  0
VERTEX
  8
0
 62
7
  6
CONTINUOUS
 10
9.337709165
 20
504.813239014
  0
VERTEX
  8
0
 62
7
  6
CONTINUOUS
 10
8.8942455996
 20
504.812752825
  0
VERTEX
  8
0
 62
7
  6
CONTINUOUS
 10
8.357308236
 20
504.8110427317
  0
VERTEX
  8
0
 62
7
  6
CONTINUOUS
 10
7.8352317735
 20
504.8081827815
  0
VERTEX
  8
0
 62
7
  6
CONTINUOUS
 10
7.3302657177
 20
504.8042493106
  0
VERTEX
  8
0
 62
7
  6
CONTINUOUS
 10
6.8443476723
 20
504.7993129687
  0
VERTEX
  8
0
 62
7
  6
CONTINUOUS
 10
6.3791951931
 20
504.7934399255
  0
VERTEX
  8
0
 62
7
  6
CONTINUOUS
 10
5.9360055517
 20
504.7867013977
  0
VERTEX
  8
0
 62
7
  6
CONTINUOUS
 10
5.5156237948
 20
504.7791747512
  0
VERTEX
  8
0
 62
7
  6
CONTINUOUS
 10
5.118808657
 20
504.7709313751
  0
VERTEX
  8
0
 62
7
  6
CONTINUOUS
 10
4.7461375473
 20
504.7620341616
  0
VERTEX
  8
0
 62
7
  6
CONTINUOUS
 10
4.3980327193
 20
504.7525372528
  0
VERTEX
  8
0
 62
7
  6
CONTINUOUS
 10
4.0748007412
 20
504.742487293
  0
VERTEX
  8
0
 62
7
  6
CONTINUOUS
 10
3.7761213682
 20
504.7319207143
  0
VERTEX
  8
0
 62
7
  6
CONTINUOUS
 10
3.5016325489
 20
504.7208762602
  0
VERTEX
  8
0
 62
7
  6
CONTINUOUS
 10
3.2499788048
 20
504.7093349848
  0
VERTEX
  8
0
 62
7
  6
CONTINUOUS
 10
3.019989151
 20
504.6972515796
  0
VERTEX
  8
0
 62
7
  6
CONTINUOUS
 10
2.8102083575
 20
504.6845209415
  0
VERTEX
  8
0
 62
7
  6
CONTINUOUS
 10
2.6187672705
 20
504.6709416491
  0
VERTEX
  8
0
 62
7
  6
CONTINUOUS
 10
2.4428191252
 20
504.6561282399
  0
VERTEX
  8
0
 62
7
  6
CONTINUOUS
 10
2.2804245369
 20
504.639642613
  0
VERTEX
  8
0
 62
7
  6
CONTINUOUS
 10
2.1182291685
 20
504.6193715448
  0
VERTEX
  8
0
 62
7
  6
CONTINUOUS
 10
1.9454305258
 20
504.5920374132
  0
VERTEX
  8
0
 62
7
  6
CONTINUOUS
 10
1.7455679666
 20
504.5508616391
  0
VERTEX
  8
0
 62
7
  6
CONTINUOUS
 10
1.4928325385
 20
504.4809749374
  0
VERTEX
  8
0
 62
7
  6
CONTINUOUS
 10
1.2032341682
 20
504.3724795833
  0
VERTEX
  8
0
 62
7
  6
CONTINUOUS
 10
0.8864573701
 20
504.2133568507
  0
VERTEX
  8
0
 62
7
  6
CONTINUOUS
 10
0.5641236187
 20
503.9988822079
  0
VERTEX
  8
0
 62
7
  6
CONTINUOUS
 10
0.2632160479
 20
503.7365473504
  0
VERTEX
  8
0
 62
7
  6
CONTINUOUS
 10
-0.008996025
 20
503.4255992926
  0
VERTEX
  8
0
 62
7
  6
CONTINUOUS
 10
-0.2388230481
 20
503.0754625157
  0
VERTEX
  8
0
 62
7
  6
CONTINUOUS
 10
-0.4213732808
 20
502.6876407553
  0
VERTEX
  8
0
 62
7
  6
CONTINUOUS
 10
-0.5490175329
 20
502.2687098219
  0
VERTEX
  8
0
 62
7
  6
CONTINUOUS
 10
-0.615119998
 20
501.8268406435
  0
VERTEX
  8
0
 62
7
  6
CONTINUOUS
 10
-0.6228514584
 20
501.548169975
  0
SEQEND
  0
LINE
  8
0
 62
7
  6
CONTINUOUS
 10
9.3377092356
 20
504.813239014
 11
147.8299279445
 21
504.8343561386
  0
POLYLINE
  8
0
 62
7
  6
CONTINUOUS
 66
1
 70
0
  0
VERTEX
  8
0
 62
7
  6
CONTINUOUS
 10
217.8002090418
 20
504.8343561386
  0
VERTEX
  8
0
 62
7
  6
CONTINUOUS
 10
206.7229850604
 20
504.835777777
  0
VERTEX
  8
0
 62
7
  6
CONTINUOUS
 10
194.7868072418
 20
504.8367110417
  0
VERTEX
  8
0
 62
7
  6
CONTINUOUS
 10
182.8505900996
 20
504.8370233621
  0
VERTEX
  8
0
 62
7
  6
CONTINUOUS
 10
170.9143727135
 20
504.8367147374
  0
VERTEX
  8
0
 62
7
  6
CONTINUOUS
 10
158.9781941629
 20
504.8357851685
  0
VERTEX
  8
0
 62
7
  6
CONTINUOUS
 10
147.8299279445
 20
504.8343561386
  0
SEQEND
  0
LINE
  8
0
 62
7
  6
CONTINUOUS
 10
356.2924277507
 20
504.813239014
 11
217.8002090418
 21
504.8343561386
  0
LINE
  8
0
 62
40
  6
CONTINUOUS
 10
217.8490666143
 20
539.0403980747
 11
217.8150684932
 21
539.0403924457
  0
LINE
  8
0
 62
40
  6
CONTINUOUS
 10
147.8150684932
 20
539.0403924457
 11
147.781070372
 21
539.0403980747
  0
POLYLINE
  8
0
 62
7
  6
CONTINUOUS
 66
1
 70
0
  0
VERTEX
  8
0
 62
7
  6
CONTINUOUS
 10
209.8886057475
 20
551.7996518694
  0
VERTEX
  8
0
 62
7
  6
CONTINUOUS
 10
209.9244004364
 20
551.7891811474
  0
VERTEX
  8
0
 62
7
  6
CONTINUOUS
 10
209.9763854484
 20
551.7713966949
  0
VERTEX
  8
0
 62
7
  6
CONTINUOUS
 10
210.0318101249
 20
551.7488639657
  0
VERTEX
  8
0
 62
7
  6
CONTINUOUS
 10
210.0804290843
 20
551.72583353
  0
VERTEX
  8
0
 62
7
  6
CONTINUOUS
 10
210.1380899923
 20
551.6942019065
  0
VERTEX
  8
0
 62
7
  6
CONTINUOUS
 10
210.2164855393
 20
551.6427080708
  0
VERTEX
  8
0
 62
7
  6
CONTINUOUS
 10
210.3065956864
 20
551.5689394486
  0
SEQEND
  0
LINE
  8
0
 62
7
  6
CONTINUOUS
 10
201.4355984641
 20
556.9947402474
 11
201.4391642527
 21
556.9932550688
  0
LINE
  8
0
 62
7
  6
CONTINUOUS
 10
161.6765296769
 20
553.4199224296
 11
155.7415308707
 21
551.7996517689
  0
LINE
  8
0
 62
7
  6
CONTINUOUS
 10
182.1446817046
 20
558.4720359678
 11
182.0440653935
 21
558.4459771311
  0
LINE
  8
0
 62
7
  6
CONTINUOUS
 10
182.0440653935
 20
558.4459771311
 11
181.9338535211
 21
558.420182013
  0
POLYLINE
  8
0
 62
7
  6
CONTINUOUS
 66
1
 70
0
  0
VERTEX
  8
0
 62
7
  6
CONTINUOUS
 10
181.9338535211
 20
558.420182013
  0
VERTEX
  8
0
 62
7
  6
CONTINUOUS
 10
181.8144304921
 20
558.3947370585
  0
VERTEX
  8
0
 62
7
  6
CONTINUOUS
 10
181.6862221946
 20
558.3697738099
  0
VERTEX
  8
0
 62
7
  6
CONTINUOUS
 10
181.5496485131
 20
558.3452452088
  0
SEQEND
  0
POLYLINE
  8
0
 62
7
  6
CONTINUOUS
 66
1
 70
0
  0
VERTEX
  8
0
 62
7
  6
CONTINUOUS
 10
181.5496485131
 20
558.3452430913
  0
VERTEX
  8
0
 62
7
  6
CONTINUOUS
 10
180.7825646732
 20
558.206793351
  0
VERTEX
  8
0
 62
7
  6
CONTINUOUS
 10
179.9741775881
 20
558.0408902446
  0
VERTEX
  8
0
 62
7
  6
CONTINUOUS
 10
179.1241882959
 20
557.8489934371
  0
VERTEX
  8
0
 62
7
  6
CONTINUOUS
 10
178.2334936824
 20
557.6267239329
  0
VERTEX
  8
0
 62
7
  6
CONTINUOUS
 10
177.3029906334
 20
557.3697027361
  0
VERTEX
  8
0
 62
7
  6
CONTINUOUS
 10
176.3323801871
 20
557.079389512
  0
SEQEND
  0
POLYLINE
  8
0
 62
7
  6
CONTINUOUS
 66
1
 70
0
  0
VERTEX
  8
0
 62
7
  6
CONTINUOUS
 10
7.3233216824
 20
546.6586904531
  0
VERTEX
  8
0
 62
7
  6
CONTINUOUS
 10
6.1233098187
 20
546.5215985923
  0
VERTEX
  8
0
 62
7
  6
CONTINUOUS
 10
4.5224834337
 20
546.0209623603
  0
VERTEX
  8
0
 62
7
  6
CONTINUOUS
 10
3.1752128131
 20
545.2662189876
  0
VERTEX
  8
0
 62
7
  6
CONTINUOUS
 10
2.1160823888
 20
544.3898441347
  0
VERTEX
  8
0
 62
7
  6
CONTINUOUS
 10
1.3342658338
 20
543.5206316197
  0
VERTEX
  8
0
 62
7
  6
CONTINUOUS
 10
0.737513888
 20
542.681003838
  0
VERTEX
  8
0
 62
7
  6
CONTINUOUS
 10
0.2605244295
 20
541.8640679972
  0
VERTEX
  8
0
 62
7
  6
CONTINUOUS
 10
-0.1370841383
 20
541.0587158465
  0
VERTEX
  8
0
 62
7
  6
CONTINUOUS
 10
-0.4918079485
 20
540.2268909841
  0
VERTEX
  8
0
 62
7
  6
CONTINUOUS
 10
-0.7881618643
 20
539.4396212938
  0
SEQEND
  0
POLYLINE
  8
0
 62
7
  6
CONTINUOUS
 66
1
 70
0
  0
VERTEX
  8
0
 62
7
  6
CONTINUOUS
 10
161.6765296769
 20
553.4199224296
  0
VERTEX
  8
0
 62
7
  6
CONTINUOUS
 10
161.7263189531
 20
553.4254512948
  0
VERTEX
  8
0
 62
7
  6
CONTINUOUS
 10
161.8858525162
 20
553.4328419201
  0
VERTEX
  8
0
 62
7
  6
CONTINUOUS
 10
162.150848427
 20
553.440157874
  0
VERTEX
  8
0
 62
7
  6
CONTINUOUS
 10
162.5199713705
 20
553.4473622914
  0
VERTEX
  8
0
 62
7
  6
CONTINUOUS
 10
162.9913613359
 20
553.4544188693
  0
VERTEX
  8
0
 62
7
  6
CONTINUOUS
 10
163.5626429884
 20
553.4612920496
  0
VERTEX
  8
0
 62
7
  6
CONTINUOUS
 10
164.230937639
 20
553.4679471983
  0
VERTEX
  8
0
 62
7
  6
CONTINUOUS
 10
164.9928777501
 20
553.4743507801
  0
VERTEX
  8
0
 62
7
  6
CONTINUOUS
 10
165.8446239044
 20
553.4804705274
  0
VERTEX
  8
0
 62
7
  6
CONTINUOUS
 10
166.781884152
 20
553.4862756027
  0
VERTEX
  8
0
 62
7
  6
CONTINUOUS
 10
167.799935637
 20
553.4917367542
  0
VERTEX
  8
0
 62
7
  6
CONTINUOUS
 10
168.8936483968
 20
553.4968264632
  0
VERTEX
  8
0
 62
7
  6
CONTINUOUS
 10
170.0575110711
 20
553.5015190822
  0
VERTEX
  8
0
 62
7
  6
CONTINUOUS
 10
171.2856593741
 20
553.5057909665
  0
VERTEX
  8
0
 62
7
  6
CONTINUOUS
 10
172.5719051674
 20
553.5096205912
  0
VERTEX
  8
0
 62
7
  6
CONTINUOUS
 10
173.9097669844
 20
553.5129886575
  0
SEQEND
  0
POLYLINE
  8
0
 62
7
  6
CONTINUOUS
 66
1
 70
0
  0
VERTEX
  8
0
 62
7
  6
CONTINUOUS
 10
164.3100759944
 20
556.8173243204
  0
VERTEX
  8
0
 62
7
  6
CONTINUOUS
 10
164.3574133129
 20
556.8222926319
  0
VERTEX
  8
0
 62
7
  6
CONTINUOUS
 10
164.5102692394
 20
556.8290583128
  0
VERTEX
  8
0
 62
7
  6
CONTINUOUS
 10
164.7640921289
 20
556.8357491493
  0
VERTEX
  8
0
 62
7
  6
CONTINUOUS
 10
165.1174819262
 20
556.8423282358
  0
VERTEX
  8
0
 62
7
  6
CONTINUOUS
 10
165.5684893778
 20
556.8487592828
  0
VERTEX
  8
0
 62
7
  6
CONTINUOUS
 10
166.1146267836
 20
556.8550068174
  0
VERTEX
  8
0
 62
7
  6
CONTINUOUS
 10
166.7528817185
 20
556.8610363791
  0
VERTEX
  8
0
 62
7
  6
CONTINUOUS
 10
167.4797336489
 20
556.8668147096
  0
VERTEX
  8
0
 62
7
  6
CONTINUOUS
 10
168.2911733512
 20
556.8723099362
  0
VERTEX
  8
0
 62
7
  6
CONTINUOUS
 10
169.1827250264
 20
556.8774917481
  0
VERTEX
  8
0
 62
7
  6
CONTINUOUS
 10
170.149470988
 20
556.8823315631
  0
VERTEX
  8
0
 62
7
  6
CONTINUOUS
 10
171.1860787872
 20
556.8868026852
  0
VERTEX
  8
0
 62
7
  6
CONTINUOUS
 10
172.2868304697
 20
556.8908804518
  0
VERTEX
  8
0
 62
7
  6
CONTINUOUS
 10
173.4456548968
 20
556.8945423721
  0
VERTEX
  8
0
 62
7
  6
CONTINUOUS
 10
174.6561606955
 20
556.8977682483
  0
VERTEX
  8
0
 62
7
  6
CONTINUOUS
 10
175.9116707811
 20
556.9005402855
  0
SEQEND
  0
POLYLINE
  8
0
 62
7
  6
CONTINUOUS
 66
1
 70
0
  0
VERTEX
  8
0
 62
7
  6
CONTINUOUS
 10
182.0747747789
 20
559.0685316193
  0
VERTEX
  8
0
 62
7
  6
CONTINUOUS
 10
182.0368394053
 20
559.0681578447
  0
VERTEX
  8
0
 62
7
  6
CONTINUOUS
 10
181.8816180348
 20
559.0664339204
  0
VERTEX
  8
0
 62
7
  6
CONTINUOUS
 10
181.7163977577
 20
559.0642553382
  0
VERTEX
  8
0
 62
7
  6
CONTINUOUS
 10
181.5400241551
 20
559.0615386706
  0
VERTEX
  8
0
 62
7
  6
CONTINUOUS
 10
181.3518347359
 20
559.0581946845
  0
VERTEX
  8
0
 62
7
  6
CONTINUOUS
 10
181.1508062206
 20
559.0541146211
  0
VERTEX
  8
0
 62
7
  6
CONTINUOUS
 10
180.9356663679
 20
559.0491668289
  0
VERTEX
  8
0
 62
7
  6
CONTINUOUS
 10
180.7059684523
 20
559.0432206829
  0
VERTEX
  8
0
 62
7
  6
CONTINUOUS
 10
180.4614792062
 20
559.0361385863
  0
VERTEX
  8
0
 62
7
  6
CONTINUOUS
 10
180.2000551041
 20
559.0277066166
  0
VERTEX
  8
0
 62
7
  6
CONTINUOUS
 10
179.9197170376
 20
559.0176774779
  0
VERTEX
  8
0
 62
7
  6
CONTINUOUS
 10
179.6195735661
 20
559.0058069645
  0
VERTEX
  8
0
 62
7
  6
CONTINUOUS
 10
179.2982959659
 20
558.9918018833
  0
VERTEX
  8
0
 62
7
  6
CONTINUOUS
 10
178.9551644079
 20
558.9753603158
  0
VERTEX
  8
0
 62
7
  6
CONTINUOUS
 10
178.5855838143
 20
558.9559359042
  0
VERTEX
  8
0
 62
7
  6
CONTINUOUS
 10
178.1998398231
 20
558.933762962
  0
VERTEX
  8
0
 62
7
  6
CONTINUOUS
 10
177.8089513831
 20
558.9093139872
  0
VERTEX
  8
0
 62
7
  6
CONTINUOUS
 10
177.4061690756
 20
558.8820337325
  0
VERTEX
  8
0
 62
7
  6
CONTINUOUS
 10
176.988025525
 20
558.851469297
  0
VERTEX
  8
0
 62
7
  6
CONTINUOUS
 10
176.5556607012
 20
558.8174587909
  0
VERTEX
  8
0
 62
7
  6
CONTINUOUS
 10
176.1023131357
 20
558.7791664377
  0
VERTEX
  8
0
 62
7
  6
CONTINUOUS
 10
175.6482213507
 20
558.7381069535
  0
VERTEX
  8
0
 62
7
  6
CONTINUOUS
 10
175.2289453997
 20
558.6977886226
  0
VERTEX
  8
0
 62
7
  6
CONTINUOUS
 10
174.7916389813
 20
558.6532702129
  0
VERTEX
  8
0
 62
7
  6
CONTINUOUS
 10
174.264233972
 20
558.5962236327
  0
VERTEX
  8
0
 62
7
  6
CONTINUOUS
 10
173.7403027341
 20
558.5359118653
  0
VERTEX
  8
0
 62
7
  6
CONTINUOUS
 10
173.320804986
 20
558.4850000853
  0
VERTEX
  8
0
 62
7
  6
CONTINUOUS
 10
172.9107440133
 20
558.4329753028
  0
VERTEX
  8
0
 62
7
  6
CONTINUOUS
 10
172.449452725
 20
558.3717767489
  0
VERTEX
  8
0
 62
7
  6
CONTINUOUS
 10
171.9355926473
 20
558.3002622133
  0
VERTEX
  8
0
 62
7
  6
CONTINUOUS
 10
171.3158572645
 20
558.2093139982
  0
VERTEX
  8
0
 62
7
  6
CONTINUOUS
 10
170.6859867229
 20
558.1115959969
  0
VERTEX
  8
0
 62
7
  6
CONTINUOUS
 10
170.1575578451
 20
558.0254928969
  0
VERTEX
  8
0
 62
7
  6
CONTINUOUS
 10
169.6282325094
 20
557.9354588419
  0
VERTEX
  8
0
 62
7
  6
CONTINUOUS
 10
169.0070091234
 20
557.8249437421
  0
VERTEX
  8
0
 62
7
  6
CONTINUOUS
 10
168.3728451518
 20
557.7067017481
  0
VERTEX
  8
0
 62
7
  6
CONTINUOUS
 10
167.7937825134
 20
557.5939248642
  0
VERTEX
  8
0
 62
7
  6
CONTINUOUS
 10
167.2103707774
 20
557.4756372932
  0
VERTEX
  8
0
 62
7
  6
CONTINUOUS
 10
166.5939319528
 20
557.3455429521
  0
VERTEX
  8
0
 62
7
  6
CONTINUOUS
 10
165.9212268916
 20
557.1975505613
  0
VERTEX
  8
0
 62
7
  6
CONTINUOUS
 10
165.1555882279
 20
557.0214178372
  0
VERTEX
  8
0
 62
7
  6
CONTINUOUS
 10
164.3100759944
 20
556.8173243204
  0
SEQEND
  0
POLYLINE
  8
0
 62
7
  6
CONTINUOUS
 66
1
 70
0
  0
VERTEX
  8
0
 62
7
  6
CONTINUOUS
 10
147.8150685623
 20
549.082418274
  0
VERTEX
  8
0
 62
7
  6
CONTINUOUS
 10
124.0751080078
 20
549.0082459874
  0
VERTEX
  8
0
 62
7
  6
CONTINUOUS
 10
100.3358623808
 20
548.7975985357
  0
VERTEX
  8
0
 62
7
  6
CONTINUOUS
 10
76.5982211171
 20
548.4504829117
  0
VERTEX
  8
0
 62
7
  6
CONTINUOUS
 10
52.8629694908
 20
547.9669106007
  0
VERTEX
  8
0
 62
7
  6
CONTINUOUS
 10
29.130892697
 20
547.3468976063
  0
VERTEX
  8
0
 62
7
  6
CONTINUOUS
 10
7.3218186208
 20
546.6567175209
  0
SEQEND
  0
LINE
  8
0
 62
7
  6
CONTINUOUS
 10
174.2037352418
 20
553.5136510972
 11
173.9097644345
 21
553.5129886516
  0
POLYLINE
  8
0
 62
7
  6
CONTINUOUS
 66
1
 70
0
  0
VERTEX
  8
0
 62
7
  6
CONTINUOUS
 10
174.1497677866
 20
553.4276321014
  0
VERTEX
  8
0
 62
7
  6
CONTINUOUS
 10
175.5659892871
 20
553.4304340256
  0
VERTEX
  8
0
 62
7
  6
CONTINUOUS
 10
177.0176954146
 20
553.4327292715
  0
VERTEX
  8
0
 62
7
  6
CONTINUOUS
 10
178.4972097384
 20
553.4345071411
  0
VERTEX
  8
0
 62
7
  6
CONTINUOUS
 10
179.9978759493
 20
553.4357607325
  0
VERTEX
  8
0
 62
7
  6
CONTINUOUS
 10
181.5129949885
 20
553.4364846038
  0
SEQEND
  0
POLYLINE
  8
0
 62
7
  6
CONTINUOUS
 66
1
 70
0
  0
VERTEX
  8
0
 62
7
  6
CONTINUOUS
 10
176.3324868307
 20
557.0793708859
  0
VERTEX
  8
0
 62
7
  6
CONTINUOUS
 10
177.6425470269
 20
557.0815100002
  0
VERTEX
  8
0
 62
7
  6
CONTINUOUS
 10
178.9810276001
 20
557.0831630709
  0
VERTEX
  8
0
 62
7
  6
CONTINUOUS
 10
180.3405992976
 20
557.0843209875
  0
VERTEX
  8
0
 62
7
  6
CONTINUOUS
 10
181.7137704058
 20
557.0849773246
  0
SEQEND
  0
LINE
  8
0
 62
40
  6
CONTINUOUS
 10
217.781069386
 20
546.0173690487
 11
217.8150684932
 21
546.017374784
  0
POLYLINE
  8
0
 62
7
  6
CONTINUOUS
 66
1
 70
0
  0
VERTEX
  8
0
 62
7
  6
CONTINUOUS
 10
181.5129949885
 20
553.4364846038
  0
VERTEX
  8
0
 62
7
  6
CONTINUOUS
 10
183.0346629775
 20
553.4366748259
  0
VERTEX
  8
0
 62
7
  6
CONTINUOUS
 10
184.5552264872
 20
553.4363304421
  0
VERTEX
  8
0
 62
7
  6
CONTINUOUS
 10
186.0670376435
 20
553.4354531845
  0
VERTEX
  8
0
 62
7
  6
CONTINUOUS
 10
187.5624925937
 20
553.4340474654
  0
VERTEX
  8
0
 62
7
  6
CONTINUOUS
 10
189.0340697505
 20
553.4321203551
  0
VERTEX
  8
0
 62
7
  6
CONTINUOUS
 10
190.4743676231
 20
553.4296815461
  0
VERTEX
  8
0
 62
7
  6
CONTINUOUS
 10
191.8761420442
 20
553.4267433049
  0
VERTEX
  8
0
 62
7
  6
CONTINUOUS
 10
193.2323426051
 20
553.4233204097
  0
VERTEX
  8
0
 62
7
  6
CONTINUOUS
 10
194.5361481169
 20
553.4194300763
  0
VERTEX
  8
0
 62
7
  6
CONTINUOUS
 10
195.7810009184
 20
553.4150918718
  0
VERTEX
  8
0
 62
7
  6
CONTINUOUS
 10
196.9606398588
 20
553.4103276157
  0
VERTEX
  8
0
 62
7
  6
CONTINUOUS
 10
198.069131789
 20
553.4051612704
  0
VERTEX
  8
0
 62
7
  6
CONTINUOUS
 10
199.1009014033
 20
553.3996188208
  0
VERTEX
  8
0
 62
7
  6
CONTINUOUS
 10
200.0507592807
 20
553.3937281433
  0
VERTEX
  8
0
 62
7
  6
CONTINUOUS
 10
200.9139279862
 20
553.3875188659
  0
VERTEX
  8
0
 62
7
  6
CONTINUOUS
 10
201.6860660994
 20
553.3810222189
  0
VERTEX
  8
0
 62
7
  6
CONTINUOUS
 10
202.3632900502
 20
553.3742708782
  0
VERTEX
  8
0
 62
7
  6
CONTINUOUS
 10
202.9421936518
 20
553.3672988004
  0
VERTEX
  8
0
 62
7
  6
CONTINUOUS
 10
203.4198652323
 20
553.3601410525
  0
VERTEX
  8
0
 62
7
  6
CONTINUOUS
 10
203.7939022798
 20
553.3528336354
  0
VERTEX
  8
0
 62
7
  6
CONTINUOUS
 10
204.0624235258
 20
553.3454133027
  0
VERTEX
  8
0
 62
7
  6
CONTINUOUS
 10
204.2240784074
 20
553.3379173759
  0
VERTEX
  8
0
 62
7
  6
CONTINUOUS
 10
204.2745230084
 20
553.3323115794
  0
SEQEND
  0
POLYLINE
  8
0
 62
7
  6
CONTINUOUS
 66
1
 70
0
  0
VERTEX
  8
0
 62
7
  6
CONTINUOUS
 10
181.7137704058
 20
557.0849773246
  0
VERTEX
  8
0
 62
7
  6
CONTINUOUS
 10
183.0929726178
 20
557.0851284584
  0
VERTEX
  8
0
 62
7
  6
CONTINUOUS
 10
184.4706500517
 20
557.0847735674
  0
VERTEX
  8
0
 62
7
  6
CONTINUOUS
 10
185.839243797
 20
557.0839145986
  0
VERTEX
  8
0
 62
7
  6
CONTINUOUS
 10
187.1912447825
 20
557.082556265
  0
VERTEX
  8
0
 62
7
  6
CONTINUOUS
 10
188.519234977
 20
557.0807060193
  0
VERTEX
  8
0
 62
7
  6
CONTINUOUS
 10
189.8159280892
 20
557.0783740134
  0
VERTEX
  8
0
 62
7
  6
CONTINUOUS
 10
191.0742095455
 20
557.0755730422
  0
VERTEX
  8
0
 62
7
  6
CONTINUOUS
 10
192.2871755261
 20
557.0723184739
  0
VERTEX
  8
0
 62
7
  6
CONTINUOUS
 10
193.4481708437
 20
557.0686281652
  0
VERTEX
  8
0
 62
7
  6
CONTINUOUS
 10
194.5508254588
 20
557.0645223639
  0
VERTEX
  8
0
 62
7
  6
CONTINUOUS
 10
195.58908943
 20
557.0600235973
  0
VERTEX
  8
0
 62
7
  6
CONTINUOUS
 10
196.5572661085
 20
557.0551565487
  0
VERTEX
  8
0
 62
7
  6
CONTINUOUS
 10
197.4500433941
 20
557.0499479223
  0
VERTEX
  8
0
 62
7
  6
CONTINUOUS
 10
198.2625228804
 20
557.0444262962
  0
VERTEX
  8
0
 62
7
  6
CONTINUOUS
 10
198.9902467317
 20
557.038621966
  0
VERTEX
  8
0
 62
7
  6
CONTINUOUS
 10
199.6292221415
 20
557.0325667783
  0
VERTEX
  8
0
 62
7
  6
CONTINUOUS
 10
200.1759432398
 20
557.0262939561
  0
VERTEX
  8
0
 62
7
  6
CONTINUOUS
 10
200.6274103288
 20
557.0198379167
  0
VERTEX
  8
0
 62
7
  6
CONTINUOUS
 10
200.9811463415
 20
557.0132340823
  0
VERTEX
  8
0
 62
7
  6
CONTINUOUS
 10
201.2352104326
 20
557.0065186862
  0
VERTEX
  8
0
 62
7
  6
CONTINUOUS
 10
201.3882086272
 20
556.999728574
  0
VERTEX
  8
0
 62
7
  6
CONTINUOUS
 10
201.4355984641
 20
556.9947402474
  0
SEQEND
  0
LINE
  8
0
 62
40
  6
CONTINUOUS
 10
147.8150684932
 20
546.017374784
 11
147.8490676003
 21
546.0173690487
  0
POLYLINE
  8
0
 62
7
  6
CONTINUOUS
 66
1
 70
0
  0
VERTEX
  8
0
 62
7
  6
CONTINUOUS
 10
358.3083183635
 20
546.656717521
  0
VERTEX
  8
0
 62
7
  6
CONTINUOUS
 10
336.4968811032
 20
547.3469661431
  0
VERTEX
  8
0
 62
7
  6
CONTINUOUS
 10
312.7652764593
 20
547.9669545657
  0
VERTEX
  8
0
 62
7
  6
CONTINUOUS
 10
289.030497216
 20
548.4505077353
  0
VERTEX
  8
0
 62
7
  6
CONTINUOUS
 10
265.2933285819
 20
548.7976096495
  0
VERTEX
  8
0
 62
7
  6
CONTINUOUS
 10
241.5545558449
 20
549.0082488256
  0
VERTEX
  8
0
 62
7
  6
CONTINUOUS
 10
217.8150684279
 20
549.082418274
  0
SEQEND
  0
POLYLINE
  8
0
 62
7
  6
CONTINUOUS
 66
1
 70
0
  0
VERTEX
  8
0
 62
7
  6
CONTINUOUS
 10
201.4355984641
 20
556.9947402474
  0
VERTEX
  8
0
 62
7
  6
CONTINUOUS
 10
200.6381303289
 20
557.1882776295
  0
VERTEX
  8
0
 62
7
  6
CONTINUOUS
 10
199.8663315404
 20
557.3670764902
  0
VERTEX
  8
0
 62
7
  6
CONTINUOUS
 10
199.1173927748
 20
557.5326349533
  0
VERTEX
  8
0
 62
7
  6
CONTINUOUS
 10
198.4008334791
 20
557.6837586548
  0
VERTEX
  8
0
 62
7
  6
CONTINUOUS
 10
197.7252328438
 20
557.8197652343
  0
VERTEX
  8
0
 62
7
  6
CONTINUOUS
 10
197.0907360312
 20
557.9418019084
  0
VERTEX
  8
0
 62
7
  6
CONTINUOUS
 10
196.5134893545
 20
558.0480578779
  0
VERTEX
  8
0
 62
7
  6
CONTINUOUS
 10
195.9539502683
 20
558.1467358003
  0
VERTEX
  8
0
 62
7
  6
CONTINUOUS
 10
195.3899411041
 20
558.2419166237
  0
VERTEX
  8
0
 62
7
  6
CONTINUOUS
 10
194.7846170064
 20
558.3393011721
  0
VERTEX
  8
0
 62
7
  6
CONTINUOUS
 10
194.0444719828
 20
558.4516937745
  0
VERTEX
  8
0
 62
7
  6
CONTINUOUS
 10
193.316358613
 20
558.5551155705
  0
VERTEX
  8
0
 62
7
  6
CONTINUOUS
 10
192.7716010734
 20
558.6278771757
  0
VERTEX
  8
0
 62
7
  6
CONTINUOUS
 10
192.2458141895
 20
558.6943695071
  0
VERTEX
  8
0
 62
7
  6
CONTINUOUS
 10
191.5811710343
 20
558.7731861985
  0
VERTEX
  8
0
 62
7
  6
CONTINUOUS
 10
190.9274968482
 20
558.8450157821
  0
VERTEX
  8
0
 62
7
  6
CONTINUOUS
 10
190.397673402
 20
558.8991092564
  0
VERTEX
  8
0
 62
7
  6
CONTINUOUS
 10
189.9460484684
 20
558.9423081971
  0
VERTEX
  8
0
 62
7
  6
CONTINUOUS
 10
189.5835368906
 20
558.9750484307
  0
VERTEX
  8
0
 62
7
  6
CONTINUOUS
 10
189.2529566101
 20
559.0034047551
  0
VERTEX
  8
0
 62
7
  6
CONTINUOUS
 10
188.8917058129
 20
559.032757614
  0
VERTEX
  8
0
 62
7
  6
CONTINUOUS
 10
188.5266510238
 20
559.0606876817
  0
VERTEX
  8
0
 62
7
  6
CONTINUOUS
 10
188.1598083071
 20
559.0870026851
  0
VERTEX
  8
0
 62
7
  6
CONTINUOUS
 10
187.8031711938
 20
559.1109037755
  0
VERTEX
  8
0
 62
7
  6
CONTINUOUS
 10
187.4827089663
 20
559.1309674306
  0
VERTEX
  8
0
 62
7
  6
CONTINUOUS
 10
187.1585097612
 20
559.1499051054
  0
VERTEX
  8
0
 62
7
  6
CONTINUOUS
 10
186.7718692341
 20
559.1707032126
  0
VERTEX
  8
0
 62
7
  6
CONTINUOUS
 10
186.4053526118
 20
559.18862536
  0
VERTEX
  8
0
 62
7
  6
CONTINUOUS
 10
186.1372833234
 20
559.2006290518
  0
VERTEX
  8
0
 62
7
  6
CONTINUOUS
 10
185.921002876
 20
559.2096339093
  0
VERTEX
  8
0
 62
7
  6
CONTINUOUS
 10
185.7437954666
 20
559.2165596065
  0
VERTEX
  8
0
 62
7
  6
CONTINUOUS
 10
185.5822895281
 20
559.2225168751
  0
VERTEX
  8
0
 62
7
  6
CONTINUOUS
 10
185.4073995786
 20
559.2285863631
  0
VERTEX
  8
0
 62
7
  6
CONTINUOUS
 10
185.2239800654
 20
559.2345258439
  0
VERTEX
  8
0
 62
7
  6
CONTINUOUS
 10
185.0182466782
 20
559.2406690251
  0
VERTEX
  8
0
 62
7
  6
CONTINUOUS
 10
184.8173612971
 20
559.2461381968
  0
VERTEX
  8
0
 62
7
  6
CONTINUOUS
 10
184.650940482
 20
559.2502730726
  0
VERTEX
  8
0
 62
7
  6
CONTINUOUS
 10
184.4969491345
 20
559.253779555
  0
VERTEX
  8
0
 62
7
  6
CONTINUOUS
 10
184.3419090799
 20
559.2569996363
  0
VERTEX
  8
0
 62
7
  6
CONTINUOUS
 10
184.1905001445
 20
559.2598438589
  0
VERTEX
  8
0
 62
7
  6
CONTINUOUS
 10
184.0424491143
 20
559.262337955
  0
VERTEX
  8
0
 62
7
  6
CONTINUOUS
 10
183.8994204642
 20
559.2644779193
  0
VERTEX
  8
0
 62
7
  6
CONTINUOUS
 10
183.7626408989
 20
559.2662766393
  0
VERTEX
  8
0
 62
7
  6
CONTINUOUS
 10
183.6333261507
 20
559.2677544628
  0
VERTEX
  8
0
 62
7
  6
CONTINUOUS
 10
183.5138060994
 20
559.2689278543
  0
VERTEX
  8
0
 62
7
  6
CONTINUOUS
 10
183.4017393811
 20
559.2698600999
  0
VERTEX
  8
0
 62
7
  6
CONTINUOUS
 10
183.2952279158
 20
559.2705954584
  0
VERTEX
  8
0
 62
7
  6
CONTINUOUS
 10
183.1956254811
 20
559.2711502554
  0
VERTEX
  8
0
 62
7
  6
CONTINUOUS
 10
183.1022969117
 20
559.2715535771
  0
VERTEX
  8
0
 62
7
  6
CONTINUOUS
 10
183.0157169166
 20
559.2718269332
  0
VERTEX
  8
0
 62
7
  6
CONTINUOUS
 10
182.93317482
 20
559.2719971997
  0
VERTEX
  8
0
 62
7
  6
CONTINUOUS
 10
182.8547235813
 20
559.2720772938
  0
VERTEX
  8
0
 62
7
  6
CONTINUOUS
 10
182.7771894565
 20
559.272078184
  0
VERTEX
  8
0
 62
7
  6
CONTINUOUS
 10
182.6993625867
 20
559.2720008322
  0
VERTEX
  8
0
 62
7
  6
CONTINUOUS
 10
182.5747747789
 20
559.2717138047
  0
SEQEND
  0
LINE
  8
0
 62
7
  6
CONTINUOUS
 10
204.2745230084
 20
553.3323115794
 11
209.8886061156
 21
551.7996517689
  0
ENDSEC
  0
EOF
