999
DXF file: K:\Client\125_Heirloom\001\00\Final_Data\Drawings\TOILETS\centrowf-373100_1.dxf
999
Pro/ENGINEER 2017110 by Parametric Technology Corporation
  0
SECTION
  2
HEADER
  9
$EXTMAX
 10
420.0
 20
297.0
 30
0.0
  9
$EXTMIN
 10
0.0
 20
0.0
 30
0.0
  9
$LIMMIN
 10
0.0
 20
0.0
  9
$LIMMAX
 10
420.0
 20
297.0
  9
$VIEWCTR
 10
210.0
 20
148.5
  9
$VIEWSIZE
 40
297.0
  9
$CLAYER
  8
0
  9
$LTSCALE
 40
23.1
  9
$CELTYPE
  6
BYLAYER
  9
$DIMSCALE
 40
1.0
  9
$DIMASZ
 40
3.0
  9
$DIMEXO
 40
1.0
  9
$DIMDLI
 40
15.96
  9
$DIMEXE
 40
1.0
  9
$DIMCEN
 40
3.78
  9
$DIMLFAC
 40
1.0
  9
$DIMBLK
  1
_FILLED
  9
$DIMALT
 70
0
  9
$DIMALTF
 40
0.0393700787
  9
$DIMTXT
 40
3.0
  9
$AUNITS
 70
0
  9
$PDMODE
 70
3
  9
$PDSIZE
 40
5.0
  9
$TILEMODE
 70
1
  0
ENDSEC
  0
SECTION
  2
TABLES
  0
TABLE
  2
LTYPE
 70
6
  0
LTYPE
  2
BYBLOCK
 70
0
  3

 72
65
 73
0
 40
0.0
  0
LTYPE
  2
BYLAYER
 70
0
  3

 72
65
 73
0
 40
0.0
  0
LTYPE
  2
CONTINUOUS
 70
64
  3
Solid line
 72
65
 73
0
 40
0.0
  0
LTYPE
  2
CENTER
 70
64
  3
____ _ ____ _ ____ _ ____ _ ____ _ ____ _ ____
 72
65
 73
4
 40
0.6
 49
0.375
 49
-0.075
 49
0.075
 49
-0.075
  0
LTYPE
  2
HIDDEN
 70
64
  3
- - - - - - - - - - - - - - - - - - - -
 72
65
 73
2
 40
0.2
 49
0.1
 49
-0.1
  0
LTYPE
  2
PHANTOM
 70
64
  3
_____ _ _ _____ _ _ _____ _ _ _____
 72
65
 73
6
 40
0.8
 49
0.45
 49
-0.05
 49
0.1
 49
-0.05
 49
0.1
 49
-0.05
  0
LTYPE
  2
DOT
 70
64
  3
. . . . . . . . . . . . . . . . . . . .
 72
65
 73
2
 40
0.2
 49
0.1
 49
-0.1
  0
LTYPE
  2
DASHED
 70
64
  3
- - - - - - - - - - - - - - - - - - - -
 72
65
 73
2
 40
0.2
 49
0.1
 49
-0.1
  0
ENDTAB
  0
TABLE
  2
LAYER
 70
36
  0
LAYER
  2
0
 70
0
 62
7
  6
CONTINUOUS
  0
LAYER
  2
DEFAULT_1
 70
0
 62
7
  6
CENTER
  0
LAYER
  2
DEFAULT_2
 70
0
 62
8
  6
HIDDEN
  0
LAYER
  2
DEFAULT_3
 70
0
 62
7
  6
PHANTOM
  0
LAYER
  2
0000_BOM
 70
0
 62
7
  6
CONTINUOUS
  0
LAYER
  2
0000_REV_TABLE
 70
0
 62
7
  6
CONTINUOUS
  0
LAYER
  2
0000_STEVENS_NOTE
 70
0
 62
7
  6
CONTINUOUS
  0
LAYER
  2
01_DATUM_PLANES
 70
0
 62
7
  6
CONTINUOUS
  0
LAYER
  2
01_DEF_PLANES
 70
0
 62
7
  6
CONTINUOUS
  0
LAYER
  2
02_DATUM_COS
 70
0
 62
7
  6
CONTINUOUS
  0
LAYER
  2
90_IMP_FEAT
 70
0
 62
7
  6
CONTINUOUS
  0
LAYER
  2
95_STL
 70
0
 62
7
  6
CONTINUOUS
  0
LAYER
  2
99_SOLID
 70
0
 62
7
  6
CONTINUOUS
  0
LAYER
  2
CAD-MASTER_ZINC-PL
 70
0
 62
7
  6
CONTINUOUS
  0
LAYER
  2
CURVE
 70
0
 62
7
  6
CONTINUOUS
  0
LAYER
  2
SHELL
 70
0
 62
7
  6
CONTINUOUS
  0
LAYER
  2
SKEL
 70
0
 62
7
  6
CONTINUOUS
  0
LAYER
  2
SKETCH
 70
0
 62
7
  6
CONTINUOUS
  0
LAYER
  2
SURFACE
 70
0
 62
7
  6
CONTINUOUS
  0
ENDTAB
  0
TABLE
  2
STYLE
 70
1
  0
STYLE
  2
STANDARD
 70
0
 40
0.0
 41
0.75
 50
0.0
 71
0
 42
0.2
  3
txt
  4

  0
STYLE
  2
TEXTSTYLE_1
 70
0
 40
0.0
 41
0.8
 50
0.0
 71
0
 42
0.2
  3
gdt
  4

  0
ENDTAB
  0
ENDSEC
  0
SECTION
  2
BLOCKS
  0
BLOCK
  8
0
 62
5
  6
CONTINUOUS
  2
PLUMBING_BL1
 70
64
 10
184.275392042
 20
-249.8172707813
  0
CIRCLE
  8
0
 62
5
  6
CONTINUOUS
 10
184.275392042
 20
-249.8172707813
 40
12.5
  0
LINE
  8
0
 62
5
  6
CONTINUOUS
 10
196.775392042
 20
-237.3172707813
 11
171.775392042
 21
-262.3172707813
  0
LINE
  8
0
 62
5
  6
CONTINUOUS
 10
184.275392042
 20
-249.8172707813
 11
171.775392042
 21
-237.3172707813
  0
LINE
  8
0
 62
5
  6
CONTINUOUS
 10
184.275392042
 20
-249.8172707813
 11
196.775392042
 21
-262.3172707813
  0
ENDBLK
  8
0
  6
BYBLOCK
 62
0
  0
BLOCK
  8
0
 62
1
  6
CONTINUOUS
  2
PLUMBING_BL0
 70
64
 10
184.275392042
 20
-69.8172707813
  0
CIRCLE
  8
0
 62
1
  6
CONTINUOUS
 10
184.275392042
 20
-69.8172707813
 40
12.5
  0
LINE
  8
0
 62
1
  6
CONTINUOUS
 10
196.775392042
 20
-57.3172707813
 11
171.775392042
 21
-82.3172707813
  0
LINE
  8
0
 62
1
  6
CONTINUOUS
 10
184.275392042
 20
-69.8172707813
 11
171.775392042
 21
-57.3172707813
  0
LINE
  8
0
 62
1
  6
CONTINUOUS
 10
184.275392042
 20
-69.8172707813
 11
196.775392042
 21
-82.3172707813
  0
ENDBLK
  8
0
  6
BYBLOCK
 62
0
  0
ENDSEC
  0
SECTION
  2
ENTITIES
  0
INSERT
  8
0
 62
1
  6
CONTINUOUS
  2
PLUMBING_BL0
 10
184.275392042
 20
-69.8172707813
  0
INSERT
  8
0
 62
5
  6
CONTINUOUS
  2
PLUMBING_BL1
 10
184.275392042
 20
-249.8172707813
  0
LINE
  8
0
 62
7
  6
CONTINUOUS
 10
219.2786660621
 20
543.5758564447
 11
149.2753920128
 21
543.5758564447
  0
POLYLINE
  8
0
 62
7
  6
CONTINUOUS
 66
1
 70
0
  0
VERTEX
  8
0
 62
7
  6
CONTINUOUS
 10
157.2018547876
 20
546.2929350051
  0
VERTEX
  8
0
 62
7
  6
CONTINUOUS
 10
157.1660600987
 20
546.2824642831
  0
VERTEX
  8
0
 62
7
  6
CONTINUOUS
 10
157.1140750867
 20
546.2646798306
  0
VERTEX
  8
0
 62
7
  6
CONTINUOUS
 10
157.0586504102
 20
546.2421471014
  0
VERTEX
  8
0
 62
7
  6
CONTINUOUS
 10
157.0100314508
 20
546.2191166657
  0
VERTEX
  8
0
 62
7
  6
CONTINUOUS
 10
156.9523705428
 20
546.1874850422
  0
VERTEX
  8
0
 62
7
  6
CONTINUOUS
 10
156.8739749958
 20
546.1359912065
  0
VERTEX
  8
0
 62
7
  6
CONTINUOUS
 10
156.7838648487
 20
546.0622225843
  0
SEQEND
  0
POLYLINE
  8
0
 62
7
  6
CONTINUOUS
 66
1
 70
0
  0
VERTEX
  8
0
 62
7
  6
CONTINUOUS
 10
303.3184815661
 20
-248.6385806092
  0
VERTEX
  8
0
 62
7
  6
CONTINUOUS
 10
303.5683813951
 20
-248.6247077306
  0
VERTEX
  8
0
 62
7
  6
CONTINUOUS
 10
303.9408898
 20
-248.603799061
  0
VERTEX
  8
0
 62
7
  6
CONTINUOUS
 10
304.3049209761
 20
-248.5830885376
  0
VERTEX
  8
0
 62
7
  6
CONTINUOUS
 10
304.6606506581
 20
-248.562570919
  0
VERTEX
  8
0
 62
7
  6
CONTINUOUS
 10
305.0082245861
 20
-248.5422425404
  0
VERTEX
  8
0
 62
7
  6
CONTINUOUS
 10
305.3477881789
 20
-248.5220996489
  0
VERTEX
  8
0
 62
7
  6
CONTINUOUS
 10
305.6794836741
 20
-248.5021385664
  0
VERTEX
  8
0
 62
7
  6
CONTINUOUS
 10
306.0034529635
 20
-248.4823555161
  0
VERTEX
  8
0
 62
7
  6
CONTINUOUS
 10
306.3198346843
 20
-248.4627467933
  0
VERTEX
  8
0
 62
7
  6
CONTINUOUS
 10
306.6287671682
 20
-248.4433085799
  0
VERTEX
  8
0
 62
7
  6
CONTINUOUS
 10
306.9303768069
 20
-248.4240376808
  0
VERTEX
  8
0
 62
7
  6
CONTINUOUS
 10
307.224824068
 20
-248.4049285605
  0
VERTEX
  8
0
 62
7
  6
CONTINUOUS
 10
307.5122457756
 20
-248.3859766215
  0
VERTEX
  8
0
 62
7
  6
CONTINUOUS
 10
307.7927584125
 20
-248.3671753532
  0
VERTEX
  8
0
 62
7
  6
CONTINUOUS
 10
308.0664609858
 20
-248.3485177033
  0
VERTEX
  8
0
 62
7
  6
CONTINUOUS
 10
308.3334109953
 20
-248.329999345
  0
VERTEX
  8
0
 62
7
  6
CONTINUOUS
 10
308.5936763588
 20
-248.3116152216
  0
VERTEX
  8
0
 62
7
  6
CONTINUOUS
 10
308.8473345151
 20
-248.293359532
  0
VERTEX
  8
0
 62
7
  6
CONTINUOUS
 10
309.0944595885
 20
-248.2752265986
  0
VERTEX
  8
0
 62
7
  6
CONTINUOUS
 10
309.3351367601
 20
-248.257209783
  0
VERTEX
  8
0
 62
7
  6
CONTINUOUS
 10
309.5694462122
 20
-248.2393026161
  0
VERTEX
  8
0
 62
7
  6
CONTINUOUS
 10
309.7974822556
 20
-248.2214972999
  0
VERTEX
  8
0
 62
7
  6
CONTINUOUS
 10
310.0193356719
 20
-248.2037859773
  0
VERTEX
  8
0
 62
7
  6
CONTINUOUS
 10
310.2351003727
 20
-248.1861601709
  0
VERTEX
  8
0
 62
7
  6
CONTINUOUS
 10
310.4449377652
 20
-248.1686052558
  0
VERTEX
  8
0
 62
7
  6
CONTINUOUS
 10
310.6487423349
 20
-248.1511291283
  0
VERTEX
  8
0
 62
7
  6
CONTINUOUS
 10
310.8465416585
 20
-248.1337368787
  0
VERTEX
  8
0
 62
7
  6
CONTINUOUS
 10
311.0385467513
 20
-248.1164245896
  0
VERTEX
  8
0
 62
7
  6
CONTINUOUS
 10
311.2249146817
 20
-248.0991930353
  0
VERTEX
  8
0
 62
7
  6
CONTINUOUS
 10
311.4058886908
 20
-248.0820345735
  0
VERTEX
  8
0
 62
7
  6
CONTINUOUS
 10
311.5817360501
 20
-248.0649381849
  0
VERTEX
  8
0
 62
7
  6
CONTINUOUS
 10
311.7525017542
 20
-248.0479139589
  0
VERTEX
  8
0
 62
7
  6
CONTINUOUS
 10
311.9184080492
 20
-248.0309547673
  0
VERTEX
  8
0
 62
7
  6
CONTINUOUS
 10
312.0792702367
 20
-248.0141064692
  0
VERTEX
  8
0
 62
7
  6
CONTINUOUS
 10
312.2350463231
 20
-247.9974169851
  0
VERTEX
  8
0
 62
7
  6
CONTINUOUS
 10
312.3861154514
 20
-247.9808910881
  0
VERTEX
  8
0
 62
7
  6
CONTINUOUS
 10
312.5327335311
 20
-247.9645457681
  0
VERTEX
  8
0
 62
7
  6
CONTINUOUS
 10
312.6751634156
 20
-247.9483963785
  0
VERTEX
  8
0
 62
7
  6
CONTINUOUS
 10
312.8132869548
 20
-247.9325012186
  0
VERTEX
  8
0
 62
7
  6
CONTINUOUS
 10
312.9484373638
 20
-247.9167491361
  0
VERTEX
  8
0
 62
7
  6
CONTINUOUS
 10
313.0813598521
 20
-247.901080921
  0
VERTEX
  8
0
 62
7
  6
CONTINUOUS
 10
313.2128256388
 20
-247.8853792445
  0
VERTEX
  8
0
 62
7
  6
CONTINUOUS
 10
313.3437047452
 20
-247.8694929267
  0
VERTEX
  8
0
 62
7
  6
CONTINUOUS
 10
313.4735141121
 20
-247.8534292926
  0
VERTEX
  8
0
 62
7
  6
CONTINUOUS
 10
313.6020754384
 20
-247.8371572175
  0
VERTEX
  8
0
 62
7
  6
CONTINUOUS
 10
313.7294506556
 20
-247.8206112223
  0
VERTEX
  8
0
 62
7
  6
CONTINUOUS
 10
313.8556261289
 20
-247.8037290567
  0
VERTEX
  8
0
 62
7
  6
CONTINUOUS
 10
313.9807613357
 20
-247.7864167753
  0
VERTEX
  8
0
 62
7
  6
CONTINUOUS
 10
314.1048914507
 20
-247.768587461
  0
VERTEX
  8
0
 62
7
  6
CONTINUOUS
 10
314.2285649103
 20
-247.7500686392
  0
VERTEX
  8
0
 62
7
  6
CONTINUOUS
 10
314.3519852693
 20
-247.7307162366
  0
VERTEX
  8
0
 62
7
  6
CONTINUOUS
 10
314.476404975
 20
-247.7101856752
  0
VERTEX
  8
0
 62
7
  6
CONTINUOUS
 10
314.6024126262
 20
-247.688182881
  0
VERTEX
  8
0
 62
7
  6
CONTINUOUS
 10
314.732346027
 20
-247.6640206748
  0
VERTEX
  8
0
 62
7
  6
CONTINUOUS
 10
314.8676288701
 20
-247.6370316603
  0
VERTEX
  8
0
 62
7
  6
CONTINUOUS
 10
315.0117681993
 20
-247.6059167277
  0
VERTEX
  8
0
 62
7
  6
CONTINUOUS
 10
315.1672833359
 20
-247.5692366716
  0
VERTEX
  8
0
 62
7
  6
CONTINUOUS
 10
315.3388252434
 20
-247.5245721686
  0
VERTEX
  8
0
 62
7
  6
CONTINUOUS
 10
315.5279621968
 20
-247.4696449965
  0
VERTEX
  8
0
 62
7
  6
CONTINUOUS
 10
315.7466673204
 20
-247.3979098413
  0
VERTEX
  8
0
 62
7
  6
CONTINUOUS
 10
315.9989137168
 20
-247.3030795857
  0
VERTEX
  8
0
 62
7
  6
CONTINUOUS
 10
316.3072017779
 20
-247.1676445242
  0
VERTEX
  8
0
 62
7
  6
CONTINUOUS
 10
316.6805529358
 20
-246.9711403892
  0
VERTEX
  8
0
 62
7
  6
CONTINUOUS
 10
317.1412161068
 20
-246.671104452
  0
VERTEX
  8
0
 62
7
  6
CONTINUOUS
 10
317.6963696682
 20
-246.2021085942
  0
VERTEX
  8
0
 62
7
  6
CONTINUOUS
 10
318.2816502206
 20
-245.5203386258
  0
VERTEX
  8
0
 62
7
  6
CONTINUOUS
 10
318.8157813117
 20
-244.5707935628
  0
VERTEX
  8
0
 62
7
  6
CONTINUOUS
 10
319.1492495628
 20
-243.4400393372
  0
VERTEX
  8
0
 62
7
  6
CONTINUOUS
 10
319.2111136446
 20
-242.2738603405
  0
VERTEX
  8
0
 62
7
  6
CONTINUOUS
 10
319.2009164295
 20
-242.1410242438
  0
SEQEND
  0
LINE
  8
0
 62
7
  6
CONTINUOUS
 10
301.8916443261
 20
-248.7195724024
 11
303.3184958464
 21
-248.6385796163
  0
POLYLINE
  8
0
 62
7
  6
CONTINUOUS
 66
1
 70
0
  0
VERTEX
  8
0
 62
7
  6
CONTINUOUS
 10
276.8843816146
 20
-249.2795962264
  0
VERTEX
  8
0
 62
7
  6
CONTINUOUS
 10
283.1799966906
 20
-249.2011763234
  0
VERTEX
  8
0
 62
7
  6
CONTINUOUS
 10
288.7173044664
 20
-249.1178796769
  0
VERTEX
  8
0
 62
7
  6
CONTINUOUS
 10
292.904117505
 20
-249.0386265793
  0
VERTEX
  8
0
 62
7
  6
CONTINUOUS
 10
296.061565868
 20
-248.9611397598
  0
VERTEX
  8
0
 62
7
  6
CONTINUOUS
 10
298.4549628655
 20
-248.8832091458
  0
VERTEX
  8
0
 62
7
  6
CONTINUOUS
 10
300.3157797335
 20
-248.8032115472
  0
VERTEX
  8
0
 62
7
  6
CONTINUOUS
 10
301.8916443261
 20
-248.7195724024
  0
SEQEND
  0
POLYLINE
  8
0
 62
7
  6
CONTINUOUS
 66
1
 70
0
  0
VERTEX
  8
0
 62
7
  6
CONTINUOUS
 10
276.8472176157
 20
-249.2798263888
  0
VERTEX
  8
0
 62
7
  6
CONTINUOUS
 10
271.7048631799
 20
-249.3358275554
  0
VERTEX
  8
0
 62
7
  6
CONTINUOUS
 10
265.9284504749
 20
-249.3920630323
  0
VERTEX
  8
0
 62
7
  6
CONTINUOUS
 10
259.500545982
 20
-249.4487238292
  0
VERTEX
  8
0
 62
7
  6
CONTINUOUS
 10
252.4734502578
 20
-249.5052369165
  0
VERTEX
  8
0
 62
7
  6
CONTINUOUS
 10
244.8692243255
 20
-249.561238686
  0
VERTEX
  8
0
 62
7
  6
CONTINUOUS
 10
236.7611532672
 20
-249.6162918832
  0
VERTEX
  8
0
 62
7
  6
CONTINUOUS
 10
228.2399556839
 20
-249.6697682437
  0
VERTEX
  8
0
 62
7
  6
CONTINUOUS
 10
219.275392042
 20
-249.7218771888
  0
SEQEND
  0
POLYLINE
  8
0
 62
7
  6
CONTINUOUS
 66
1
 70
0
  0
VERTEX
  8
0
 62
7
  6
CONTINUOUS
 10
219.2753920422
 20
-249.7218772526
  0
VERTEX
  8
0
 62
7
  6
CONTINUOUS
 10
218.7751076938
 20
-249.7246535366
  0
VERTEX
  8
0
 62
7
  6
CONTINUOUS
 10
218.5246841061
 20
-249.7260280297
  0
VERTEX
  8
0
 62
7
  6
CONTINUOUS
 10
218.2741039516
 20
-249.7273937353
  0
VERTEX
  8
0
 62
7
  6
CONTINUOUS
 10
218.0234021531
 20
-249.7287510155
  0
VERTEX
  8
0
 62
7
  6
CONTINUOUS
 10
217.7725670697
 20
-249.7300997346
  0
SEQEND
  0
POLYLINE
  8
0
 62
7
  6
CONTINUOUS
 66
1
 70
0
  0
VERTEX
  8
0
 62
7
  6
CONTINUOUS
 10
217.7725670697
 20
-249.7300997346
  0
VERTEX
  8
0
 62
7
  6
CONTINUOUS
 10
209.5094829202
 20
-249.7681503942
  0
VERTEX
  8
0
 62
7
  6
CONTINUOUS
 10
201.1655984855
 20
-249.7955140613
  0
VERTEX
  8
0
 62
7
  6
CONTINUOUS
 10
192.7205932992
 20
-249.8119108869
  0
VERTEX
  8
0
 62
7
  6
CONTINUOUS
 10
184.2354562721
 20
-249.8172710893
  0
VERTEX
  8
0
 62
7
  6
CONTINUOUS
 10
175.7463767225
 20
-249.8117975903
  0
VERTEX
  8
0
 62
7
  6
CONTINUOUS
 10
167.3074351163
 20
-249.7953125404
  0
VERTEX
  8
0
 62
7
  6
CONTINUOUS
 10
158.9930386212
 20
-249.7679722315
  0
VERTEX
  8
0
 62
7
  6
CONTINUOUS
 10
150.7783937812
 20
-249.7300976764
  0
SEQEND
  0
POLYLINE
  8
0
 62
7
  6
CONTINUOUS
 66
1
 70
0
  0
VERTEX
  8
0
 62
7
  6
CONTINUOUS
 10
150.7783937812
 20
-249.7300976764
  0
VERTEX
  8
0
 62
7
  6
CONTINUOUS
 10
149.7756763906
 20
-249.7246535366
  0
VERTEX
  8
0
 62
7
  6
CONTINUOUS
 10
149.5254442919
 20
-249.7232698977
  0
VERTEX
  8
0
 62
7
  6
CONTINUOUS
 10
149.2753920417
 20
-249.7218772526
  0
SEQEND
  0
POLYLINE
  8
0
 62
7
  6
CONTINUOUS
 66
1
 70
0
  0
VERTEX
  8
0
 62
7
  6
CONTINUOUS
 10
149.275392042
 20
-249.7218771888
  0
VERTEX
  8
0
 62
7
  6
CONTINUOUS
 10
140.310047568
 20
-249.6697633745
  0
VERTEX
  8
0
 62
7
  6
CONTINUOUS
 10
131.7883318448
 20
-249.6162834088
  0
VERTEX
  8
0
 62
7
  6
CONTINUOUS
 10
123.6800163061
 20
-249.5612277622
  0
VERTEX
  8
0
 62
7
  6
CONTINUOUS
 10
116.0757866506
 20
-249.505225023
  0
VERTEX
  8
0
 62
7
  6
CONTINUOUS
 10
109.0489236525
 20
-249.4487127811
  0
VERTEX
  8
0
 62
7
  6
CONTINUOUS
 10
102.6214135193
 20
-249.3920545027
  0
VERTEX
  8
0
 62
7
  6
CONTINUOUS
 10
96.845471025
 20
-249.3358231836
  0
VERTEX
  8
0
 62
7
  6
CONTINUOUS
 10
91.7036912448
 20
-249.2798278253
  0
SEQEND
  0
POLYLINE
  8
0
 62
7
  6
CONTINUOUS
 66
1
 70
0
  0
VERTEX
  8
0
 62
7
  6
CONTINUOUS
 10
65.2339200973
 20
-248.6386695498
  0
VERTEX
  8
0
 62
7
  6
CONTINUOUS
 10
66.4044103439
 20
-248.7051043444
  0
VERTEX
  8
0
 62
7
  6
CONTINUOUS
 10
67.6940669499
 20
-248.7759854994
  0
VERTEX
  8
0
 62
7
  6
CONTINUOUS
 10
69.1565627822
 20
-248.8454138643
  0
VERTEX
  8
0
 62
7
  6
CONTINUOUS
 10
70.9255535404
 20
-248.9128353448
  0
VERTEX
  8
0
 62
7
  6
CONTINUOUS
 10
73.1100947341
 20
-248.9781635585
  0
VERTEX
  8
0
 62
7
  6
CONTINUOUS
 10
75.8182185532
 20
-249.0422963904
  0
VERTEX
  8
0
 62
7
  6
CONTINUOUS
 10
79.1110556758
 20
-249.1054944865
  0
VERTEX
  8
0
 62
7
  6
CONTINUOUS
 10
82.9868295042
 20
-249.1674399958
  0
VERTEX
  8
0
 62
7
  6
CONTINUOUS
 10
87.4325262322
 20
-249.2283134812
  0
VERTEX
  8
0
 62
7
  6
CONTINUOUS
 10
91.6662202658
 20
-249.2796020482
  0
SEQEND
  0
POLYLINE
  8
0
 62
7
  6
CONTINUOUS
 66
1
 70
0
  0
VERTEX
  8
0
 62
7
  6
CONTINUOUS
 10
1.7654483325
 20
498.2685435564
  0
VERTEX
  8
0
 62
7
  6
CONTINUOUS
 10
1.4904790562
 20
497.9692203465
  0
VERTEX
  8
0
 62
7
  6
CONTINUOUS
 10
1.2446644849
 20
497.6092971715
  0
VERTEX
  8
0
 62
7
  6
CONTINUOUS
 10
1.049942756
 20
497.2089619392
  0
VERTEX
  8
0
 62
7
  6
CONTINUOUS
 10
0.9147297852
 20
496.7769235379
  0
VERTEX
  8
0
 62
7
  6
CONTINUOUS
 10
0.8455429203
 20
496.324647776
  0
VERTEX
  8
0
 62
7
  6
CONTINUOUS
 10
0.8374721231
 20
496.0414515401
  0
SEQEND
  0
LINE
  8
0
 62
7
  6
CONTINUOUS
 10
165.654862071
 20
551.4880233831
 11
165.6512962824
 21
551.4865382045
  0
POLYLINE
  8
0
 62
7
  6
CONTINUOUS
 66
1
 70
0
  0
VERTEX
  8
0
 62
7
  6
CONTINUOUS
 10
0.6744570487
 20
533.9393418396
  0
VERTEX
  8
0
 62
7
  6
CONTINUOUS
 10
0.5514788039
 20
533.5616468365
  0
VERTEX
  8
0
 62
7
  6
CONTINUOUS
 10
0.3676867364
 20
532.7730857105
  0
VERTEX
  8
0
 62
7
  6
CONTINUOUS
 10
0.2755083154
 20
531.9646819475
  0
VERTEX
  8
0
 62
7
  6
CONTINUOUS
 10
0.2664238606
 20
531.7328231771
  0
SEQEND
  0
LINE
  8
0
 62
7
  6
CONTINUOUS
 10
0.6721578703
 20
533.9328937156
 11
0.6744570487
 21
533.9393418396
  0
POLYLINE
  8
0
 62
7
  6
CONTINUOUS
 66
1
 70
0
  0
VERTEX
  8
0
 62
7
  6
CONTINUOUS
 10
156.7838657216
 20
546.0622233875
  0
VERTEX
  8
0
 62
7
  6
CONTINUOUS
 10
156.7134029914
 20
545.9904908111
  0
VERTEX
  8
0
 62
7
  6
CONTINUOUS
 10
156.6498890719
 20
545.9112257117
  0
VERTEX
  8
0
 62
7
  6
CONTINUOUS
 10
156.5819786364
 20
545.8031447137
  0
VERTEX
  8
0
 62
7
  6
CONTINUOUS
 10
156.521160354
 20
545.6680935299
  0
SEQEND
  0
LINE
  8
0
 62
7
  6
CONTINUOUS
 10
165.6512962824
 20
551.4865382045
 11
162.8125648062
 21
547.8240747283
  0
LINE
  8
0
 62
7
  6
CONTINUOUS
 10
73.9503040884
 20
-43.2103464598
 11
74.0111265051
 21
-43.2521814508
  0
POLYLINE
  8
0
 62
7
  6
CONTINUOUS
 66
1
 70
0
  0
VERTEX
  8
0
 62
7
  6
CONTINUOUS
 10
59.6940608315
 20
-31.7633023255
  0
VERTEX
  8
0
 62
7
  6
CONTINUOUS
 10
63.3342415249
 20
-34.9576986256
  0
VERTEX
  8
0
 62
7
  6
CONTINUOUS
 10
67.1388589236
 20
-38.0791304574
  0
VERTEX
  8
0
 62
7
  6
CONTINUOUS
 10
71.1062587339
 20
-41.1321167707
  0
VERTEX
  8
0
 62
7
  6
CONTINUOUS
 10
73.9503040884
 20
-43.2103464598
  0
SEQEND
  0
POLYLINE
  8
0
 62
7
  6
CONTINUOUS
 66
1
 70
0
  0
VERTEX
  8
0
 62
7
  6
CONTINUOUS
 10
7.1269213106
 20
158.373347676
  0
VERTEX
  8
0
 62
7
  6
CONTINUOUS
 10
7.1703082757
 20
157.8553678614
  0
VERTEX
  8
0
 62
7
  6
CONTINUOUS
 10
7.3077847666
 20
157.255721611
  0
VERTEX
  8
0
 62
7
  6
CONTINUOUS
 10
7.5342792667
 20
156.6865935809
  0
VERTEX
  8
0
 62
7
  6
CONTINUOUS
 10
7.8467100844
 20
156.1559904649
  0
VERTEX
  8
0
 62
7
  6
CONTINUOUS
 10
8.1482991838
 20
155.775046283
  0
SEQEND
  0
LINE
  8
0
 62
7
  6
CONTINUOUS
 10
0.837429614
 20
496.0416287684
 11
0.8374277257
 21
496.0416999362
  0
LINE
  8
0
 62
7
  6
CONTINUOUS
 10
7.454478578
 20
146.1248542544
 11
8.4063606321
 21
104.957293523
  0
LINE
  8
0
 62
7
  6
CONTINUOUS
 10
7.454478578
 20
146.1248542544
 11
7.4439206395
 21
146.5874144715
  0
POLYLINE
  8
0
 62
7
  6
CONTINUOUS
 66
1
 70
0
  0
VERTEX
  8
0
 62
7
  6
CONTINUOUS
 10
7.4433649525
 20
146.6075843863
  0
VERTEX
  8
0
 62
7
  6
CONTINUOUS
 10
7.4427257436
 20
146.6378657067
  0
VERTEX
  8
0
 62
7
  6
CONTINUOUS
 10
7.4422047089
 20
146.6681409524
  0
VERTEX
  8
0
 62
7
  6
CONTINUOUS
 10
7.4418036247
 20
146.6984062852
  0
VERTEX
  8
0
 62
7
  6
CONTINUOUS
 10
7.4415171604
 20
146.7286714851
  0
VERTEX
  8
0
 62
7
  6
CONTINUOUS
 10
7.4413399656
 20
146.7589463322
  0
VERTEX
  8
0
 62
7
  6
CONTINUOUS
 10
7.4412737931
 20
146.7892269882
  0
SEQEND
  0
LINE
  8
0
 62
7
  6
CONTINUOUS
 10
7.1268799003
 20
158.373435012
 11
0.8374299567
 21
496.0415801623
  0
LINE
  8
0
 62
7
  6
CONTINUOUS
 10
0.2663907398
 20
531.7327076599
 11
-0.4056056197
 21
502.0788471957
  0
LINE
  8
0
 62
7
  6
CONTINUOUS
 10
15.119103662
 20
88.5094460495
 11
15.1078714668
 21
88.5281952071
  0
POLYLINE
  8
0
 62
7
  6
CONTINUOUS
 66
1
 70
0
  0
VERTEX
  8
0
 62
7
  6
CONTINUOUS
 10
15.1248738863
 20
88.4987239774
  0
VERTEX
  8
0
 62
7
  6
CONTINUOUS
 10
15.1478288888
 20
88.458934808
  0
VERTEX
  8
0
 62
7
  6
CONTINUOUS
 10
15.1875582091
 20
88.3864719805
  0
VERTEX
  8
0
 62
7
  6
CONTINUOUS
 10
15.2225606923
 20
88.3193717383
  0
VERTEX
  8
0
 62
7
  6
CONTINUOUS
 10
15.2485081546
 20
88.2673583391
  0
VERTEX
  8
0
 62
7
  6
CONTINUOUS
 10
15.2553091101
 20
88.2533505287
  0
SEQEND
  0
LINE
  8
0
 62
7
  6
CONTINUOUS
 10
15.2085196009
 20
88.3411811591
 11
15.2558081511
 21
88.252314851
  0
POLYLINE
  8
0
 62
7
  6
CONTINUOUS
 66
1
 70
0
  0
VERTEX
  8
0
 62
7
  6
CONTINUOUS
 10
14.7922348887
 20
89.1181585264
  0
VERTEX
  8
0
 62
7
  6
CONTINUOUS
 10
14.8718819128
 20
88.9570790327
  0
VERTEX
  8
0
 62
7
  6
CONTINUOUS
 10
14.9637913769
 20
88.7807587863
  0
VERTEX
  8
0
 62
7
  6
CONTINUOUS
 10
15.0716755459
 20
88.5867877075
  0
VERTEX
  8
0
 62
7
  6
CONTINUOUS
 10
15.1188246378
 20
88.5062473653
  0
SEQEND
  0
LINE
  8
0
 62
7
  6
CONTINUOUS
 10
15.2558081511
 20
88.252314851
 11
15.2691519355
 21
88.2244022871
  0
LINE
  8
0
 62
7
  6
CONTINUOUS
 10
14.7922348887
 20
89.1181585264
 11
14.7516539964
 21
89.2030460946
  0
LINE
  8
0
 62
7
  6
CONTINUOUS
 10
13.1815435096
 20
93.745533543
 11
8.8752753973
 21
102.9549984853
  0
POLYLINE
  8
0
 62
7
  6
CONTINUOUS
 66
1
 70
0
  0
VERTEX
  8
0
 62
7
  6
CONTINUOUS
 10
15.2686381581
 20
88.2254917508
  0
VERTEX
  8
0
 62
7
  6
CONTINUOUS
 10
15.3928754433
 20
87.9413297603
  0
VERTEX
  8
0
 62
7
  6
CONTINUOUS
 10
15.5186653497
 20
87.5967576114
  0
VERTEX
  8
0
 62
7
  6
CONTINUOUS
 10
15.6173582373
 20
87.2640894031
  0
VERTEX
  8
0
 62
7
  6
CONTINUOUS
 10
15.6885638751
 20
86.9614071199
  0
VERTEX
  8
0
 62
7
  6
CONTINUOUS
 10
15.7191387058
 20
86.7973181436
  0
VERTEX
  8
0
 62
7
  6
CONTINUOUS
 10
15.760057848
 20
86.5106342372
  0
VERTEX
  8
0
 62
7
  6
CONTINUOUS
 10
15.8060007657
 20
85.9051036684
  0
SEQEND
  0
POLYLINE
  8
0
 62
7
  6
CONTINUOUS
 66
1
 70
0
  0
VERTEX
  8
0
 62
7
  6
CONTINUOUS
 10
14.4368503296
 20
89.9370693645
  0
VERTEX
  8
0
 62
7
  6
CONTINUOUS
 10
14.5960577776
 20
89.5490566043
  0
VERTEX
  8
0
 62
7
  6
CONTINUOUS
 10
14.7544408348
 20
89.1971642034
  0
SEQEND
  0
POLYLINE
  8
0
 62
7
  6
CONTINUOUS
 66
1
 70
0
  0
VERTEX
  8
0
 62
7
  6
CONTINUOUS
 10
8.8751298156
 20
102.9553098571
  0
VERTEX
  8
0
 62
7
  6
CONTINUOUS
 10
8.6785675582
 20
103.4405457563
  0
VERTEX
  8
0
 62
7
  6
CONTINUOUS
 10
8.4836259549
 20
104.1883439211
  0
VERTEX
  8
0
 62
7
  6
CONTINUOUS
 10
8.4063606321
 20
104.957293523
  0
SEQEND
  0
POLYLINE
  8
0
 62
7
  6
CONTINUOUS
 66
1
 70
0
  0
VERTEX
  8
0
 62
7
  6
CONTINUOUS
 10
13.1815435096
 20
93.745533543
  0
VERTEX
  8
0
 62
7
  6
CONTINUOUS
 10
13.1948882609
 20
93.7001159208
  0
VERTEX
  8
0
 62
7
  6
CONTINUOUS
 10
13.2603395514
 20
93.4716159804
  0
VERTEX
  8
0
 62
7
  6
CONTINUOUS
 10
13.3283136675
 20
93.2331445914
  0
VERTEX
  8
0
 62
7
  6
CONTINUOUS
 10
13.4031702953
 20
92.9727538087
  0
VERTEX
  8
0
 62
7
  6
CONTINUOUS
 10
13.4826353206
 20
92.70126799
  0
VERTEX
  8
0
 62
7
  6
CONTINUOUS
 10
13.5683517727
 20
92.4150713189
  0
VERTEX
  8
0
 62
7
  6
CONTINUOUS
 10
13.6614322458
 20
92.1128975515
  0
VERTEX
  8
0
 62
7
  6
CONTINUOUS
 10
13.7617411541
 20
91.7986576127
  0
VERTEX
  8
0
 62
7
  6
CONTINUOUS
 10
13.8721414253
 20
91.467946949
  0
VERTEX
  8
0
 62
7
  6
CONTINUOUS
 10
13.9860112493
 20
91.1421474828
  0
VERTEX
  8
0
 62
7
  6
CONTINUOUS
 10
14.0946958225
 20
90.8424631589
  0
VERTEX
  8
0
 62
7
  6
CONTINUOUS
 10
14.2044507961
 20
90.5470352101
  0
VERTEX
  8
0
 62
7
  6
CONTINUOUS
 10
14.3132182077
 20
90.2575755644
  0
VERTEX
  8
0
 62
7
  6
CONTINUOUS
 10
14.4368503296
 20
89.9370693645
  0
SEQEND
  0
LINE
  8
0
 62
7
  6
CONTINUOUS
 10
13.1528451933
 20
93.8432413465
 11
13.1815435096
 21
93.745533543
  0
POLYLINE
  8
0
 62
7
  6
CONTINUOUS
 66
1
 70
0
  0
VERTEX
  8
0
 62
7
  6
CONTINUOUS
 10
-0.4055617768
 20
502.0787304783
  0
VERTEX
  8
0
 62
7
  6
CONTINUOUS
 10
-0.387246136
 20
501.6721272417
  0
VERTEX
  8
0
 62
7
  6
CONTINUOUS
 10
-0.3022917713
 20
501.2261052895
  0
VERTEX
  8
0
 62
7
  6
CONTINUOUS
 10
-0.1519786216
 20
500.7996792044
  0
VERTEX
  8
0
 62
7
  6
CONTINUOUS
 10
0.0614832531
 20
500.3989816507
  0
VERTEX
  8
0
 62
7
  6
CONTINUOUS
 10
0.2642431575
 20
500.1165053133
  0
SEQEND
  0
POLYLINE
  8
0
 62
7
  6
CONTINUOUS
 66
1
 70
0
  0
VERTEX
  8
0
 62
7
  6
CONTINUOUS
 10
15.816705159
 20
85.930999987
  0
VERTEX
  8
0
 62
7
  6
CONTINUOUS
 10
15.8999574799
 20
83.6781691874
  0
VERTEX
  8
0
 62
7
  6
CONTINUOUS
 10
15.9959750509
 20
81.3736308267
  0
VERTEX
  8
0
 62
7
  6
CONTINUOUS
 10
16.1105202849
 20
78.9485039609
  0
VERTEX
  8
0
 62
7
  6
CONTINUOUS
 10
16.2511358389
 20
76.3340054774
  0
VERTEX
  8
0
 62
7
  6
CONTINUOUS
 10
16.4201773298
 20
73.5776806114
  0
VERTEX
  8
0
 62
7
  6
CONTINUOUS
 10
16.6208665327
 20
70.6999333229
  0
VERTEX
  8
0
 62
7
  6
CONTINUOUS
 10
16.8566722227
 20
67.7127962699
  0
VERTEX
  8
0
 62
7
  6
CONTINUOUS
 10
17.1307292297
 20
64.6312596767
  0
VERTEX
  8
0
 62
7
  6
CONTINUOUS
 10
17.4466814508
 20
61.4666160453
  0
VERTEX
  8
0
 62
7
  6
CONTINUOUS
 10
17.8071837376
 20
58.2384143446
  0
VERTEX
  8
0
 62
7
  6
CONTINUOUS
 10
18.2181758928
 20
54.9368086028
  0
VERTEX
  8
0
 62
7
  6
CONTINUOUS
 10
18.6861409513
 20
51.5549251401
  0
VERTEX
  8
0
 62
7
  6
CONTINUOUS
 10
19.215479445
 20
48.1047867959
  0
VERTEX
  8
0
 62
7
  6
CONTINUOUS
 10
19.811800705
 20
44.5920532804
  0
VERTEX
  8
0
 62
7
  6
CONTINUOUS
 10
20.4798935242
 20
41.0297364509
  0
VERTEX
  8
0
 62
7
  6
CONTINUOUS
 10
21.2240620937
 20
37.4319753986
  0
VERTEX
  8
0
 62
7
  6
CONTINUOUS
 10
22.0509931257
 20
33.8008930754
  0
VERTEX
  8
0
 62
7
  6
CONTINUOUS
 10
22.9666361233
 20
30.1432819554
  0
VERTEX
  8
0
 62
7
  6
CONTINUOUS
 10
23.9788564126
 20
26.4598286224
  0
VERTEX
  8
0
 62
7
  6
CONTINUOUS
 10
25.0959227473
 20
22.7526857829
  0
VERTEX
  8
0
 62
7
  6
CONTINUOUS
 10
26.3261649817
 20
19.0257270924
  0
VERTEX
  8
0
 62
7
  6
CONTINUOUS
 10
27.6786274587
 20
15.282240585
  0
VERTEX
  8
0
 62
7
  6
CONTINUOUS
 10
29.1622187368
 20
11.5272826059
  0
VERTEX
  8
0
 62
7
  6
CONTINUOUS
 10
30.7863695675
 20
7.7651216978
  0
VERTEX
  8
0
 62
7
  6
CONTINUOUS
 10
32.5599226455
 20
4.0019718436
  0
VERTEX
  8
0
 62
7
  6
CONTINUOUS
 10
34.4926837392
 20
0.2426091779
  0
VERTEX
  8
0
 62
7
  6
CONTINUOUS
 10
36.5923801424
 20
-3.5038956476
  0
VERTEX
  8
0
 62
7
  6
CONTINUOUS
 10
38.8680816884
 20
-7.2321765549
  0
VERTEX
  8
0
 62
7
  6
CONTINUOUS
 10
41.3219095788
 20
-10.9278503994
  0
VERTEX
  8
0
 62
7
  6
CONTINUOUS
 10
43.9571754428
 20
-14.5810785356
  0
VERTEX
  8
0
 62
7
  6
CONTINUOUS
 10
46.7710496079
 20
-18.176292937
  0
VERTEX
  8
0
 62
7
  6
CONTINUOUS
 10
49.757675431
 20
-21.6993118216
  0
VERTEX
  8
0
 62
7
  6
CONTINUOUS
 10
52.9125269117
 20
-25.1431088099
  0
VERTEX
  8
0
 62
7
  6
CONTINUOUS
 10
56.2216707335
 20
-28.4939605113
  0
VERTEX
  8
0
 62
7
  6
CONTINUOUS
 10
59.6940608315
 20
-31.7633023255
  0
SEQEND
  0
POLYLINE
  8
0
 62
7
  6
CONTINUOUS
 66
1
 70
0
  0
VERTEX
  8
0
 62
7
  6
CONTINUOUS
 10
49.3499166667
 20
-242.1410516711
  0
VERTEX
  8
0
 62
7
  6
CONTINUOUS
 10
49.3873806745
 20
-243.3523399443
  0
VERTEX
  8
0
 62
7
  6
CONTINUOUS
 10
49.7044374787
 20
-244.4976407299
  0
VERTEX
  8
0
 62
7
  6
CONTINUOUS
 10
50.2318311246
 20
-245.4673813953
  0
VERTEX
  8
0
 62
7
  6
CONTINUOUS
 10
50.8194235053
 20
-246.1676316357
  0
VERTEX
  8
0
 62
7
  6
CONTINUOUS
 10
51.3814728803
 20
-246.6504366682
  0
VERTEX
  8
0
 62
7
  6
CONTINUOUS
 10
51.8485193093
 20
-246.958502412
  0
VERTEX
  8
0
 62
7
  6
CONTINUOUS
 10
52.227090976
 20
-247.1597446501
  0
VERTEX
  8
0
 62
7
  6
CONTINUOUS
 10
52.5391734344
 20
-247.2979409986
  0
VERTEX
  8
0
 62
7
  6
CONTINUOUS
 10
52.7940139163
 20
-247.39437159
  0
VERTEX
  8
0
 62
7
  6
CONTINUOUS
 10
53.0146821306
 20
-247.4671421758
  0
VERTEX
  8
0
 62
7
  6
CONTINUOUS
 10
53.2051774642
 20
-247.5227135328
  0
VERTEX
  8
0
 62
7
  6
CONTINUOUS
 10
53.3777352479
 20
-247.5678133436
  0
VERTEX
  8
0
 62
7
  6
CONTINUOUS
 10
53.5339561221
 20
-247.6047785909
  0
VERTEX
  8
0
 62
7
  6
CONTINUOUS
 10
53.6786034098
 20
-247.636089477
  0
VERTEX
  8
0
 62
7
  6
CONTINUOUS
 10
53.8142372488
 20
-247.6632132932
  0
VERTEX
  8
0
 62
7
  6
CONTINUOUS
 10
53.9444425077
 20
-247.6874765593
  0
VERTEX
  8
0
 62
7
  6
CONTINUOUS
 10
54.0706510619
 20
-247.7095545383
  0
VERTEX
  8
0
 62
7
  6
CONTINUOUS
 10
54.1952329328
 20
-247.730144469
  0
VERTEX
  8
0
 62
7
  6
CONTINUOUS
 10
54.3187831344
 20
-247.7495438804
  0
VERTEX
  8
0
 62
7
  6
CONTINUOUS
 10
54.4425726661
 20
-247.7681019804
  0
VERTEX
  8
0
 62
7
  6
CONTINUOUS
 10
54.5668017543
 20
-247.785963336
  0
VERTEX
  8
0
 62
7
  6
CONTINUOUS
 10
54.6920205183
 20
-247.8033015893
  0
VERTEX
  8
0
 62
7
  6
CONTINUOUS
 10
54.818263713
 20
-247.8202045467
  0
VERTEX
  8
0
 62
7
  6
CONTINUOUS
 10
54.9456885191
 20
-247.8367667016
  0
VERTEX
  8
0
 62
7
  6
CONTINUOUS
 10
55.0742849172
 20
-247.8530514559
  0
VERTEX
  8
0
 62
7
  6
CONTINUOUS
 10
55.2041178415
 20
-247.8691252096
  0
VERTEX
  8
0
 62
7
  6
CONTINUOUS
 10
55.3350085643
 20
-247.885019469
  0
VERTEX
  8
0
 62
7
  6
CONTINUOUS
 10
55.4664721248
 20
-247.9007270468
  0
VERTEX
  8
0
 62
7
  6
CONTINUOUS
 10
55.5993858777
 20
-247.9164003713
  0
VERTEX
  8
0
 62
7
  6
CONTINUOUS
 10
55.7345329455
 20
-247.9321581925
  0
VERTEX
  8
0
 62
7
  6
CONTINUOUS
 10
55.8726541423
 20
-247.9480591194
  0
VERTEX
  8
0
 62
7
  6
CONTINUOUS
 10
56.015080276
 20
-247.964214129
  0
VERTEX
  8
0
 62
7
  6
CONTINUOUS
 10
56.1616949287
 20
-247.9805651572
  0
VERTEX
  8
0
 62
7
  6
CONTINUOUS
 10
56.3127623443
 20
-247.9970970504
  0
VERTEX
  8
0
 62
7
  6
CONTINUOUS
 10
56.4685375224
 20
-248.0137927588
  0
VERTEX
  8
0
 62
7
  6
CONTINUOUS
 10
56.6293986907
 20
-248.0306474581
  0
VERTEX
  8
0
 62
7
  6
CONTINUOUS
 10
56.795305259
 20
-248.0476134099
  0
VERTEX
  8
0
 62
7
  6
CONTINUOUS
 10
56.9660738703
 20
-248.0646448794
  0
VERTEX
  8
0
 62
7
  6
CONTINUOUS
 10
57.1419280936
 20
-248.0817490057
  0
VERTEX
  8
0
 62
7
  6
CONTINUOUS
 10
57.3229152025
 20
-248.0989157777
  0
VERTEX
  8
0
 62
7
  6
CONTINUOUS
 10
57.5093026444
 20
-248.116156096
  0
VERTEX
  8
0
 62
7
  6
CONTINUOUS
 10
57.7013346241
 20
-248.1334775587
  0
VERTEX
  8
0
 62
7
  6
CONTINUOUS
 10
57.8991683267
 20
-248.1508792697
  0
VERTEX
  8
0
 62
7
  6
CONTINUOUS
 10
58.1030150769
 20
-248.1683650545
  0
VERTEX
  8
0
 62
7
  6
CONTINUOUS
 10
58.3129018941
 20
-248.1859297331
  0
VERTEX
  8
0
 62
7
  6
CONTINUOUS
 10
58.528721854
 20
-248.2035652887
  0
VERTEX
  8
0
 62
7
  6
CONTINUOUS
 10
58.7506369163
 20
-248.2212863962
  0
VERTEX
  8
0
 62
7
  6
CONTINUOUS
 10
58.9787410535
 20
-248.2391015397
  0
VERTEX
  8
0
 62
7
  6
CONTINUOUS
 10
59.2131250166
 20
-248.2570185753
  0
VERTEX
  8
0
 62
7
  6
CONTINUOUS
 10
59.4538830908
 20
-248.2750453009
  0
VERTEX
  8
0
 62
7
  6
CONTINUOUS
 10
59.7010953807
 20
-248.2931881815
  0
VERTEX
  8
0
 62
7
  6
CONTINUOUS
 10
59.9548470048
 20
-248.3114538532
  0
VERTEX
  8
0
 62
7
  6
CONTINUOUS
 10
60.2152118976
 20
-248.3298479826
  0
VERTEX
  8
0
 62
7
  6
CONTINUOUS
 10
60.4822673157
 20
-248.348376361
  0
VERTEX
  8
0
 62
7
  6
CONTINUOUS
 10
60.7560809593
 20
-248.3670440339
  0
VERTEX
  8
0
 62
7
  6
CONTINUOUS
 10
61.0367100821
 20
-248.3858553158
  0
VERTEX
  8
0
 62
7
  6
CONTINUOUS
 10
61.3242534722
 20
-248.4048172491
  0
VERTEX
  8
0
 62
7
  6
CONTINUOUS
 10
61.6188274474
 20
-248.4239363348
  0
VERTEX
  8
0
 62
7
  6
CONTINUOUS
 10
61.9205684869
 20
-248.4432171529
  0
VERTEX
  8
0
 62
7
  6
CONTINUOUS
 10
62.2296366663
 20
-248.4626652221
  0
VERTEX
  8
0
 62
7
  6
CONTINUOUS
 10
62.5461580323
 20
-248.4822837245
  0
VERTEX
  8
0
 62
7
  6
CONTINUOUS
 10
62.8702705353
 20
-248.502076464
  0
VERTEX
  8
0
 62
7
  6
CONTINUOUS
 10
63.2021124023
 20
-248.5220471309
  0
VERTEX
  8
0
 62
7
  6
CONTINUOUS
 10
63.5418250973
 20
-248.5421994872
  0
VERTEX
  8
0
 62
7
  6
CONTINUOUS
 10
63.8895504005
 20
-248.5625371959
  0
VERTEX
  8
0
 62
7
  6
CONTINUOUS
 10
64.2454332548
 20
-248.5830639948
  0
VERTEX
  8
0
 62
7
  6
CONTINUOUS
 10
64.6096188955
 20
-248.6037835331
  0
VERTEX
  8
0
 62
7
  6
CONTINUOUS
 10
64.9822823927
 20
-248.6247010291
  0
VERTEX
  8
0
 62
7
  6
CONTINUOUS
 10
65.2339200973
 20
-248.6386695498
  0
SEQEND
  0
LINE
  8
0
 62
7
  6
CONTINUOUS
 10
13.1732287349
 20
169.3418536324
 11
13.1732437705
 21
169.3420747587
  0
LINE
  8
0
 62
7
  6
CONTINUOUS
 10
13.1732097376
 20
169.3415757701
 11
11.2622324207
 21
141.3228991823
  0
POLYLINE
  8
0
 62
7
  6
CONTINUOUS
 66
1
 70
0
  0
VERTEX
  8
0
 62
7
  6
CONTINUOUS
 10
13.4733970655
 20
170.9957649136
  0
VERTEX
  8
0
 62
7
  6
CONTINUOUS
 10
13.3790833316
 20
170.6510594449
  0
VERTEX
  8
0
 62
7
  6
CONTINUOUS
 10
13.2623147712
 20
170.0920715987
  0
VERTEX
  8
0
 62
7
  6
CONTINUOUS
 10
13.1874789519
 20
169.5198817085
  0
VERTEX
  8
0
 62
7
  6
CONTINUOUS
 10
13.1731631713
 20
169.3412075935
  0
SEQEND
  0
LINE
  8
0
 62
7
  6
CONTINUOUS
 10
13.4737333418
 20
170.9968893077
 11
13.4733970655
 21
170.9957649136
  0
LINE
  8
0
 62
7
  6
CONTINUOUS
 10
156.521160354
 20
545.6680935299
 11
155.7596377554
 21
543.5758564447
  0
LINE
  8
0
 62
7
  6
CONTINUOUS
 10
162.8125648062
 20
547.8240747283
 11
162.812406675
 21
547.8236666924
  0
LINE
  8
0
 62
7
  6
CONTINUOUS
 10
165.6512962824
 20
551.4865382045
 11
165.651159066
 21
551.4861841366
  0
POLYLINE
  8
0
 62
7
  6
CONTINUOUS
 66
1
 70
0
  0
VERTEX
  8
0
 62
7
  6
CONTINUOUS
 10
17.9382606344
 20
183.5008890936
  0
VERTEX
  8
0
 62
7
  6
CONTINUOUS
 10
17.2069971549
 20
181.727972282
  0
VERTEX
  8
0
 62
7
  6
CONTINUOUS
 10
16.4556035381
 20
179.8362977301
  0
VERTEX
  8
0
 62
7
  6
CONTINUOUS
 10
15.6935426474
 20
177.7979732088
  0
VERTEX
  8
0
 62
7
  6
CONTINUOUS
 10
14.9339538723
 20
175.6141573736
  0
VERTEX
  8
0
 62
7
  6
CONTINUOUS
 10
14.1892055764
 20
173.3260958516
  0
VERTEX
  8
0
 62
7
  6
CONTINUOUS
 10
13.473733372
 20
170.9968894086
  0
SEQEND
  0
POLYLINE
  8
0
 62
7
  6
CONTINUOUS
 66
1
 70
0
  0
VERTEX
  8
0
 62
7
  6
CONTINUOUS
 10
61.7224237641
 20
-33.5432675505
  0
VERTEX
  8
0
 62
7
  6
CONTINUOUS
 10
61.7632158513
 20
-36.3562503623
  0
VERTEX
  8
0
 62
7
  6
CONTINUOUS
 10
61.4179513168
 20
-76.958995841
  0
VERTEX
  8
0
 62
7
  6
CONTINUOUS
 10
60.1904614586
 20
-116.1516292375
  0
VERTEX
  8
0
 62
7
  6
CONTINUOUS
 10
58.3767175242
 20
-153.9257499333
  0
VERTEX
  8
0
 62
7
  6
CONTINUOUS
 10
58.1050483534
 20
-159.1165831545
  0
SEQEND
  0
POLYLINE
  8
0
 62
7
  6
CONTINUOUS
 66
1
 70
0
  0
VERTEX
  8
0
 62
7
  6
CONTINUOUS
 10
10.5662158425
 20
153.1200869516
  0
VERTEX
  8
0
 62
7
  6
CONTINUOUS
 10
9.6985194502
 20
152.3633639024
  0
VERTEX
  8
0
 62
7
  6
CONTINUOUS
 10
8.854348726
 20
151.3320494271
  0
VERTEX
  8
0
 62
7
  6
CONTINUOUS
 10
8.1908699095
 20
150.1739604906
  0
VERTEX
  8
0
 62
7
  6
CONTINUOUS
 10
7.7281751331
 20
148.9192312985
  0
VERTEX
  8
0
 62
7
  6
CONTINUOUS
 10
7.4821740262
 20
147.6068592551
  0
VERTEX
  8
0
 62
7
  6
CONTINUOUS
 10
7.4407808106
 20
146.7892370057
  0
SEQEND
  0
POLYLINE
  8
0
 62
7
  6
CONTINUOUS
 66
1
 70
0
  0
VERTEX
  8
0
 62
7
  6
CONTINUOUS
 10
11.5464699107
 20
151.9961598901
  0
VERTEX
  8
0
 62
7
  6
CONTINUOUS
 10
11.8649382763
 20
151.6800789634
  0
VERTEX
  8
0
 62
7
  6
CONTINUOUS
 10
11.9632578358
 20
151.6013071004
  0
SEQEND
  0
LINE
  8
0
 62
7
  6
CONTINUOUS
 10
8.2299512057
 20
155.6865712598
 11
8.1540682673
 21
155.7686169057
  0
LINE
  8
0
 62
7
  6
CONTINUOUS
 10
11.5461208802
 20
151.9965474081
 11
8.1540682673
 21
155.7686169057
  0
LINE
  8
0
 62
7
  6
CONTINUOUS
 10
8.1540682673
 20
155.7686169057
 11
8.1475752025
 21
155.7758551056
  0
POLYLINE
  8
0
 62
7
  6
CONTINUOUS
 66
1
 70
0
  0
VERTEX
  8
0
 62
7
  6
CONTINUOUS
 10
58.7986160648
 20
-149.0111567676
  0
VERTEX
  8
0
 62
7
  6
CONTINUOUS
 10
58.8169321642
 20
-148.7039599158
  0
VERTEX
  8
0
 62
7
  6
CONTINUOUS
 10
58.7967162415
 20
-149.033526665
  0
VERTEX
  8
0
 62
7
  6
CONTINUOUS
 10
58.749048703
 20
-149.7965207064
  0
VERTEX
  8
0
 62
7
  6
CONTINUOUS
 10
58.6814168922
 20
-150.8561247208
  0
VERTEX
  8
0
 62
7
  6
CONTINUOUS
 10
58.5995912384
 20
-152.1090678979
  0
VERTEX
  8
0
 62
7
  6
CONTINUOUS
 10
58.5059774258
 20
-153.5067386939
  0
VERTEX
  8
0
 62
7
  6
CONTINUOUS
 10
58.4063612361
 20
-154.9552769378
  0
VERTEX
  8
0
 62
7
  6
CONTINUOUS
 10
58.2981338544
 20
-156.487240924
  0
VERTEX
  8
0
 62
7
  6
CONTINUOUS
 10
58.1807388589
 20
-158.1036053474
  0
SEQEND
  0
POLYLINE
  8
0
 62
7
  6
CONTINUOUS
 66
1
 70
0
  0
VERTEX
  8
0
 62
7
  6
CONTINUOUS
 10
58.1807388589
 20
-158.1036053474
  0
VERTEX
  8
0
 62
7
  6
CONTINUOUS
 10
58.0535905726
 20
-159.8052506387
  0
VERTEX
  8
0
 62
7
  6
CONTINUOUS
 10
57.9161866154
 20
-161.5915412072
  0
VERTEX
  8
0
 62
7
  6
CONTINUOUS
 10
57.7675111082
 20
-163.4679893124
  0
VERTEX
  8
0
 62
7
  6
CONTINUOUS
 10
57.6067419713
 20
-165.4368579492
  0
VERTEX
  8
0
 62
7
  6
CONTINUOUS
 10
57.4324306336
 20
-167.5072406802
  0
VERTEX
  8
0
 62
7
  6
CONTINUOUS
 10
57.2432956917
 20
-169.6850739524
  0
VERTEX
  8
0
 62
7
  6
CONTINUOUS
 10
57.0374557111
 20
-171.9820627747
  0
VERTEX
  8
0
 62
7
  6
CONTINUOUS
 10
56.8124707432
 20
-174.4144322145
  0
VERTEX
  8
0
 62
7
  6
CONTINUOUS
 10
56.5680379195
 20
-176.9745194987
  0
VERTEX
  8
0
 62
7
  6
CONTINUOUS
 10
56.3024639859
 20
-179.6697943181
  0
VERTEX
  8
0
 62
7
  6
CONTINUOUS
 10
56.0176502964
 20
-182.4710824104
  0
VERTEX
  8
0
 62
7
  6
CONTINUOUS
 10
55.7157538274
 20
-185.3499223358
  0
VERTEX
  8
0
 62
7
  6
CONTINUOUS
 10
55.3957554172
 20
-188.3117026135
  0
VERTEX
  8
0
 62
7
  6
CONTINUOUS
 10
55.0574813634
 20
-191.3557204953
  0
VERTEX
  8
0
 62
7
  6
CONTINUOUS
 10
54.7021141079
 20
-194.4718507807
  0
VERTEX
  8
0
 62
7
  6
CONTINUOUS
 10
54.331638625
 20
-197.6473485026
  0
VERTEX
  8
0
 62
7
  6
CONTINUOUS
 10
53.9464642599
 20
-200.8895497738
  0
VERTEX
  8
0
 62
7
  6
CONTINUOUS
 10
53.5480410162
 20
-204.2009163988
  0
VERTEX
  8
0
 62
7
  6
CONTINUOUS
 10
53.1382746695
 20
-207.5835454711
  0
VERTEX
  8
0
 62
7
  6
CONTINUOUS
 10
52.7191135762
 20
-211.042368501
  0
VERTEX
  8
0
 62
7
  6
CONTINUOUS
 10
52.2941597246
 20
-214.5715010148
  0
VERTEX
  8
0
 62
7
  6
CONTINUOUS
 10
51.8677419754
 20
-218.1609634419
  0
VERTEX
  8
0
 62
7
  6
CONTINUOUS
 10
51.4411277995
 20
-221.8280797475
  0
VERTEX
  8
0
 62
7
  6
CONTINUOUS
 10
51.0172593219
 20
-225.5779691106
  0
VERTEX
  8
0
 62
7
  6
CONTINUOUS
 10
50.5969328024
 20
-229.4373751546
  0
VERTEX
  8
0
 62
7
  6
CONTINUOUS
 10
50.1829462025
 20
-233.418927195
  0
VERTEX
  8
0
 62
7
  6
CONTINUOUS
 10
49.7749557414
 20
-237.5702918479
  0
VERTEX
  8
0
 62
7
  6
CONTINUOUS
 10
49.3516117394
 20
-242.1505466479
  0
SEQEND
  0
LINE
  8
0
 62
7
  6
CONTINUOUS
 10
49.3523276965
 20
-242.1453805052
 11
49.3516117394
 21
-242.1505466479
  0
LINE
  8
0
 62
7
  6
CONTINUOUS
 10
365.3658959893
 20
496.5212430369
 11
368.2872580789
 21
500.1173921185
  0
POLYLINE
  8
0
 62
7
  6
CONTINUOUS
 66
1
 70
0
  0
VERTEX
  8
0
 62
7
  6
CONTINUOUS
 10
368.2868563915
 20
500.1168953211
  0
VERTEX
  8
0
 62
7
  6
CONTINUOUS
 10
368.4855900035
 20
500.3931414208
  0
VERTEX
  8
0
 62
7
  6
CONTINUOUS
 10
368.7005202069
 20
500.7945891126
  0
VERTEX
  8
0
 62
7
  6
CONTINUOUS
 10
368.8519780589
 20
501.222050826
  0
VERTEX
  8
0
 62
7
  6
CONTINUOUS
 10
368.9377128905
 20
501.6693352002
  0
VERTEX
  8
0
 62
7
  6
CONTINUOUS
 10
368.9563458541
 20
502.0787307353
  0
SEQEND
  0
LINE
  8
0
 62
7
  6
CONTINUOUS
 10
184.5156857562
 20
553.0958176011
 11
184.5156857562
 21
553.7649968148
  0
LINE
  8
0
 62
7
  6
CONTINUOUS
 10
185.0156857562
 20
553.5618147211
 11
185.0156857562
 21
552.8326400923
  0
POLYLINE
  8
0
 62
7
  6
CONTINUOUS
 66
1
 70
0
  0
VERTEX
  8
0
 62
7
  6
CONTINUOUS
 10
160.7848417208
 20
131.1518457393
  0
VERTEX
  8
0
 62
7
  6
CONTINUOUS
 10
172.5426771564
 20
131.1208593405
  0
VERTEX
  8
0
 62
7
  6
CONTINUOUS
 10
184.3271238742
 20
131.1108586284
  0
VERTEX
  8
0
 62
7
  6
CONTINUOUS
 10
196.0911617056
 20
131.1211690123
  0
VERTEX
  8
0
 62
7
  6
CONTINUOUS
 10
207.7793441999
 20
131.1519892914
  0
VERTEX
  8
0
 62
7
  6
CONTINUOUS
 10
218.425492753
 20
131.1991246558
  0
SEQEND
  0
POLYLINE
  8
0
 62
7
  6
CONTINUOUS
 66
1
 70
0
  0
VERTEX
  8
0
 62
7
  6
CONTINUOUS
 10
150.1252931355
 20
131.1991246462
  0
VERTEX
  8
0
 62
7
  6
CONTINUOUS
 10
138.4892005868
 20
131.2743408257
  0
VERTEX
  8
0
 62
7
  6
CONTINUOUS
 10
127.1784861593
 20
131.3736737691
  0
VERTEX
  8
0
 62
7
  6
CONTINUOUS
 10
116.1191851366
 20
131.4974498331
  0
VERTEX
  8
0
 62
7
  6
CONTINUOUS
 10
105.7370101335
 20
131.6396425195
  0
VERTEX
  8
0
 62
7
  6
CONTINUOUS
 10
96.4095047523
 20
131.7909997216
  0
VERTEX
  8
0
 62
7
  6
CONTINUOUS
 10
87.9667873762
 20
131.9494299587
  0
VERTEX
  8
0
 62
7
  6
CONTINUOUS
 10
80.3782636625
 20
132.1113276103
  0
VERTEX
  8
0
 62
7
  6
CONTINUOUS
 10
73.5509726917
 20
132.2748167881
  0
VERTEX
  8
0
 62
7
  6
CONTINUOUS
 10
67.4042325965
 20
132.4384504417
  0
VERTEX
  8
0
 62
7
  6
CONTINUOUS
 10
61.8771123517
 20
132.6008138912
  0
VERTEX
  8
0
 62
7
  6
CONTINUOUS
 10
56.9039487262
 20
132.7610815208
  0
VERTEX
  8
0
 62
7
  6
CONTINUOUS
 10
52.433645082
 20
132.9183935524
  0
VERTEX
  8
0
 62
7
  6
CONTINUOUS
 10
48.4131739631
 20
133.0723178101
  0
VERTEX
  8
0
 62
7
  6
CONTINUOUS
 10
44.8003057202
 20
133.2223579802
  0
VERTEX
  8
0
 62
7
  6
CONTINUOUS
 10
41.5523382847
 20
133.3683321598
  0
VERTEX
  8
0
 62
7
  6
CONTINUOUS
 10
38.6346565382
 20
133.5099823627
  0
VERTEX
  8
0
 62
7
  6
CONTINUOUS
 10
36.0129120162
 20
133.647284515
  0
VERTEX
  8
0
 62
7
  6
CONTINUOUS
 10
33.6587953913
 20
133.7801401881
  0
VERTEX
  8
0
 62
7
  6
CONTINUOUS
 10
31.5446243474
 20
133.9086272379
  0
VERTEX
  8
0
 62
7
  6
CONTINUOUS
 10
29.6472691973
 20
134.0327552961
  0
VERTEX
  8
0
 62
7
  6
CONTINUOUS
 10
27.9443728305
 20
134.152668943
  0
VERTEX
  8
0
 62
7
  6
CONTINUOUS
 10
26.4169918118
 20
134.2684563768
  0
VERTEX
  8
0
 62
7
  6
CONTINUOUS
 10
25.0470028185
 20
134.3803105847
  0
VERTEX
  8
0
 62
7
  6
CONTINUOUS
 10
23.818813142
 20
134.4883851863
  0
VERTEX
  8
0
 62
7
  6
CONTINUOUS
 10
22.717666892
 20
134.5929155638
  0
VERTEX
  8
0
 62
7
  6
CONTINUOUS
 10
21.7305768047
 20
134.6941275279
  0
VERTEX
  8
0
 62
7
  6
CONTINUOUS
 10
20.8454070774
 20
134.7923126491
  0
VERTEX
  8
0
 62
7
  6
CONTINUOUS
 10
20.0511982993
 20
134.8877913585
  0
VERTEX
  8
0
 62
7
  6
CONTINUOUS
 10
19.3378547993
 20
134.9809421817
  0
VERTEX
  8
0
 62
7
  6
CONTINUOUS
 10
18.6958947894
 20
135.0722385157
  0
VERTEX
  8
0
 62
7
  6
CONTINUOUS
 10
18.1168381022
 20
135.1622006056
  0
VERTEX
  8
0
 62
7
  6
CONTINUOUS
 10
17.5918587193
 20
135.2516235218
  0
VERTEX
  8
0
 62
7
  6
CONTINUOUS
 10
17.1135151117
 20
135.3413369603
  0
VERTEX
  8
0
 62
7
  6
CONTINUOUS
 10
16.6728277834
 20
135.4328009109
  0
VERTEX
  8
0
 62
7
  6
CONTINUOUS
 10
16.2629296155
 20
135.5275056229
  0
VERTEX
  8
0
 62
7
  6
CONTINUOUS
 10
15.8733634061
 20
135.6284224674
  0
VERTEX
  8
0
 62
7
  6
CONTINUOUS
 10
15.4970116005
 20
135.7386684814
  0
VERTEX
  8
0
 62
7
  6
CONTINUOUS
 10
15.1207984367
 20
135.8645915267
  0
VERTEX
  8
0
 62
7
  6
CONTINUOUS
 10
14.7356490425
 20
136.0137607196
  0
VERTEX
  8
0
 62
7
  6
CONTINUOUS
 10
14.3292848059
 20
136.1985871124
  0
VERTEX
  8
0
 62
7
  6
CONTINUOUS
 10
13.8970931314
 20
136.4332660569
  0
VERTEX
  8
0
 62
7
  6
CONTINUOUS
 10
13.4249307883
 20
136.7457288397
  0
VERTEX
  8
0
 62
7
  6
CONTINUOUS
 10
12.9000575095
 20
137.1828550542
  0
VERTEX
  8
0
 62
7
  6
CONTINUOUS
 10
12.3799395868
 20
137.7490177966
  0
VERTEX
  8
0
 62
7
  6
CONTINUOUS
 10
11.9154921276
 20
138.4397821096
  0
VERTEX
  8
0
 62
7
  6
CONTINUOUS
 10
11.5397693172
 20
139.2707027491
  0
VERTEX
  8
0
 62
7
  6
CONTINUOUS
 10
11.3027428602
 20
140.2401049166
  0
VERTEX
  8
0
 62
7
  6
CONTINUOUS
 10
11.2622324207
 20
141.3228991823
  0
SEQEND
  0
LINE
  8
0
 62
7
  6
CONTINUOUS
 10
150.1247733381
 20
131.1991282917
 11
160.7848417208
 21
131.1518457393
  0
POLYLINE
  8
0
 62
7
  6
CONTINUOUS
 66
1
 70
0
  0
VERTEX
  8
0
 62
7
  6
CONTINUOUS
 10
32.1898096374
 20
188.5321046563
  0
VERTEX
  8
0
 62
7
  6
CONTINUOUS
 10
31.9884477861
 20
188.5217318495
  0
VERTEX
  8
0
 62
7
  6
CONTINUOUS
 10
31.1123227572
 20
188.4743111128
  0
VERTEX
  8
0
 62
7
  6
CONTINUOUS
 10
30.2578003987
 20
188.4243500596
  0
VERTEX
  8
0
 62
7
  6
CONTINUOUS
 10
29.4326700227
 20
188.3725063747
  0
VERTEX
  8
0
 62
7
  6
CONTINUOUS
 10
28.6542986291
 20
188.3201026152
  0
VERTEX
  8
0
 62
7
  6
CONTINUOUS
 10
27.9273086491
 20
188.2676741093
  0
VERTEX
  8
0
 62
7
  6
CONTINUOUS
 10
27.2508863648
 20
188.2154232075
  0
VERTEX
  8
0
 62
7
  6
CONTINUOUS
 10
26.625065832
 20
188.1636320671
  0
VERTEX
  8
0
 62
7
  6
CONTINUOUS
 10
26.0542030913
 20
188.1128963116
  0
VERTEX
  8
0
 62
7
  6
CONTINUOUS
 10
25.5376324467
 20
188.0633359112
  0
VERTEX
  8
0
 62
7
  6
CONTINUOUS
 10
25.0703343747
 20
188.0146362904
  0
VERTEX
  8
0
 62
7
  6
CONTINUOUS
 10
24.6453802549
 20
187.9661475055
  0
VERTEX
  8
0
 62
7
  6
CONTINUOUS
 10
24.2574382222
 20
187.9171402525
  0
VERTEX
  8
0
 62
7
  6
CONTINUOUS
 10
23.8971954643
 20
187.8659411977
  0
VERTEX
  8
0
 62
7
  6
CONTINUOUS
 10
23.5528607619
 20
187.8097751427
  0
VERTEX
  8
0
 62
7
  6
CONTINUOUS
 10
23.2025655205
 20
187.742701956
  0
VERTEX
  8
0
 62
7
  6
CONTINUOUS
 10
22.8168756719
 20
187.6537737773
  0
SEQEND
  0
POLYLINE
  8
0
 62
7
  6
CONTINUOUS
 66
1
 70
0
  0
VERTEX
  8
0
 62
7
  6
CONTINUOUS
 10
149.2751433834
 20
191.9345062224
  0
VERTEX
  8
0
 62
7
  6
CONTINUOUS
 10
129.7313726248
 20
191.7088860678
  0
VERTEX
  8
0
 62
7
  6
CONTINUOUS
 10
109.4738048215
 20
191.3354528477
  0
VERTEX
  8
0
 62
7
  6
CONTINUOUS
 10
89.4828712157
 20
190.8236319392
  0
VERTEX
  8
0
 62
7
  6
CONTINUOUS
 10
69.7601753519
 20
190.1752544272
  0
VERTEX
  8
0
 62
7
  6
CONTINUOUS
 10
50.3073237081
 20
189.3924392039
  0
VERTEX
  8
0
 62
7
  6
CONTINUOUS
 10
32.1898101047
 20
188.5321046802
  0
SEQEND
  0
POLYLINE
  8
0
 62
7
  6
CONTINUOUS
 66
1
 70
0
  0
VERTEX
  8
0
 62
7
  6
CONTINUOUS
 10
219.2755407653
 20
191.9345382542
  0
VERTEX
  8
0
 62
7
  6
CONTINUOUS
 10
208.2865320798
 20
192.0137797675
  0
VERTEX
  8
0
 62
7
  6
CONTINUOUS
 10
196.2529137132
 20
192.0667454825
  0
VERTEX
  8
0
 62
7
  6
CONTINUOUS
 10
184.2311323436
 20
192.0842688148
  0
VERTEX
  8
0
 62
7
  6
CONTINUOUS
 10
172.2093526851
 20
192.0664853405
  0
VERTEX
  8
0
 62
7
  6
CONTINUOUS
 10
160.1757935949
 20
192.0132593505
  0
VERTEX
  8
0
 62
7
  6
CONTINUOUS
 10
149.2752455844
 20
191.9345382736
  0
SEQEND
  0
POLYLINE
  8
0
 62
7
  6
CONTINUOUS
 66
1
 70
0
  0
VERTEX
  8
0
 62
7
  6
CONTINUOUS
 10
336.3609739792
 20
188.5321046802
  0
VERTEX
  8
0
 62
7
  6
CONTINUOUS
 10
318.2434607138
 20
189.392439189
  0
VERTEX
  8
0
 62
7
  6
CONTINUOUS
 10
298.7906094187
 20
190.1752544021
  0
VERTEX
  8
0
 62
7
  6
CONTINUOUS
 10
279.0679139144
 20
190.8236319086
  0
VERTEX
  8
0
 62
7
  6
CONTINUOUS
 10
259.0769806788
 20
191.3354528165
  0
VERTEX
  8
0
 62
7
  6
CONTINUOUS
 10
238.8194132564
 20
191.708886041
  0
VERTEX
  8
0
 62
7
  6
CONTINUOUS
 10
219.2756427273
 20
191.9345062057
  0
SEQEND
  0
POLYLINE
  8
0
 62
7
  6
CONTINUOUS
 66
1
 70
0
  0
VERTEX
  8
0
 62
7
  6
CONTINUOUS
 10
22.8168756719
 20
187.6537737773
  0
VERTEX
  8
0
 62
7
  6
CONTINUOUS
 10
22.3934225002
 20
187.534015199
  0
VERTEX
  8
0
 62
7
  6
CONTINUOUS
 10
21.9177830701
 20
187.3676357618
  0
VERTEX
  8
0
 62
7
  6
CONTINUOUS
 10
21.4145555225
 20
187.1502696978
  0
VERTEX
  8
0
 62
7
  6
CONTINUOUS
 10
20.913580467
 20
186.8862412094
  0
VERTEX
  8
0
 62
7
  6
CONTINUOUS
 10
20.4120872322
 20
186.5672636489
  0
VERTEX
  8
0
 62
7
  6
CONTINUOUS
 10
19.9199152508
 20
186.1913601035
  0
VERTEX
  8
0
 62
7
  6
CONTINUOUS
 10
19.4444082497
 20
185.7555176361
  0
VERTEX
  8
0
 62
7
  6
CONTINUOUS
 10
18.9955498499
 20
185.2594856986
  0
VERTEX
  8
0
 62
7
  6
CONTINUOUS
 10
18.5830409228
 20
184.703894262
  0
VERTEX
  8
0
 62
7
  6
CONTINUOUS
 10
18.2180446491
 20
184.0931827078
  0
VERTEX
  8
0
 62
7
  6
CONTINUOUS
 10
17.9382077601
 20
183.5007621256
  0
SEQEND
  0
POLYLINE
  8
0
 62
7
  6
CONTINUOUS
 66
1
 70
0
  0
VERTEX
  8
0
 62
7
  6
CONTINUOUS
 10
345.7901406979
 20
187.6393183348
  0
VERTEX
  8
0
 62
7
  6
CONTINUOUS
 10
345.3958012418
 20
187.7325996556
  0
VERTEX
  8
0
 62
7
  6
CONTINUOUS
 10
345.0395724773
 20
187.8022829248
  0
VERTEX
  8
0
 62
7
  6
CONTINUOUS
 10
344.6905767987
 20
187.8602343681
  0
VERTEX
  8
0
 62
7
  6
CONTINUOUS
 10
344.3278133454
 20
187.912541434
  0
VERTEX
  8
0
 62
7
  6
CONTINUOUS
 10
343.9396591369
 20
187.9620834901
  0
VERTEX
  8
0
 62
7
  6
CONTINUOUS
 10
343.5152756788
 20
188.0108354264
  0
VERTEX
  8
0
 62
7
  6
CONTINUOUS
 10
343.0468238152
 20
188.0599194082
  0
VERTEX
  8
0
 62
7
  6
CONTINUOUS
 10
342.5301796693
 20
188.1097692691
  0
VERTEX
  8
0
 62
7
  6
CONTINUOUS
 10
341.963708854
 20
188.1603910952
  0
VERTEX
  8
0
 62
7
  6
CONTINUOUS
 10
341.3453028589
 20
188.2117957533
  0
VERTEX
  8
0
 62
7
  6
CONTINUOUS
 10
340.6752760106
 20
188.2637735047
  0
VERTEX
  8
0
 62
7
  6
CONTINUOUS
 10
339.9536822232
 20
188.3160882889
  0
VERTEX
  8
0
 62
7
  6
CONTINUOUS
 10
339.1837148078
 20
188.3682375439
  0
VERTEX
  8
0
 62
7
  6
CONTINUOUS
 10
338.3692631323
 20
188.4197054801
  0
VERTEX
  8
0
 62
7
  6
CONTINUOUS
 10
337.5160802537
 20
188.4698965051
  0
VERTEX
  8
0
 62
7
  6
CONTINUOUS
 10
336.631244601
 20
188.5181327745
  0
VERTEX
  8
0
 62
7
  6
CONTINUOUS
 10
336.3609735884
 20
188.5321047001
  0
SEQEND
  0
LINE
  8
0
 62
7
  6
CONTINUOUS
 10
0.3277057893
 20
500.0406558393
 11
0.2680615223
 21
500.1117952541
  0
LINE
  8
0
 62
7
  6
CONTINUOUS
 10
3.1848880946
 20
496.5212430369
 11
0.2638322434
 21
500.1170133505
  0
POLYLINE
  8
0
 62
7
  6
CONTINUOUS
 66
1
 70
0
  0
VERTEX
  8
0
 62
7
  6
CONTINUOUS
 10
184.5156857562
 20
553.1925644968
  0
VERTEX
  8
0
 62
7
  6
CONTINUOUS
 10
184.5202872975
 20
553.1703451307
  0
VERTEX
  8
0
 62
7
  6
CONTINUOUS
 10
184.5347521007
 20
553.1469329561
  0
VERTEX
  8
0
 62
7
  6
CONTINUOUS
 10
184.5602614035
 20
553.1221428871
  0
VERTEX
  8
0
 62
7
  6
CONTINUOUS
 10
184.5972348413
 20
553.0965176289
  0
SEQEND
  0
POLYLINE
  8
0
 62
7
  6
CONTINUOUS
 66
1
 70
0
  0
VERTEX
  8
0
 62
7
  6
CONTINUOUS
 10
185.0156857562
 20
552.8909902863
  0
VERTEX
  8
0
 62
7
  6
CONTINUOUS
 10
185.0193999036
 20
552.8709838141
  0
VERTEX
  8
0
 62
7
  6
CONTINUOUS
 10
185.0309748173
 20
552.8500818215
  0
VERTEX
  8
0
 62
7
  6
CONTINUOUS
 10
185.0510855011
 20
552.8282386759
  0
VERTEX
  8
0
 62
7
  6
CONTINUOUS
 10
185.0610809675
 20
552.8204874482
  0
SEQEND
  0
LINE
  8
0
 62
7
  6
CONTINUOUS
 10
319.1991841765
 20
-242.1506870404
 11
319.1984533092
 21
-242.1453714134
  0
POLYLINE
  8
0
 62
7
  6
CONTINUOUS
 66
1
 70
0
  0
VERTEX
  8
0
 62
7
  6
CONTINUOUS
 10
319.1991841765
 20
-242.1506870404
  0
VERTEX
  8
0
 62
7
  6
CONTINUOUS
 10
318.8976028625
 20
-238.8592271814
  0
VERTEX
  8
0
 62
7
  6
CONTINUOUS
 10
318.5127621855
 20
-234.8648048066
  0
VERTEX
  8
0
 62
7
  6
CONTINUOUS
 10
318.0980457617
 20
-230.8013478133
  0
VERTEX
  8
0
 62
7
  6
CONTINUOUS
 10
317.6564356446
 20
-226.6902242465
  0
VERTEX
  8
0
 62
7
  6
CONTINUOUS
 10
317.1944977498
 20
-222.5690897624
  0
VERTEX
  8
0
 62
7
  6
CONTINUOUS
 10
316.7188374523
 20
-218.4653270874
  0
VERTEX
  8
0
 62
7
  6
CONTINUOUS
 10
316.2397608906
 20
-214.4307139662
  0
VERTEX
  8
0
 62
7
  6
CONTINUOUS
 10
315.7700584847
 20
-210.533151787
  0
VERTEX
  8
0
 62
7
  6
CONTINUOUS
 10
315.3115968886
 20
-206.7514906569
  0
VERTEX
  8
0
 62
7
  6
CONTINUOUS
 10
314.8688185453
 20
-203.0913534578
  0
VERTEX
  8
0
 62
7
  6
CONTINUOUS
 10
314.4433401632
 20
-199.5405595497
  0
VERTEX
  8
0
 62
7
  6
CONTINUOUS
 10
314.0364620989
 20
-196.0896840747
  0
VERTEX
  8
0
 62
7
  6
CONTINUOUS
 10
313.6496711138
 20
-192.7363467476
  0
VERTEX
  8
0
 62
7
  6
CONTINUOUS
 10
313.2828081452
 20
-189.4713212195
  0
VERTEX
  8
0
 62
7
  6
CONTINUOUS
 10
312.9373133232
 20
-186.3060676145
  0
VERTEX
  8
0
 62
7
  6
CONTINUOUS
 10
312.6137546177
 20
-183.2485426735
  0
VERTEX
  8
0
 62
7
  6
CONTINUOUS
 10
312.3116340714
 20
-180.3001795023
  0
VERTEX
  8
0
 62
7
  6
CONTINUOUS
 10
312.0295181987
 20
-177.4554140742
  0
VERTEX
  8
0
 62
7
  6
CONTINUOUS
 10
311.7692738803
 20
-174.7432487182
  0
VERTEX
  8
0
 62
7
  6
CONTINUOUS
 10
311.5332347395
 20
-172.2004428426
  0
VERTEX
  8
0
 62
7
  6
CONTINUOUS
 10
311.3174737371
 20
-169.7981995936
  0
VERTEX
  8
0
 62
7
  6
CONTINUOUS
 10
311.1197674871
 20
-167.5237792733
  0
VERTEX
  8
0
 62
7
  6
CONTINUOUS
 10
310.9381484735
 20
-165.36572124
  0
VERTEX
  8
0
 62
7
  6
CONTINUOUS
 10
310.7706226725
 20
-163.3104835458
  0
VERTEX
  8
0
 62
7
  6
CONTINUOUS
 10
310.6159008843
 20
-161.3515250146
  0
VERTEX
  8
0
 62
7
  6
CONTINUOUS
 10
310.4724755923
 20
-159.4782415945
  0
SEQEND
  0
POLYLINE
  8
0
 62
7
  6
CONTINUOUS
 66
1
 70
0
  0
VERTEX
  8
0
 62
7
  6
CONTINUOUS
 10
310.4724755923
 20
-159.4782415945
  0
VERTEX
  8
0
 62
7
  6
CONTINUOUS
 10
310.3396369888
 20
-157.6892479568
  0
VERTEX
  8
0
 62
7
  6
CONTINUOUS
 10
310.2160058331
 20
-155.9732007097
  0
VERTEX
  8
0
 62
7
  6
CONTINUOUS
 10
310.1024319978
 20
-154.3493524596
  0
VERTEX
  8
0
 62
7
  6
CONTINUOUS
 10
309.9979435661
 20
-152.811656598
  0
VERTEX
  8
0
 62
7
  6
CONTINUOUS
 10
309.9062527385
 20
-151.4246843376
  0
VERTEX
  8
0
 62
7
  6
CONTINUOUS
 10
309.8281376443
 20
-150.2129900974
  0
VERTEX
  8
0
 62
7
  6
CONTINUOUS
 10
309.7700177395
 20
-149.2906442284
  0
VERTEX
  8
0
 62
7
  6
CONTINUOUS
 10
309.7437163847
 20
-148.8654181692
  0
SEQEND
  0
POLYLINE
  8
0
 62
7
  6
CONTINUOUS
 66
1
 70
0
  0
VERTEX
  8
0
 62
7
  6
CONTINUOUS
 10
310.4416197179
 20
-159.0626924871
  0
VERTEX
  8
0
 62
7
  6
CONTINUOUS
 10
310.2410270891
 20
-155.1940486566
  0
VERTEX
  8
0
 62
7
  6
CONTINUOUS
 10
308.4051724464
 20
-117.231776676
  0
VERTEX
  8
0
 62
7
  6
CONTINUOUS
 10
307.1512353006
 20
-77.844373572
  0
VERTEX
  8
0
 62
7
  6
CONTINUOUS
 10
306.7854591736
 20
-37.0322296639
  0
VERTEX
  8
0
 62
7
  6
CONTINUOUS
 10
306.8347728241
 20
-33.5617524747
  0
SEQEND
  0
POLYLINE
  8
0
 62
7
  6
CONTINUOUS
 66
1
 70
0
  0
VERTEX
  8
0
 62
7
  6
CONTINUOUS
 10
356.5876137605
 20
151.6000239964
  0
VERTEX
  8
0
 62
7
  6
CONTINUOUS
 10
356.8440747587
 20
151.8282961402
  0
VERTEX
  8
0
 62
7
  6
CONTINUOUS
 10
357.0030749563
 20
151.9947848466
  0
SEQEND
  0
LINE
  8
0
 62
7
  6
CONTINUOUS
 10
358.405436691
 20
152.7881300064
 11
357.9946781878
 21
153.0974741912
  0
POLYLINE
  8
0
 62
7
  6
CONTINUOUS
 66
1
 70
0
  0
VERTEX
  8
0
 62
7
  6
CONTINUOUS
 10
3.183679682
 20
496.5227315405
  0
VERTEX
  8
0
 62
7
  6
CONTINUOUS
 10
3.4251399391
 20
496.2587333694
  0
VERTEX
  8
0
 62
7
  6
CONTINUOUS
 10
3.729701031
 20
495.9997147999
  0
VERTEX
  8
0
 62
7
  6
CONTINUOUS
 10
4.0448289919
 20
495.7945081171
  0
VERTEX
  8
0
 62
7
  6
CONTINUOUS
 10
4.3455471018
 20
495.6449820425
  0
VERTEX
  8
0
 62
7
  6
CONTINUOUS
 10
4.6120082233
 20
495.5438711301
  0
VERTEX
  8
0
 62
7
  6
CONTINUOUS
 10
4.8426720958
 20
495.4768341828
  0
VERTEX
  8
0
 62
7
  6
CONTINUOUS
 10
5.0302989613
 20
495.4344000444
  0
VERTEX
  8
0
 62
7
  6
CONTINUOUS
 10
5.1928613307
 20
495.4049829926
  0
VERTEX
  8
0
 62
7
  6
CONTINUOUS
 10
5.3425840867
 20
495.3827428513
  0
VERTEX
  8
0
 62
7
  6
CONTINUOUS
 10
5.4874643466
 20
495.3646570769
  0
VERTEX
  8
0
 62
7
  6
CONTINUOUS
 10
5.6374254756
 20
495.3486353231
  0
VERTEX
  8
0
 62
7
  6
CONTINUOUS
 10
5.7957131131
 20
495.3339633279
  0
VERTEX
  8
0
 62
7
  6
CONTINUOUS
 10
5.9684595835
 20
495.3199253239
  0
VERTEX
  8
0
 62
7
  6
CONTINUOUS
 10
6.1565057575
 20
495.3064169615
  0
VERTEX
  8
0
 62
7
  6
CONTINUOUS
 10
6.361524843
 20
495.2932993257
  0
VERTEX
  8
0
 62
7
  6
CONTINUOUS
 10
6.5843794421
 20
495.2805220703
  0
VERTEX
  8
0
 62
7
  6
CONTINUOUS
 10
6.8255924643
 20
495.2680699761
  0
VERTEX
  8
0
 62
7
  6
CONTINUOUS
 10
7.086246374
 20
495.255912917
  0
VERTEX
  8
0
 62
7
  6
CONTINUOUS
 10
7.3672864625
 20
495.244045037
  0
VERTEX
  8
0
 62
7
  6
CONTINUOUS
 10
7.6693539052
 20
495.2324851379
  0
VERTEX
  8
0
 62
7
  6
CONTINUOUS
 10
7.993151842
 20
495.221256472
  0
VERTEX
  8
0
 62
7
  6
CONTINUOUS
 10
8.3389295266
 20
495.2103900002
  0
VERTEX
  8
0
 62
7
  6
CONTINUOUS
 10
8.7067312074
 20
495.1999174131
  0
VERTEX
  8
0
 62
7
  6
CONTINUOUS
 10
9.0965392469
 20
495.1898754934
  0
VERTEX
  8
0
 62
7
  6
CONTINUOUS
 10
9.5081850252
 20
495.1803080842
  0
VERTEX
  8
0
 62
7
  6
CONTINUOUS
 10
9.941646944
 20
495.1712591292
  0
VERTEX
  8
0
 62
7
  6
CONTINUOUS
 10
10.3970375684
 20
495.1627753753
  0
VERTEX
  8
0
 62
7
  6
CONTINUOUS
 10
10.8733967049
 20
495.1549259397
  0
VERTEX
  8
0
 62
7
  6
CONTINUOUS
 10
11.3703749003
 20
495.1477630923
  0
VERTEX
  8
0
 62
7
  6
CONTINUOUS
 10
11.8871119161
 20
495.1413434708
  0
VERTEX
  8
0
 62
7
  6
CONTINUOUS
 10
12.4228099083
 20
495.1357198688
  0
VERTEX
  8
0
 62
7
  6
CONTINUOUS
 10
12.9763189156
 20
495.1309459908
  0
VERTEX
  8
0
 62
7
  6
CONTINUOUS
 10
13.5461034449
 20
495.1270742796
  0
VERTEX
  8
0
 62
7
  6
CONTINUOUS
 10
13.6333711339
 20
495.1265715405
  0
SEQEND
  0
POLYLINE
  8
0
 62
7
  6
CONTINUOUS
 66
1
 70
0
  0
VERTEX
  8
0
 62
7
  6
CONTINUOUS
 10
360.4020353901
 20
155.7745443189
  0
VERTEX
  8
0
 62
7
  6
CONTINUOUS
 10
360.7084172744
 20
156.1622300683
  0
VERTEX
  8
0
 62
7
  6
CONTINUOUS
 10
361.0191737192
 20
156.6920556321
  0
VERTEX
  8
0
 62
7
  6
CONTINUOUS
 10
361.2443622489
 20
157.2601018271
  0
VERTEX
  8
0
 62
7
  6
CONTINUOUS
 10
361.3809297289
 20
157.8584100572
  0
VERTEX
  8
0
 62
7
  6
CONTINUOUS
 10
361.4238627713
 20
158.3733475351
  0
SEQEND
  0
LINE
  8
0
 62
7
  6
CONTINUOUS
 10
357.0037959628
 20
151.9955847243
 11
360.4024067067
 21
155.7749589529
  0
LINE
  8
0
 62
7
  6
CONTINUOUS
 10
360.3967158166
 20
155.7686169057
 11
360.327047632
 21
155.69311972
  0
POLYLINE
  8
0
 62
7
  6
CONTINUOUS
 66
1
 70
0
  0
VERTEX
  8
0
 62
7
  6
CONTINUOUS
 10
355.3776218088
 20
169.3411944242
  0
VERTEX
  8
0
 62
7
  6
CONTINUOUS
 10
355.3583221884
 20
169.5720092025
  0
VERTEX
  8
0
 62
7
  6
CONTINUOUS
 10
355.2818710295
 20
170.1303271606
  0
VERTEX
  8
0
 62
7
  6
CONTINUOUS
 10
355.1655315405
 20
170.6757079898
  0
VERTEX
  8
0
 62
7
  6
CONTINUOUS
 10
355.0773531359
 20
170.9958782363
  0
SEQEND
  0
LINE
  8
0
 62
7
  6
CONTINUOUS
 10
355.3775743463
 20
169.34157577
 11
357.2885516632
 21
141.3228991823
  0
LINE
  8
0
 62
7
  6
CONTINUOUS
 10
355.3775399536
 20
169.342080035
 11
355.3775558825
 21
169.3418457273
  0
POLYLINE
  8
0
 62
7
  6
CONTINUOUS
 66
1
 70
0
  0
VERTEX
  8
0
 62
7
  6
CONTINUOUS
 10
361.1088950636
 20
146.7892245012
  0
VERTEX
  8
0
 62
7
  6
CONTINUOUS
 10
361.0863325459
 20
147.3933923268
  0
VERTEX
  8
0
 62
7
  6
CONTINUOUS
 10
360.9034640603
 20
148.5985760719
  0
VERTEX
  8
0
 62
7
  6
CONTINUOUS
 10
360.5349979363
 20
149.7703959533
  0
VERTEX
  8
0
 62
7
  6
CONTINUOUS
 10
359.9877894797
 20
150.8785842062
  0
VERTEX
  8
0
 62
7
  6
CONTINUOUS
 10
359.2731140768
 20
151.893774493
  0
VERTEX
  8
0
 62
7
  6
CONTINUOUS
 10
358.405436691
 20
152.7881300064
  0
SEQEND
  0
POLYLINE
  8
0
 62
7
  6
CONTINUOUS
 66
1
 70
0
  0
VERTEX
  8
0
 62
7
  6
CONTINUOUS
 10
361.109510172
 20
146.7892267339
  0
VERTEX
  8
0
 62
7
  6
CONTINUOUS
 10
361.1094439364
 20
146.7589292402
  0
VERTEX
  8
0
 62
7
  6
CONTINUOUS
 10
361.1092666029
 20
146.7286444481
  0
VERTEX
  8
0
 62
7
  6
CONTINUOUS
 10
361.1089800042
 20
146.6983763428
  0
VERTEX
  8
0
 62
7
  6
CONTINUOUS
 10
361.1085788635
 20
146.6681147029
  0
VERTEX
  8
0
 62
7
  6
CONTINUOUS
 10
361.1080579172
 20
146.6378493064
  0
VERTEX
  8
0
 62
7
  6
CONTINUOUS
 10
361.1074190147
 20
146.6075841369
  0
SEQEND
  0
LINE
  8
0
 62
7
  6
CONTINUOUS
 10
361.4239041836
 20
158.373435012
 11
367.7133541272
 21
496.0415801623
  0
LINE
  8
0
 62
7
  6
CONTINUOUS
 10
360.1444234519
 20
104.957293523
 11
361.1069572798
 21
146.5876131215
  0
LINE
  8
0
 62
7
  6
CONTINUOUS
 10
367.7133563578
 20
496.0416999183
 11
367.7133545669
 21
496.0416316052
  0
POLYLINE
  8
0
 62
7
  6
CONTINUOUS
 66
1
 70
0
  0
VERTEX
  8
0
 62
7
  6
CONTINUOUS
 10
357.2885516632
 20
141.3228991823
  0
VERTEX
  8
0
 62
7
  6
CONTINUOUS
 10
357.2417748666
 20
140.1978063694
  0
VERTEX
  8
0
 62
7
  6
CONTINUOUS
 10
356.977252476
 20
139.1771154537
  0
VERTEX
  8
0
 62
7
  6
CONTINUOUS
 10
356.545856635
 20
138.286933502
  0
VERTEX
  8
0
 62
7
  6
CONTINUOUS
 10
356.0060464319
 20
137.5514554191
  0
VERTEX
  8
0
 62
7
  6
CONTINUOUS
 10
355.4062585929
 20
136.9656048645
  0
VERTEX
  8
0
 62
7
  6
CONTINUOUS
 10
354.8096375198
 20
136.5293177819
  0
VERTEX
  8
0
 62
7
  6
CONTINUOUS
 10
354.294574556
 20
136.2352850507
  0
VERTEX
  8
0
 62
7
  6
CONTINUOUS
 10
353.8318061106
 20
136.0207500172
  0
VERTEX
  8
0
 62
7
  6
CONTINUOUS
 10
353.3938144944
 20
135.8517018089
  0
VERTEX
  8
0
 62
7
  6
CONTINUOUS
 10
352.9711207435
 20
135.7132296549
  0
VERTEX
  8
0
 62
7
  6
CONTINUOUS
 10
352.5419942896
 20
135.591970625
  0
VERTEX
  8
0
 62
7
  6
CONTINUOUS
 10
352.0969801274
 20
135.4821023442
  0
VERTEX
  8
0
 62
7
  6
CONTINUOUS
 10
351.6202966212
 20
135.3781765734
  0
VERTEX
  8
0
 62
7
  6
CONTINUOUS
 10
351.1030875023
 20
135.2777454464
  0
VERTEX
  8
0
 62
7
  6
CONTINUOUS
 10
350.532894413
 20
135.1784277384
  0
VERTEX
  8
0
 62
7
  6
CONTINUOUS
 10
349.9001961745
 20
135.0789944977
  0
VERTEX
  8
0
 62
7
  6
CONTINUOUS
 10
349.193159908
 20
134.9782515367
  0
VERTEX
  8
0
 62
7
  6
CONTINUOUS
 10
348.4010891381
 20
134.8755158306
  0
VERTEX
  8
0
 62
7
  6
CONTINUOUS
 10
347.511685989
 20
134.7701477676
  0
VERTEX
  8
0
 62
7
  6
CONTINUOUS
 10
346.512085327
 20
134.6616780911
  0
VERTEX
  8
0
 62
7
  6
CONTINUOUS
 10
345.3881424357
 20
134.5497071809
  0
VERTEX
  8
0
 62
7
  6
CONTINUOUS
 10
344.1242753212
 20
134.4338938145
  0
VERTEX
  8
0
 62
7
  6
CONTINUOUS
 10
342.7037433004
 20
134.3139843111
  0
VERTEX
  8
0
 62
7
  6
CONTINUOUS
 10
341.1072983143
 20
134.1897073593
  0
VERTEX
  8
0
 62
7
  6
CONTINUOUS
 10
339.3145854187
 20
134.0609063337
  0
VERTEX
  8
0
 62
7
  6
CONTINUOUS
 10
337.3017155608
 20
133.9273747755
  0
VERTEX
  8
0
 62
7
  6
CONTINUOUS
 10
335.0437349999
 20
133.7890542738
  0
VERTEX
  8
0
 62
7
  6
CONTINUOUS
 10
332.5108106558
 20
133.645813064
  0
VERTEX
  8
0
 62
7
  6
CONTINUOUS
 10
329.6721809697
 20
133.4977148642
  0
VERTEX
  8
0
 62
7
  6
CONTINUOUS
 10
326.4904697276
 20
133.3447368903
  0
VERTEX
  8
0
 62
7
  6
CONTINUOUS
 10
322.9277181305
 20
133.1871180136
  0
VERTEX
  8
0
 62
7
  6
CONTINUOUS
 10
318.9369980676
 20
133.0250055956
  0
VERTEX
  8
0
 62
7
  6
CONTINUOUS
 10
314.4715654244
 20
132.8589022906
  0
VERTEX
  8
0
 62
7
  6
CONTINUOUS
 10
309.4725084559
 20
132.6892286176
  0
VERTEX
  8
0
 62
7
  6
CONTINUOUS
 10
303.8826957553
 20
132.5168944326
  0
VERTEX
  8
0
 62
7
  6
CONTINUOUS
 10
297.6283415163
 20
132.3427585623
  0
VERTEX
  8
0
 62
7
  6
CONTINUOUS
 10
290.6405995029
 20
132.1683626185
  0
VERTEX
  8
0
 62
7
  6
CONTINUOUS
 10
282.8277949276
 20
131.9952743033
  0
VERTEX
  8
0
 62
7
  6
CONTINUOUS
 10
274.0716582816
 20
131.8253424888
  0
VERTEX
  8
0
 62
7
  6
CONTINUOUS
 10
264.3733395104
 20
131.6633290313
  0
VERTEX
  8
0
 62
7
  6
CONTINUOUS
 10
253.5901647788
 20
131.5120268461
  0
VERTEX
  8
0
 62
7
  6
CONTINUOUS
 10
242.1185718166
 20
131.3811752122
  0
VERTEX
  8
0
 62
7
  6
CONTINUOUS
 10
230.4218063356
 20
131.2770981135
  0
VERTEX
  8
0
 62
7
  6
CONTINUOUS
 10
218.4254909482
 20
131.1991246462
  0
SEQEND
  0
POLYLINE
  8
0
 62
7
  6
CONTINUOUS
 66
1
 70
0
  0
VERTEX
  8
0
 62
7
  6
CONTINUOUS
 10
352.7448272805
 20
85.9062110479
  0
VERTEX
  8
0
 62
7
  6
CONTINUOUS
 10
352.7883079317
 20
86.4910640124
  0
VERTEX
  8
0
 62
7
  6
CONTINUOUS
 10
352.8293994051
 20
86.784564724
  0
VERTEX
  8
0
 62
7
  6
CONTINUOUS
 10
352.8593298712
 20
86.9470593144
  0
VERTEX
  8
0
 62
7
  6
CONTINUOUS
 10
352.9311155228
 20
87.2550526956
  0
VERTEX
  8
0
 62
7
  6
CONTINUOUS
 10
353.0307166735
 20
87.5924165014
  0
VERTEX
  8
0
 62
7
  6
CONTINUOUS
 10
353.1568759216
 20
87.9388086496
  0
VERTEX
  8
0
 62
7
  6
CONTINUOUS
 10
353.2812764117
 20
88.223669184
  0
SEQEND
  0
POLYLINE
  8
0
 62
7
  6
CONTINUOUS
 66
1
 70
0
  0
VERTEX
  8
0
 62
7
  6
CONTINUOUS
 10
360.1444234519
 20
104.957293523
  0
VERTEX
  8
0
 62
7
  6
CONTINUOUS
 10
360.0671581352
 20
104.1883439561
  0
VERTEX
  8
0
 62
7
  6
CONTINUOUS
 10
359.8722165466
 20
103.4405458168
  0
VERTEX
  8
0
 62
7
  6
CONTINUOUS
 10
359.6755093803
 20
102.9549999689
  0
SEQEND
  0
POLYLINE
  8
0
 62
7
  6
CONTINUOUS
 66
1
 70
0
  0
VERTEX
  8
0
 62
7
  6
CONTINUOUS
 10
355.3008907808
 20
93.5082481624
  0
VERTEX
  8
0
 62
7
  6
CONTINUOUS
 10
355.345513043
 20
93.6641520541
  0
VERTEX
  8
0
 62
7
  6
CONTINUOUS
 10
355.3693846794
 20
93.7458417289
  0
SEQEND
  0
POLYLINE
  8
0
 62
7
  6
CONTINUOUS
 66
1
 70
0
  0
VERTEX
  8
0
 62
7
  6
CONTINUOUS
 10
354.831207466
 20
91.9292132019
  0
VERTEX
  8
0
 62
7
  6
CONTINUOUS
 10
354.9293164324
 20
92.2414711921
  0
VERTEX
  8
0
 62
7
  6
CONTINUOUS
 10
355.0214224
 20
92.5443549383
  0
VERTEX
  8
0
 62
7
  6
CONTINUOUS
 10
355.1089135969
 20
92.8398398939
  0
VERTEX
  8
0
 62
7
  6
CONTINUOUS
 10
355.1932165595
 20
93.1309373879
  0
VERTEX
  8
0
 62
7
  6
CONTINUOUS
 10
355.2709807601
 20
93.4033057009
  0
VERTEX
  8
0
 62
7
  6
CONTINUOUS
 10
355.3008907808
 20
93.5082481624
  0
SEQEND
  0
POLYLINE
  8
0
 62
7
  6
CONTINUOUS
 66
1
 70
0
  0
VERTEX
  8
0
 62
7
  6
CONTINUOUS
 10
353.7957252623
 20
89.1958625609
  0
VERTEX
  8
0
 62
7
  6
CONTINUOUS
 10
353.9568897011
 20
89.5541199662
  0
VERTEX
  8
0
 62
7
  6
CONTINUOUS
 10
354.1137221423
 20
89.936533178
  0
VERTEX
  8
0
 62
7
  6
CONTINUOUS
 10
354.2302892418
 20
90.2383680601
  0
VERTEX
  8
0
 62
7
  6
CONTINUOUS
 10
354.328723271
 20
90.4999942712
  0
VERTEX
  8
0
 62
7
  6
CONTINUOUS
 10
354.4253606058
 20
90.759212881
  0
VERTEX
  8
0
 62
7
  6
CONTINUOUS
 10
354.5212515284
 20
91.0210127461
  0
VERTEX
  8
0
 62
7
  6
CONTINUOUS
 10
354.6250739924
 20
91.312942812
  0
VERTEX
  8
0
 62
7
  6
CONTINUOUS
 10
354.7295267158
 20
91.6183815042
  0
VERTEX
  8
0
 62
7
  6
CONTINUOUS
 10
354.831207466
 20
91.9292132019
  0
SEQEND
  0
LINE
  8
0
 62
7
  6
CONTINUOUS
 10
355.3693846794
 20
93.7458417289
 11
359.6755086866
 21
102.9549984853
  0
LINE
  8
0
 62
7
  6
CONTINUOUS
 10
353.2949175979
 20
88.2521937579
 11
353.2807715534
 21
88.2225906996
  0
POLYLINE
  8
0
 62
7
  6
CONTINUOUS
 66
1
 70
0
  0
VERTEX
  8
0
 62
7
  6
CONTINUOUS
 10
353.2954164229
 20
88.253229032
  0
VERTEX
  8
0
 62
7
  6
CONTINUOUS
 10
353.3018441661
 20
88.2664739083
  0
VERTEX
  8
0
 62
7
  6
CONTINUOUS
 10
353.3272413773
 20
88.3174404582
  0
VERTEX
  8
0
 62
7
  6
CONTINUOUS
 10
353.3614793428
 20
88.3831983646
  0
VERTEX
  8
0
 62
7
  6
CONTINUOUS
 10
353.4004615007
 20
88.4544926729
  0
VERTEX
  8
0
 62
7
  6
CONTINUOUS
 10
353.4429294675
 20
88.5282208988
  0
SEQEND
  0
POLYLINE
  8
0
 62
7
  6
CONTINUOUS
 66
1
 70
0
  0
VERTEX
  8
0
 62
7
  6
CONTINUOUS
 10
353.4319400943
 20
88.506214813
  0
VERTEX
  8
0
 62
7
  6
CONTINUOUS
 10
353.4698109137
 20
88.570707017
  0
VERTEX
  8
0
 62
7
  6
CONTINUOUS
 10
353.5812507568
 20
88.7700853923
  0
VERTEX
  8
0
 62
7
  6
CONTINUOUS
 10
353.6756970113
 20
88.9507563898
  0
VERTEX
  8
0
 62
7
  6
CONTINUOUS
 10
353.757236461
 20
89.1154432017
  0
VERTEX
  8
0
 62
7
  6
CONTINUOUS
 10
353.7991580023
 20
89.2031051119
  0
SEQEND
  0
LINE
  8
0
 62
7
  6
CONTINUOUS
 10
353.4429294675
 20
88.5282208988
 11
353.4316620533
 21
88.5094127596
  0
POLYLINE
  8
0
 62
7
  6
CONTINUOUS
 66
1
 70
0
  0
VERTEX
  8
0
 62
7
  6
CONTINUOUS
 10
350.6127358963
 20
183.5003788987
  0
VERTEX
  8
0
 62
7
  6
CONTINUOUS
 10
350.3775122318
 20
184.0074179652
  0
VERTEX
  8
0
 62
7
  6
CONTINUOUS
 10
350.0199935443
 20
184.6246191404
  0
VERTEX
  8
0
 62
7
  6
CONTINUOUS
 10
349.613586832
 20
185.1875661778
  0
VERTEX
  8
0
 62
7
  6
CONTINUOUS
 10
349.1693988831
 20
185.6914555631
  0
VERTEX
  8
0
 62
7
  6
CONTINUOUS
 10
348.6971783255
 20
186.1353420256
  0
VERTEX
  8
0
 62
7
  6
CONTINUOUS
 10
348.2070028398
 20
186.519197206
  0
VERTEX
  8
0
 62
7
  6
CONTINUOUS
 10
347.7066547816
 20
186.8456537812
  0
VERTEX
  8
0
 62
7
  6
CONTINUOUS
 10
347.2054778078
 20
187.1168892016
  0
VERTEX
  8
0
 62
7
  6
CONTINUOUS
 10
346.7010468228
 20
187.3409782182
  0
VERTEX
  8
0
 62
7
  6
CONTINUOUS
 10
346.2219971309
 20
187.5135809638
  0
VERTEX
  8
0
 62
7
  6
CONTINUOUS
 10
345.7901406979
 20
187.6393183348
  0
SEQEND
  0
LINE
  8
0
 62
7
  6
CONTINUOUS
 10
202.7840930518
 20
551.3087725612
 11
202.7839566866
 21
551.3091244327
  0
LINE
  8
0
 62
7
  6
CONTINUOUS
 10
205.4174089078
 20
547.9113063753
 11
205.4172531413
 21
547.9117083092
  0
LINE
  8
0
 62
7
  6
CONTINUOUS
 10
212.0296237299
 20
545.6680935299
 11
212.7911463285
 21
543.5758564447
  0
POLYLINE
  8
0
 62
7
  6
CONTINUOUS
 66
1
 70
0
  0
VERTEX
  8
0
 62
7
  6
CONTINUOUS
 10
355.0770507117
 20
170.9968894093
  0
VERTEX
  8
0
 62
7
  6
CONTINUOUS
 10
354.3615784982
 20
173.3260958811
  0
VERTEX
  8
0
 62
7
  6
CONTINUOUS
 10
353.616830197
 20
175.6141574181
  0
VERTEX
  8
0
 62
7
  6
CONTINUOUS
 10
352.8572414193
 20
177.7979732568
  0
VERTEX
  8
0
 62
7
  6
CONTINUOUS
 10
352.0951805296
 20
179.8362977685
  0
VERTEX
  8
0
 62
7
  6
CONTINUOUS
 10
351.3437869202
 20
181.7279722977
  0
VERTEX
  8
0
 62
7
  6
CONTINUOUS
 10
350.6125234565
 20
183.5008890768
  0
SEQEND
  0
LINE
  8
0
 62
7
  6
CONTINUOUS
 10
355.0773531359
 20
170.9958782363
 11
355.0770507386
 21
170.9968893194
  0
POLYLINE
  8
0
 62
7
  6
CONTINUOUS
 66
1
 70
0
  0
VERTEX
  8
0
 62
7
  6
CONTINUOUS
 10
367.7133120284
 20
496.0414548294
  0
VERTEX
  8
0
 62
7
  6
CONTINUOUS
 10
367.6988334992
 20
496.3974523372
  0
VERTEX
  8
0
 62
7
  6
CONTINUOUS
 10
367.620590449
 20
496.8404353023
  0
VERTEX
  8
0
 62
7
  6
CONTINUOUS
 10
367.4878228942
 20
497.2411425263
  0
VERTEX
  8
0
 62
7
  6
CONTINUOUS
 10
367.3101452777
 20
497.6023537041
  0
VERTEX
  8
0
 62
7
  6
CONTINUOUS
 10
367.0959522483
 20
497.9234786035
  0
VERTEX
  8
0
 62
7
  6
CONTINUOUS
 10
366.8475540754
 20
498.2094180711
  0
VERTEX
  8
0
 62
7
  6
CONTINUOUS
 10
366.7837849137
 20
498.2666345078
  0
SEQEND
  0
POLYLINE
  8
0
 62
7
  6
CONTINUOUS
 66
1
 70
0
  0
VERTEX
  8
0
 62
7
  6
CONTINUOUS
 10
368.284497395
 20
531.7318996271
  0
VERTEX
  8
0
 62
7
  6
CONTINUOUS
 10
368.2746091721
 20
531.9781204403
  0
VERTEX
  8
0
 62
7
  6
CONTINUOUS
 10
368.1785685439
 20
532.7991666742
  0
VERTEX
  8
0
 62
7
  6
CONTINUOUS
 10
367.9881683097
 20
533.5990716832
  0
VERTEX
  8
0
 62
7
  6
CONTINUOUS
 10
367.8760481134
 20
533.9401227232
  0
SEQEND
  0
LINE
  8
0
 62
7
  6
CONTINUOUS
 10
368.9563897015
 20
502.0788473874
 11
368.2844010639
 21
531.7323670006
  0
LINE
  8
0
 62
7
  6
CONTINUOUS
 10
368.2843890494
 20
531.7328034284
 11
368.28438528
 21
531.7330635132
  0
POLYLINE
  8
0
 62
7
  6
CONTINUOUS
 66
1
 70
0
  0
VERTEX
  8
0
 62
7
  6
CONTINUOUS
 10
191.1787920259
 20
551.2237218726
  0
VERTEX
  8
0
 62
7
  6
CONTINUOUS
 10
191.4879494917
 20
550.7023544235
  0
VERTEX
  8
0
 62
7
  6
CONTINUOUS
 10
191.806928189
 20
550.1623568244
  0
VERTEX
  8
0
 62
7
  6
CONTINUOUS
 10
192.135750567
 20
549.6037118623
  0
VERTEX
  8
0
 62
7
  6
CONTINUOUS
 10
192.4743492775
 20
549.0264711768
  0
VERTEX
  8
0
 62
7
  6
CONTINUOUS
 10
192.8226569722
 20
548.4306864079
  0
VERTEX
  8
0
 62
7
  6
CONTINUOUS
 10
193.1806961006
 20
547.8163403423
  0
SEQEND
  0
POLYLINE
  8
0
 62
7
  6
CONTINUOUS
 66
1
 70
0
  0
VERTEX
  8
0
 62
7
  6
CONTINUOUS
 10
192.9379602016
 20
547.7258607459
  0
VERTEX
  8
0
 62
7
  6
CONTINUOUS
 10
192.355344859
 20
548.715751372
  0
VERTEX
  8
0
 62
7
  6
CONTINUOUS
 10
191.7978264359
 20
549.6580271504
  0
VERTEX
  8
0
 62
7
  6
CONTINUOUS
 10
191.2654049322
 20
550.5526880809
  0
SEQEND
  0
POLYLINE
  8
0
 62
7
  6
CONTINUOUS
 66
1
 70
0
  0
VERTEX
  8
0
 62
7
  6
CONTINUOUS
 10
212.0296237299
 20
545.6680935299
  0
VERTEX
  8
0
 62
7
  6
CONTINUOUS
 10
211.9706709102
 20
545.7996909454
  0
VERTEX
  8
0
 62
7
  6
CONTINUOUS
 10
211.9006143952
 20
545.9116146366
  0
VERTEX
  8
0
 62
7
  6
CONTINUOUS
 10
211.8241200211
 20
546.0051278235
  0
VERTEX
  8
0
 62
7
  6
CONTINUOUS
 10
211.76691871
 20
546.0622230677
  0
SEQEND
  0
POLYLINE
  8
0
 62
7
  6
CONTINUOUS
 66
1
 70
0
  0
VERTEX
  8
0
 62
7
  6
CONTINUOUS
 10
302.6059114393
 20
-37.1214040146
  0
VERTEX
  8
0
 62
7
  6
CONTINUOUS
 10
306.92549481
 20
-33.4853870828
  0
VERTEX
  8
0
 62
7
  6
CONTINUOUS
 10
311.025321944
 20
-29.7491651592
  0
VERTEX
  8
0
 62
7
  6
CONTINUOUS
 10
314.9056848136
 20
-25.9065528834
  0
VERTEX
  8
0
 62
7
  6
CONTINUOUS
 10
318.5657413712
 20
-21.9565022192
  0
VERTEX
  8
0
 62
7
  6
CONTINUOUS
 10
322.0130454232
 20
-17.8890106818
  0
VERTEX
  8
0
 62
7
  6
CONTINUOUS
 10
325.22900049
 20
-13.727351869
  0
VERTEX
  8
0
 62
7
  6
CONTINUOUS
 10
328.207784612
 20
-9.4903153679
  0
VERTEX
  8
0
 62
7
  6
CONTINUOUS
 10
330.9503976264
 20
-5.1944408551
  0
VERTEX
  8
0
 62
7
  6
CONTINUOUS
 10
333.4583860087
 20
-0.8607180671
  0
VERTEX
  8
0
 62
7
  6
CONTINUOUS
 10
335.7415354015
 20
3.4983068861
  0
VERTEX
  8
0
 62
7
  6
CONTINUOUS
 10
337.8093483673
 20
7.8648729079
  0
VERTEX
  8
0
 62
7
  6
CONTINUOUS
 10
339.6758675132
 20
12.2288365381
  0
VERTEX
  8
0
 62
7
  6
CONTINUOUS
 10
341.3538066244
 20
16.5771876737
  0
VERTEX
  8
0
 62
7
  6
CONTINUOUS
 10
342.8574014803
 20
20.9004574981
  0
VERTEX
  8
0
 62
7
  6
CONTINUOUS
 10
344.2000659253
 20
25.1876141703
  0
VERTEX
  8
0
 62
7
  6
CONTINUOUS
 10
345.3956409
 20
29.4308884225
  0
VERTEX
  8
0
 62
7
  6
CONTINUOUS
 10
346.4569274668
 20
33.6217628639
  0
VERTEX
  8
0
 62
7
  6
CONTINUOUS
 10
347.3961361118
 20
37.7532312392
  0
VERTEX
  8
0
 62
7
  6
CONTINUOUS
 10
348.2251720177
 20
41.8217413046
  0
VERTEX
  8
0
 62
7
  6
CONTINUOUS
 10
348.9526380192
 20
45.8105209292
  0
VERTEX
  8
0
 62
7
  6
CONTINUOUS
 10
349.5875976977
 20
49.7053962122
  0
VERTEX
  8
0
 62
7
  6
CONTINUOUS
 10
350.1391561701
 20
53.4956044057
  0
VERTEX
  8
0
 62
7
  6
CONTINUOUS
 10
350.6153177442
 20
57.1693185864
  0
VERTEX
  8
0
 62
7
  6
CONTINUOUS
 10
351.0239565962
 20
60.7174082034
  0
VERTEX
  8
0
 62
7
  6
CONTINUOUS
 10
351.3723028046
 20
64.1290558113
  0
VERTEX
  8
0
 62
7
  6
CONTINUOUS
 10
351.667628748
 20
67.398592821
  0
VERTEX
  8
0
 62
7
  6
CONTINUOUS
 10
351.916224398
 20
70.5160611976
  0
VERTEX
  8
0
 62
7
  6
CONTINUOUS
 10
352.1245388059
 20
73.4850479297
  0
VERTEX
  8
0
 62
7
  6
CONTINUOUS
 10
352.2986019003
 20
76.3157759215
  0
VERTEX
  8
0
 62
7
  6
CONTINUOUS
 10
352.4418501021
 20
78.9800733235
  0
VERTEX
  8
0
 62
7
  6
CONTINUOUS
 10
352.5572584018
 20
81.4290353185
  0
VERTEX
  8
0
 62
7
  6
CONTINUOUS
 10
352.6530394259
 20
83.7347545485
  0
VERTEX
  8
0
 62
7
  6
CONTINUOUS
 10
352.7340757489
 20
85.9309106139
  0
SEQEND
  0
POLYLINE
  8
0
 62
7
  6
CONTINUOUS
 66
1
 70
0
  0
VERTEX
  8
0
 62
7
  6
CONTINUOUS
 10
294.6007440988
 20
-43.2101572778
  0
VERTEX
  8
0
 62
7
  6
CONTINUOUS
 10
298.067642417
 20
-40.6650131736
  0
VERTEX
  8
0
 62
7
  6
CONTINUOUS
 10
302.6059114393
 20
-37.1214040146
  0
SEQEND
  0
LINE
  8
0
 62
7
  6
CONTINUOUS
 10
294.5447407824
 20
-43.2488174026
 11
294.6007440988
 21
-43.2101572778
  0
LINE
  8
0
 62
7
  6
CONTINUOUS
 10
294.5396852957
 20
-43.252161675
 11
294.5447407824
 21
-43.2488174026
  0
LINE
  8
0
 62
7
  6
CONTINUOUS
 10
191.2654049322
 20
550.5526880809
 11
190.758080348
 21
551.3997341635
  0
LINE
  8
0
 62
7
  6
CONTINUOUS
 10
202.7839566866
 20
551.3091244327
 11
205.4172531413
 21
547.9117083092
  0
POLYLINE
  8
0
 62
7
  6
CONTINUOUS
 66
1
 70
0
  0
VERTEX
  8
0
 62
7
  6
CONTINUOUS
 10
211.7669192352
 20
546.0622225843
  0
VERTEX
  8
0
 62
7
  6
CONTINUOUS
 10
211.6714151749
 20
546.1398795834
  0
VERTEX
  8
0
 62
7
  6
CONTINUOUS
 10
211.5841667201
 20
546.1957611373
  0
VERTEX
  8
0
 62
7
  6
CONTINUOUS
 10
211.5133263001
 20
546.2324980624
  0
VERTEX
  8
0
 62
7
  6
CONTINUOUS
 10
211.4498527057
 20
546.259679317
  0
VERTEX
  8
0
 62
7
  6
CONTINUOUS
 10
211.3788784252
 20
546.2842705111
  0
VERTEX
  8
0
 62
7
  6
CONTINUOUS
 10
211.3488138765
 20
546.2929663122
  0
SEQEND
  0
POLYLINE
  8
0
 62
7
  6
CONTINUOUS
 66
1
 70
0
  0
VERTEX
  8
0
 62
7
  6
CONTINUOUS
 10
367.8786223994
 20
533.9329044295
  0
VERTEX
  8
0
 62
7
  6
CONTINUOUS
 10
367.5822684836
 20
534.7201741198
  0
VERTEX
  8
0
 62
7
  6
CONTINUOUS
 10
367.2275446734
 20
535.5519989822
  0
VERTEX
  8
0
 62
7
  6
CONTINUOUS
 10
366.8299361056
 20
536.3573511329
  0
VERTEX
  8
0
 62
7
  6
CONTINUOUS
 10
366.3529466471
 20
537.1742869737
  0
VERTEX
  8
0
 62
7
  6
CONTINUOUS
 10
365.7561947013
 20
538.0139147554
  0
VERTEX
  8
0
 62
7
  6
CONTINUOUS
 10
364.9743781463
 20
538.8831272704
  0
VERTEX
  8
0
 62
7
  6
CONTINUOUS
 10
363.915247722
 20
539.7595021233
  0
VERTEX
  8
0
 62
7
  6
CONTINUOUS
 10
362.5679771014
 20
540.514245496
  0
VERTEX
  8
0
 62
7
  6
CONTINUOUS
 10
360.9671507164
 20
541.014881728
  0
VERTEX
  8
0
 62
7
  6
CONTINUOUS
 10
359.7671388527
 20
541.1519735889
  0
SEQEND
  0
LINE
  8
0
 62
7
  6
CONTINUOUS
 10
367.8760481134
 20
533.9401227232
 11
367.8786347078
 21
533.9328698562
  0
LINE
  8
0
 62
7
  6
CONTINUOUS
 10
219.1901795001
 20
494.6880377424
 11
219.1902268274
 21
494.6880382176
  0
POLYLINE
  8
0
 62
7
  6
CONTINUOUS
 66
1
 70
0
  0
VERTEX
  8
0
 62
7
  6
CONTINUOUS
 10
354.917413844
 20
495.1265715455
  0
VERTEX
  8
0
 62
7
  6
CONTINUOUS
 10
355.5265811035
 20
495.1305819593
  0
VERTEX
  8
0
 62
7
  6
CONTINUOUS
 10
356.0789826536
 20
495.1352592019
  0
VERTEX
  8
0
 62
7
  6
CONTINUOUS
 10
356.6138008433
 20
495.1407816591
  0
VERTEX
  8
0
 62
7
  6
CONTINUOUS
 10
357.1299017032
 20
495.1470956308
  0
VERTEX
  8
0
 62
7
  6
CONTINUOUS
 10
357.6264757324
 20
495.1541486268
  0
VERTEX
  8
0
 62
7
  6
CONTINUOUS
 10
358.1026818836
 20
495.1618854284
  0
VERTEX
  8
0
 62
7
  6
CONTINUOUS
 10
358.558126846
 20
495.1702549919
  0
VERTEX
  8
0
 62
7
  6
CONTINUOUS
 10
358.9919405561
 20
495.1791918708
  0
VERTEX
  8
0
 62
7
  6
CONTINUOUS
 10
359.4041686565
 20
495.1886489579
  0
VERTEX
  8
0
 62
7
  6
CONTINUOUS
 10
359.79473518
 20
495.19858139
  0
VERTEX
  8
0
 62
7
  6
CONTINUOUS
 10
360.1635252579
 20
495.2089467761
  0
VERTEX
  8
0
 62
7
  6
CONTINUOUS
 10
360.5105392035
 20
495.2197088893
  0
VERTEX
  8
0
 62
7
  6
CONTINUOUS
 10
360.8358378568
 20
495.2308366504
  0
VERTEX
  8
0
 62
7
  6
CONTINUOUS
 10
361.1396313527
 20
495.2423002907
  0
VERTEX
  8
0
 62
7
  6
CONTINUOUS
 10
361.4225610243
 20
495.2540747576
  0
VERTEX
  8
0
 62
7
  6
CONTINUOUS
 10
361.6852129041
 20
495.2661380934
  0
VERTEX
  8
0
 62
7
  6
CONTINUOUS
 10
361.9285249937
 20
495.2784945284
  0
VERTEX
  8
0
 62
7
  6
CONTINUOUS
 10
362.1535251114
 20
495.2911695527
  0
VERTEX
  8
0
 62
7
  6
CONTINUOUS
 10
362.3607598528
 20
495.3041782849
  0
VERTEX
  8
0
 62
7
  6
CONTINUOUS
 10
362.5510999667
 20
495.3175707043
  0
VERTEX
  8
0
 62
7
  6
CONTINUOUS
 10
362.7260123938
 20
495.3314678323
  0
VERTEX
  8
0
 62
7
  6
CONTINUOUS
 10
362.886381601
 20
495.3459758761
  0
VERTEX
  8
0
 62
7
  6
CONTINUOUS
 10
363.0375914856
 20
495.3617123392
  0
VERTEX
  8
0
 62
7
  6
CONTINUOUS
 10
363.1823486315
 20
495.3792662143
  0
VERTEX
  8
0
 62
7
  6
CONTINUOUS
 10
363.3304643573
 20
495.4005578985
  0
VERTEX
  8
0
 62
7
  6
CONTINUOUS
 10
363.4894164908
 20
495.4282621217
  0
VERTEX
  8
0
 62
7
  6
CONTINUOUS
 10
363.6714296096
 20
495.4677142777
  0
VERTEX
  8
0
 62
7
  6
CONTINUOUS
 10
363.8938338636
 20
495.5293840737
  0
VERTEX
  8
0
 62
7
  6
CONTINUOUS
 10
364.1518328217
 20
495.6224937892
  0
VERTEX
  8
0
 62
7
  6
CONTINUOUS
 10
364.4470038836
 20
495.7619235427
  0
VERTEX
  8
0
 62
7
  6
CONTINUOUS
 10
364.7593285608
 20
495.9550277979
  0
VERTEX
  8
0
 62
7
  6
CONTINUOUS
 10
365.0642045086
 20
496.2007086866
  0
VERTEX
  8
0
 62
7
  6
CONTINUOUS
 10
365.3653829209
 20
496.5206116357
  0
SEQEND
  0
POLYLINE
  8
0
 62
7
  6
CONTINUOUS
 66
1
 70
0
  0
VERTEX
  8
0
 62
7
  6
CONTINUOUS
 10
219.1901795001
 20
494.6880377424
  0
VERTEX
  8
0
 62
7
  6
CONTINUOUS
 10
241.9456439224
 20
494.7168790914
  0
VERTEX
  8
0
 62
7
  6
CONTINUOUS
 10
264.6680808777
 20
494.763473995
  0
VERTEX
  8
0
 62
7
  6
CONTINUOUS
 10
287.3419521
 20
494.8277906316
  0
VERTEX
  8
0
 62
7
  6
CONTINUOUS
 10
309.9517595915
 20
494.9097850932
  0
VERTEX
  8
0
 62
7
  6
CONTINUOUS
 10
332.4820491728
 20
495.0094014093
  0
VERTEX
  8
0
 62
7
  6
CONTINUOUS
 10
354.917413844
 20
495.1265715455
  0
SEQEND
  0
POLYLINE
  8
0
 62
7
  6
CONTINUOUS
 66
1
 70
0
  0
VERTEX
  8
0
 62
7
  6
CONTINUOUS
 10
149.3606159219
 20
494.6880377325
  0
VERTEX
  8
0
 62
7
  6
CONTINUOUS
 10
160.6049867902
 20
494.679769404
  0
VERTEX
  8
0
 62
7
  6
CONTINUOUS
 10
172.4531396043
 20
494.6744924076
  0
VERTEX
  8
0
 62
7
  6
CONTINUOUS
 10
184.3025358104
 20
494.6727387476
  0
VERTEX
  8
0
 62
7
  6
CONTINUOUS
 10
196.1519284933
 20
494.6745085494
  0
VERTEX
  8
0
 62
7
  6
CONTINUOUS
 10
208.0000707395
 20
494.6798016855
  0
VERTEX
  8
0
 62
7
  6
CONTINUOUS
 10
219.1901794814
 20
494.6880377424
  0
SEQEND
  0
POLYLINE
  8
0
 62
7
  6
CONTINUOUS
 66
1
 70
0
  0
VERTEX
  8
0
 62
7
  6
CONTINUOUS
 10
36.0687372388
 20
495.0094013981
  0
VERTEX
  8
0
 62
7
  6
CONTINUOUS
 10
58.5990289842
 20
494.9097850751
  0
VERTEX
  8
0
 62
7
  6
CONTINUOUS
 10
81.2088384748
 20
494.8277906106
  0
VERTEX
  8
0
 62
7
  6
CONTINUOUS
 10
103.8827115105
 20
494.7634739747
  0
VERTEX
  8
0
 62
7
  6
CONTINUOUS
 10
126.6051500737
 20
494.716879075
  0
VERTEX
  8
0
 62
7
  6
CONTINUOUS
 10
149.360615899
 20
494.6880377325
  0
SEQEND
  0
LINE
  8
0
 62
7
  6
CONTINUOUS
 10
36.0687372388
 20
495.0094013981
 11
13.6331237481
 21
495.1265732278
  0
LINE
  8
0
 62
7
  6
CONTINUOUS
 10
149.3605671782
 20
494.6880382348
 11
149.360615899
 21
494.6880377325
  0
POLYLINE
  8
0
 62
7
  6
CONTINUOUS
 66
1
 70
0
  0
VERTEX
  8
0
 62
7
  6
CONTINUOUS
 10
184.5972348413
 20
553.0965176289
  0
VERTEX
  8
0
 62
7
  6
CONTINUOUS
 10
184.6453951777
 20
553.070501098
  0
VERTEX
  8
0
 62
7
  6
CONTINUOUS
 10
184.704714267
 20
553.0442049649
  0
SEQEND
  0
LINE
  8
0
 62
7
  6
CONTINUOUS
 10
185.0480407847
 20
552.8237295097
 11
184.9476590433
 21
552.8513746653
  0
POLYLINE
  8
0
 62
7
  6
CONTINUOUS
 66
1
 70
0
  0
VERTEX
  8
0
 62
7
  6
CONTINUOUS
 10
184.9476590433
 20
552.8513746653
  0
VERTEX
  8
0
 62
7
  6
CONTINUOUS
 10
184.8571305206
 20
552.8792481873
  0
VERTEX
  8
0
 62
7
  6
CONTINUOUS
 10
184.7767919928
 20
552.9072451015
  0
VERTEX
  8
0
 62
7
  6
CONTINUOUS
 10
184.7068300129
 20
552.9352992113
  0
VERTEX
  8
0
 62
7
  6
CONTINUOUS
 10
184.6473499433
 20
552.9633871378
  0
VERTEX
  8
0
 62
7
  6
CONTINUOUS
 10
184.5988610821
 20
552.9912752644
  0
VERTEX
  8
0
 62
7
  6
CONTINUOUS
 10
184.561432034
 20
553.0188687553
  0
VERTEX
  8
0
 62
7
  6
CONTINUOUS
 10
184.5354016697
 20
553.0457266566
  0
VERTEX
  8
0
 62
7
  6
CONTINUOUS
 10
184.5204785044
 20
553.0713186834
  0
VERTEX
  8
0
 62
7
  6
CONTINUOUS
 10
184.5156857562
 20
553.0958173941
  0
SEQEND
  0
POLYLINE
  8
0
 62
7
  6
CONTINUOUS
 66
1
 70
0
  0
VERTEX
  8
0
 62
7
  6
CONTINUOUS
 10
190.758080348
 20
551.3997341635
  0
VERTEX
  8
0
 62
7
  6
CONTINUOUS
 10
189.7874700824
 20
551.6996613597
  0
VERTEX
  8
0
 62
7
  6
CONTINUOUS
 10
188.8569671422
 20
551.9658992826
  0
VERTEX
  8
0
 62
7
  6
CONTINUOUS
 10
187.9662725658
 20
552.1969912307
  0
VERTEX
  8
0
 62
7
  6
CONTINUOUS
 10
187.1162832382
 20
552.3973073085
  0
VERTEX
  8
0
 62
7
  6
CONTINUOUS
 10
186.3078960441
 20
552.5712176204
  0
SEQEND
  0
LINE
  8
0
 62
7
  6
CONTINUOUS
 10
190.7913009326
 20
551.3442679651
 11
191.1787920259
 21
551.2237218726
  0
POLYLINE
  8
0
 62
7
  6
CONTINUOUS
 66
1
 70
0
  0
VERTEX
  8
0
 62
7
  6
CONTINUOUS
 10
184.704714267
 20
553.0442049649
  0
VERTEX
  8
0
 62
7
  6
CONTINUOUS
 10
184.7746525888
 20
553.0178784405
  0
VERTEX
  8
0
 62
7
  6
CONTINUOUS
 10
184.8550958321
 20
552.9915542018
  0
VERTEX
  8
0
 62
7
  6
CONTINUOUS
 10
184.9457788305
 20
552.9653191035
  0
VERTEX
  8
0
 62
7
  6
CONTINUOUS
 10
185.0156857562
 20
552.9472137571
  0
SEQEND
  0
LINE
  8
0
 62
7
  6
CONTINUOUS
 10
202.7839566866
 20
551.3091244327
 11
202.7803845407
 21
551.3106074561
  0
LINE
  8
0
 62
7
  6
CONTINUOUS
 10
162.8159375267
 20
547.8255947151
 11
157.2018544195
 21
546.2929349046
  0
POLYLINE
  8
0
 62
7
  6
CONTINUOUS
 66
1
 70
0
  0
VERTEX
  8
0
 62
7
  6
CONTINUOUS
 10
165.654862071
 20
551.4880233831
  0
VERTEX
  8
0
 62
7
  6
CONTINUOUS
 10
166.4523302062
 20
551.6815607652
  0
VERTEX
  8
0
 62
7
  6
CONTINUOUS
 10
167.2241289947
 20
551.8603596259
  0
VERTEX
  8
0
 62
7
  6
CONTINUOUS
 10
167.9730677603
 20
552.025918089
  0
VERTEX
  8
0
 62
7
  6
CONTINUOUS
 10
168.689627056
 20
552.1770417905
  0
VERTEX
  8
0
 62
7
  6
CONTINUOUS
 10
169.3652276913
 20
552.31304837
  0
VERTEX
  8
0
 62
7
  6
CONTINUOUS
 10
169.9997245039
 20
552.4350850441
  0
VERTEX
  8
0
 62
7
  6
CONTINUOUS
 10
170.5769711806
 20
552.5413410136
  0
VERTEX
  8
0
 62
7
  6
CONTINUOUS
 10
171.1365102668
 20
552.640018936
  0
VERTEX
  8
0
 62
7
  6
CONTINUOUS
 10
171.700519431
 20
552.7351997595
  0
VERTEX
  8
0
 62
7
  6
CONTINUOUS
 10
172.3058435287
 20
552.8325843078
  0
VERTEX
  8
0
 62
7
  6
CONTINUOUS
 10
173.0459885523
 20
552.9449769102
  0
VERTEX
  8
0
 62
7
  6
CONTINUOUS
 10
173.7741019221
 20
553.0483987062
  0
VERTEX
  8
0
 62
7
  6
CONTINUOUS
 10
174.3188594617
 20
553.1211603114
  0
VERTEX
  8
0
 62
7
  6
CONTINUOUS
 10
174.8446463456
 20
553.1876526428
  0
VERTEX
  8
0
 62
7
  6
CONTINUOUS
 10
175.5092895008
 20
553.2664693342
  0
VERTEX
  8
0
 62
7
  6
CONTINUOUS
 10
176.1629636869
 20
553.3382989178
  0
VERTEX
  8
0
 62
7
  6
CONTINUOUS
 10
176.6927871331
 20
553.3923923921
  0
VERTEX
  8
0
 62
7
  6
CONTINUOUS
 10
177.1444120667
 20
553.4355913328
  0
VERTEX
  8
0
 62
7
  6
CONTINUOUS
 10
177.5069236445
 20
553.4683315664
  0
VERTEX
  8
0
 62
7
  6
CONTINUOUS
 10
177.837503925
 20
553.4966878908
  0
VERTEX
  8
0
 62
7
  6
CONTINUOUS
 10
178.1987547222
 20
553.5260407497
  0
VERTEX
  8
0
 62
7
  6
CONTINUOUS
 10
178.5638095113
 20
553.5539708174
  0
VERTEX
  8
0
 62
7
  6
CONTINUOUS
 10
178.930652228
 20
553.5802858208
  0
VERTEX
  8
0
 62
7
  6
CONTINUOUS
 10
179.2872893413
 20
553.6041869112
  0
VERTEX
  8
0
 62
7
  6
CONTINUOUS
 10
179.6077515688
 20
553.6242505663
  0
VERTEX
  8
0
 62
7
  6
CONTINUOUS
 10
179.9319507739
 20
553.6431882411
  0
VERTEX
  8
0
 62
7
  6
CONTINUOUS
 10
180.318591301
 20
553.6639863483
  0
VERTEX
  8
0
 62
7
  6
CONTINUOUS
 10
180.6851079233
 20
553.6819084957
  0
VERTEX
  8
0
 62
7
  6
CONTINUOUS
 10
180.9531772117
 20
553.6939121875
  0
VERTEX
  8
0
 62
7
  6
CONTINUOUS
 10
181.1694576591
 20
553.702917045
  0
VERTEX
  8
0
 62
7
  6
CONTINUOUS
 10
181.3466650685
 20
553.7098427422
  0
VERTEX
  8
0
 62
7
  6
CONTINUOUS
 10
181.508171007
 20
553.7158000108
  0
VERTEX
  8
0
 62
7
  6
CONTINUOUS
 10
181.6830609565
 20
553.7218694988
  0
VERTEX
  8
0
 62
7
  6
CONTINUOUS
 10
181.8664804697
 20
553.7278089796
  0
VERTEX
  8
0
 62
7
  6
CONTINUOUS
 10
182.0722138569
 20
553.7339521608
  0
VERTEX
  8
0
 62
7
  6
CONTINUOUS
 10
182.273099238
 20
553.7394213325
  0
VERTEX
  8
0
 62
7
  6
CONTINUOUS
 10
182.4395200531
 20
553.7435562083
  0
VERTEX
  8
0
 62
7
  6
CONTINUOUS
 10
182.5935114006
 20
553.7470626907
  0
VERTEX
  8
0
 62
7
  6
CONTINUOUS
 10
182.7485514552
 20
553.750282772
  0
VERTEX
  8
0
 62
7
  6
CONTINUOUS
 10
182.8999603906
 20
553.7531269946
  0
VERTEX
  8
0
 62
7
  6
CONTINUOUS
 10
183.0480114208
 20
553.7556210907
  0
VERTEX
  8
0
 62
7
  6
CONTINUOUS
 10
183.1910400709
 20
553.757761055
  0
VERTEX
  8
0
 62
7
  6
CONTINUOUS
 10
183.3278196362
 20
553.759559775
  0
VERTEX
  8
0
 62
7
  6
CONTINUOUS
 10
183.4571343844
 20
553.7610375985
  0
VERTEX
  8
0
 62
7
  6
CONTINUOUS
 10
183.5766544357
 20
553.76221099
  0
VERTEX
  8
0
 62
7
  6
CONTINUOUS
 10
183.688721154
 20
553.7631432356
  0
VERTEX
  8
0
 62
7
  6
CONTINUOUS
 10
183.7952326193
 20
553.7638785941
  0
VERTEX
  8
0
 62
7
  6
CONTINUOUS
 10
183.894835054
 20
553.7644333911
  0
VERTEX
  8
0
 62
7
  6
CONTINUOUS
 10
183.9881636234
 20
553.7648367128
  0
VERTEX
  8
0
 62
7
  6
CONTINUOUS
 10
184.0747436185
 20
553.7651100689
  0
VERTEX
  8
0
 62
7
  6
CONTINUOUS
 10
184.1572857151
 20
553.7652803354
  0
VERTEX
  8
0
 62
7
  6
CONTINUOUS
 10
184.2357369538
 20
553.7653604295
  0
VERTEX
  8
0
 62
7
  6
CONTINUOUS
 10
184.3132710786
 20
553.7653613197
  0
VERTEX
  8
0
 62
7
  6
CONTINUOUS
 10
184.3910979484
 20
553.7652839679
  0
SEQEND
  0
POLYLINE
  8
0
 62
7
  6
CONTINUOUS
 66
1
 70
0
  0
VERTEX
  8
0
 62
7
  6
CONTINUOUS
 10
8.7838030274
 20
541.1519784341
  0
VERTEX
  8
0
 62
7
  6
CONTINUOUS
 10
7.6265863135
 20
541.0231619261
  0
VERTEX
  8
0
 62
7
  6
CONTINUOUS
 10
6.0165671726
 20
540.5289107497
  0
VERTEX
  8
0
 62
7
  6
CONTINUOUS
 10
4.6594461083
 20
539.7760714262
  0
VERTEX
  8
0
 62
7
  6
CONTINUOUS
 10
3.5918663581
 20
538.8981656773
  0
VERTEX
  8
0
 62
7
  6
CONTINUOUS
 10
2.8036934196
 20
538.0254057228
  0
VERTEX
  8
0
 62
7
  6
CONTINUOUS
 10
2.2026347811
 20
537.1817830278
  0
VERTEX
  8
0
 62
7
  6
CONTINUOUS
 10
1.7231774716
 20
536.3617124445
  0
VERTEX
  8
0
 62
7
  6
CONTINUOUS
 10
1.3241569029
 20
535.5540048803
  0
VERTEX
  8
0
 62
7
  6
CONTINUOUS
 10
0.9686933427
 20
534.7206195645
  0
VERTEX
  8
0
 62
7
  6
CONTINUOUS
 10
0.6721505066
 20
533.9328730316
  0
SEQEND
  0
POLYLINE
  8
0
 62
7
  6
CONTINUOUS
 66
1
 70
0
  0
VERTEX
  8
0
 62
7
  6
CONTINUOUS
 10
8.7821421716
 20
541.1500006567
  0
VERTEX
  8
0
 62
7
  6
CONTINUOUS
 10
30.5935794319
 20
541.8402492788
  0
VERTEX
  8
0
 62
7
  6
CONTINUOUS
 10
54.3251840759
 20
542.4602377014
  0
VERTEX
  8
0
 62
7
  6
CONTINUOUS
 10
78.0599633191
 20
542.943790871
  0
VERTEX
  8
0
 62
7
  6
CONTINUOUS
 10
101.7971319532
 20
543.2908927852
  0
VERTEX
  8
0
 62
7
  6
CONTINUOUS
 10
125.5359046902
 20
543.5015319613
  0
VERTEX
  8
0
 62
7
  6
CONTINUOUS
 10
149.2753921072
 20
543.5757014097
  0
SEQEND
  0
POLYLINE
  8
0
 62
7
  6
CONTINUOUS
 66
1
 70
0
  0
VERTEX
  8
0
 62
7
  6
CONTINUOUS
 10
193.1806935507
 20
547.8163409575
  0
VERTEX
  8
0
 62
7
  6
CONTINUOUS
 10
194.5185553677
 20
547.8197090237
  0
VERTEX
  8
0
 62
7
  6
CONTINUOUS
 10
195.804801161
 20
547.8235386484
  0
VERTEX
  8
0
 62
7
  6
CONTINUOUS
 10
197.032949464
 20
547.8278105327
  0
VERTEX
  8
0
 62
7
  6
CONTINUOUS
 10
198.1968121383
 20
547.8325031517
  0
VERTEX
  8
0
 62
7
  6
CONTINUOUS
 10
199.2905248981
 20
547.8375928607
  0
VERTEX
  8
0
 62
7
  6
CONTINUOUS
 10
200.3085763831
 20
547.8430540123
  0
VERTEX
  8
0
 62
7
  6
CONTINUOUS
 10
201.2458366307
 20
547.8488590876
  0
VERTEX
  8
0
 62
7
  6
CONTINUOUS
 10
202.097582785
 20
547.8549788348
  0
VERTEX
  8
0
 62
7
  6
CONTINUOUS
 10
202.8595228961
 20
547.8613824166
  0
VERTEX
  8
0
 62
7
  6
CONTINUOUS
 10
203.5278175467
 20
547.8680375653
  0
VERTEX
  8
0
 62
7
  6
CONTINUOUS
 10
204.0990991992
 20
547.8749107456
  0
VERTEX
  8
0
 62
7
  6
CONTINUOUS
 10
204.5704891646
 20
547.8819673235
  0
VERTEX
  8
0
 62
7
  6
CONTINUOUS
 10
204.9396121081
 20
547.889171741
  0
VERTEX
  8
0
 62
7
  6
CONTINUOUS
 10
205.2046080189
 20
547.8964876948
  0
VERTEX
  8
0
 62
7
  6
CONTINUOUS
 10
205.3641415821
 20
547.9038783201
  0
VERTEX
  8
0
 62
7
  6
CONTINUOUS
 10
205.4174089078
 20
547.9113063753
  0
SEQEND
  0
LINE
  8
0
 62
7
  6
CONTINUOUS
 10
193.1806961006
 20
547.8163409633
 11
192.885098689
 21
547.8156749199
  0
POLYLINE
  8
0
 62
7
  6
CONTINUOUS
 66
1
 70
0
  0
VERTEX
  8
0
 62
7
  6
CONTINUOUS
 10
191.178789754
 20
551.2237217011
  0
VERTEX
  8
0
 62
7
  6
CONTINUOUS
 10
192.4342998396
 20
551.2264937384
  0
VERTEX
  8
0
 62
7
  6
CONTINUOUS
 10
193.6448056383
 20
551.2297196146
  0
VERTEX
  8
0
 62
7
  6
CONTINUOUS
 10
194.8036300654
 20
551.2333815349
  0
VERTEX
  8
0
 62
7
  6
CONTINUOUS
 10
195.9043817479
 20
551.2374593015
  0
VERTEX
  8
0
 62
7
  6
CONTINUOUS
 10
196.9409895471
 20
551.2419304236
  0
VERTEX
  8
0
 62
7
  6
CONTINUOUS
 10
197.9077355087
 20
551.2467702385
  0
VERTEX
  8
0
 62
7
  6
CONTINUOUS
 10
198.7992871839
 20
551.2519520504
  0
VERTEX
  8
0
 62
7
  6
CONTINUOUS
 10
199.6107268862
 20
551.2574472771
  0
VERTEX
  8
0
 62
7
  6
CONTINUOUS
 10
200.3375788166
 20
551.2632256075
  0
VERTEX
  8
0
 62
7
  6
CONTINUOUS
 10
200.9758337515
 20
551.2692551692
  0
VERTEX
  8
0
 62
7
  6
CONTINUOUS
 10
201.5219711573
 20
551.2755027039
  0
VERTEX
  8
0
 62
7
  6
CONTINUOUS
 10
201.9729786089
 20
551.2819337509
  0
VERTEX
  8
0
 62
7
  6
CONTINUOUS
 10
202.3263684062
 20
551.2885128374
  0
VERTEX
  8
0
 62
7
  6
CONTINUOUS
 10
202.5801912957
 20
551.2952036739
  0
VERTEX
  8
0
 62
7
  6
CONTINUOUS
 10
202.7330472222
 20
551.3019693547
  0
VERTEX
  8
0
 62
7
  6
CONTINUOUS
 10
202.7840930518
 20
551.3087725612
  0
SEQEND
  0
POLYLINE
  8
0
 62
7
  6
CONTINUOUS
 66
1
 70
0
  0
VERTEX
  8
0
 62
7
  6
CONTINUOUS
 10
184.0557975576
 20
547.7173754233
  0
VERTEX
  8
0
 62
7
  6
CONTINUOUS
 10
185.5774655466
 20
547.7175656454
  0
VERTEX
  8
0
 62
7
  6
CONTINUOUS
 10
187.0925845858
 20
547.7182895167
  0
VERTEX
  8
0
 62
7
  6
CONTINUOUS
 10
188.5932507967
 20
547.719543108
  0
VERTEX
  8
0
 62
7
  6
CONTINUOUS
 10
190.0727651205
 20
547.7213209777
  0
VERTEX
  8
0
 62
7
  6
CONTINUOUS
 10
191.524471248
 20
547.7236162236
  0
VERTEX
  8
0
 62
7
  6
CONTINUOUS
 10
192.9406927485
 20
547.7264181478
  0
SEQEND
  0
POLYLINE
  8
0
 62
7
  6
CONTINUOUS
 66
1
 70
0
  0
VERTEX
  8
0
 62
7
  6
CONTINUOUS
 10
183.9974879173
 20
551.393956679
  0
VERTEX
  8
0
 62
7
  6
CONTINUOUS
 10
185.3766901294
 20
551.3941078128
  0
VERTEX
  8
0
 62
7
  6
CONTINUOUS
 10
186.7498612375
 20
551.39476415
  0
VERTEX
  8
0
 62
7
  6
CONTINUOUS
 10
188.109432935
 20
551.3959220665
  0
VERTEX
  8
0
 62
7
  6
CONTINUOUS
 10
189.4479135082
 20
551.3975751372
  0
VERTEX
  8
0
 62
7
  6
CONTINUOUS
 10
190.7579737044
 20
551.3997142515
  0
SEQEND
  0
LINE
  8
0
 62
7
  6
CONTINUOUS
 10
184.3910979484
 20
553.7652839679
 11
184.5156857562
 21
553.7649969404
  0
POLYLINE
  8
0
 62
7
  6
CONTINUOUS
 66
1
 70
0
  0
VERTEX
  8
0
 62
7
  6
CONTINUOUS
 10
219.2753919728
 20
543.5757014097
  0
VERTEX
  8
0
 62
7
  6
CONTINUOUS
 10
243.0153525273
 20
543.5015291231
  0
VERTEX
  8
0
 62
7
  6
CONTINUOUS
 10
266.7545981543
 20
543.2908816714
  0
VERTEX
  8
0
 62
7
  6
CONTINUOUS
 10
290.492239418
 20
542.9437660474
  0
VERTEX
  8
0
 62
7
  6
CONTINUOUS
 10
314.2274910443
 20
542.4601937364
  0
VERTEX
  8
0
 62
7
  6
CONTINUOUS
 10
337.9595678381
 20
541.840180742
  0
VERTEX
  8
0
 62
7
  6
CONTINUOUS
 10
359.7686419143
 20
541.1500006566
  0
SEQEND
  0
POLYLINE
  8
0
 62
7
  6
CONTINUOUS
 66
1
 70
0
  0
VERTEX
  8
0
 62
7
  6
CONTINUOUS
 10
185.0156857562
 20
553.561814755
  0
VERTEX
  8
0
 62
7
  6
CONTINUOUS
 10
185.0536211298
 20
553.5614409804
  0
VERTEX
  8
0
 62
7
  6
CONTINUOUS
 10
185.2088425003
 20
553.5597170561
  0
VERTEX
  8
0
 62
7
  6
CONTINUOUS
 10
185.3740627775
 20
553.5575384739
  0
VERTEX
  8
0
 62
7
  6
CONTINUOUS
 10
185.55043638
 20
553.5548218063
  0
VERTEX
  8
0
 62
7
  6
CONTINUOUS
 10
185.7386257992
 20
553.5514778203
  0
VERTEX
  8
0
 62
7
  6
CONTINUOUS
 10
185.9396543145
 20
553.5473977568
  0
VERTEX
  8
0
 62
7
  6
CONTINUOUS
 10
186.1547941672
 20
553.5424499646
  0
VERTEX
  8
0
 62
7
  6
CONTINUOUS
 10
186.3844920828
 20
553.5365038186
  0
VERTEX
  8
0
 62
7
  6
CONTINUOUS
 10
186.6289813289
 20
553.529421722
  0
VERTEX
  8
0
 62
7
  6
CONTINUOUS
 10
186.890405431
 20
553.5209897523
  0
VERTEX
  8
0
 62
7
  6
CONTINUOUS
 10
187.1707434975
 20
553.5109606136
  0
VERTEX
  8
0
 62
7
  6
CONTINUOUS
 10
187.470886969
 20
553.4990901002
  0
VERTEX
  8
0
 62
7
  6
CONTINUOUS
 10
187.7921645692
 20
553.485085019
  0
VERTEX
  8
0
 62
7
  6
CONTINUOUS
 10
188.1352961272
 20
553.4686434515
  0
VERTEX
  8
0
 62
7
  6
CONTINUOUS
 10
188.5048767208
 20
553.4492190399
  0
VERTEX
  8
0
 62
7
  6
CONTINUOUS
 10
188.890620712
 20
553.4270460977
  0
VERTEX
  8
0
 62
7
  6
CONTINUOUS
 10
189.281509152
 20
553.4025971229
  0
VERTEX
  8
0
 62
7
  6
CONTINUOUS
 10
189.6842914595
 20
553.3753168682
  0
VERTEX
  8
0
 62
7
  6
CONTINUOUS
 10
190.1024350101
 20
553.3447524327
  0
VERTEX
  8
0
 62
7
  6
CONTINUOUS
 10
190.5347998339
 20
553.3107419266
  0
VERTEX
  8
0
 62
7
  6
CONTINUOUS
 10
190.9881473994
 20
553.2724495734
  0
VERTEX
  8
0
 62
7
  6
CONTINUOUS
 10
191.4422391844
 20
553.2313900892
  0
VERTEX
  8
0
 62
7
  6
CONTINUOUS
 10
191.8615151354
 20
553.1910717584
  0
VERTEX
  8
0
 62
7
  6
CONTINUOUS
 10
192.2988215538
 20
553.1465533486
  0
VERTEX
  8
0
 62
7
  6
CONTINUOUS
 10
192.8262265631
 20
553.0895067684
  0
VERTEX
  8
0
 62
7
  6
CONTINUOUS
 10
193.350157801
 20
553.029195001
  0
VERTEX
  8
0
 62
7
  6
CONTINUOUS
 10
193.7696555491
 20
552.978283221
  0
VERTEX
  8
0
 62
7
  6
CONTINUOUS
 10
194.1797165218
 20
552.9262584385
  0
VERTEX
  8
0
 62
7
  6
CONTINUOUS
 10
194.6410078101
 20
552.8650598846
  0
VERTEX
  8
0
 62
7
  6
CONTINUOUS
 10
195.1548678878
 20
552.793545349
  0
VERTEX
  8
0
 62
7
  6
CONTINUOUS
 10
195.7746032706
 20
552.7025971339
  0
VERTEX
  8
0
 62
7
  6
CONTINUOUS
 10
196.4044738122
 20
552.6048791326
  0
VERTEX
  8
0
 62
7
  6
CONTINUOUS
 10
196.93290269
 20
552.5187760326
  0
VERTEX
  8
0
 62
7
  6
CONTINUOUS
 10
197.4622280257
 20
552.4287419776
  0
VERTEX
  8
0
 62
7
  6
CONTINUOUS
 10
198.0834514117
 20
552.3182268778
  0
VERTEX
  8
0
 62
7
  6
CONTINUOUS
 10
198.7176153833
 20
552.1999848838
  0
VERTEX
  8
0
 62
7
  6
CONTINUOUS
 10
199.2966780217
 20
552.0872079999
  0
VERTEX
  8
0
 62
7
  6
CONTINUOUS
 10
199.8800897577
 20
551.9689204289
  0
VERTEX
  8
0
 62
7
  6
CONTINUOUS
 10
200.4965285823
 20
551.8388260878
  0
VERTEX
  8
0
 62
7
  6
CONTINUOUS
 10
201.1692336435
 20
551.690833697
  0
VERTEX
  8
0
 62
7
  6
CONTINUOUS
 10
201.9348723072
 20
551.5147009729
  0
VERTEX
  8
0
 62
7
  6
CONTINUOUS
 10
202.7803845407
 20
551.3106074561
  0
SEQEND
  0
POLYLINE
  8
0
 62
7
  6
CONTINUOUS
 66
1
 70
0
  0
VERTEX
  8
0
 62
7
  6
CONTINUOUS
 10
165.651159066
 20
551.4861841366
  0
VERTEX
  8
0
 62
7
  6
CONTINUOUS
 10
165.702251908
 20
551.4793565634
  0
VERTEX
  8
0
 62
7
  6
CONTINUOUS
 10
165.8552501025
 20
551.4725664512
  0
VERTEX
  8
0
 62
7
  6
CONTINUOUS
 10
166.1093141936
 20
551.4658510551
  0
VERTEX
  8
0
 62
7
  6
CONTINUOUS
 10
166.4630502063
 20
551.4592472208
  0
VERTEX
  8
0
 62
7
  6
CONTINUOUS
 10
166.9145172953
 20
551.4527911813
  0
VERTEX
  8
0
 62
7
  6
CONTINUOUS
 10
167.4612383936
 20
551.4465183591
  0
VERTEX
  8
0
 62
7
  6
CONTINUOUS
 10
168.1002138034
 20
551.4404631714
  0
VERTEX
  8
0
 62
7
  6
CONTINUOUS
 10
168.8279376547
 20
551.4346588412
  0
VERTEX
  8
0
 62
7
  6
CONTINUOUS
 10
169.640417141
 20
551.4291372151
  0
VERTEX
  8
0
 62
7
  6
CONTINUOUS
 10
170.5331944266
 20
551.4239285887
  0
VERTEX
  8
0
 62
7
  6
CONTINUOUS
 10
171.5013711051
 20
551.4190615401
  0
VERTEX
  8
0
 62
7
  6
CONTINUOUS
 10
172.5396350764
 20
551.4145627735
  0
VERTEX
  8
0
 62
7
  6
CONTINUOUS
 10
173.6422896914
 20
551.4104569722
  0
VERTEX
  8
0
 62
7
  6
CONTINUOUS
 10
174.803285009
 20
551.4067666635
  0
VERTEX
  8
0
 62
7
  6
CONTINUOUS
 10
176.0162509896
 20
551.4035120952
  0
VERTEX
  8
0
 62
7
  6
CONTINUOUS
 10
177.274532446
 20
551.400711124
  0
VERTEX
  8
0
 62
7
  6
CONTINUOUS
 10
178.5712255581
 20
551.3983791181
  0
VERTEX
  8
0
 62
7
  6
CONTINUOUS
 10
179.8992157526
 20
551.3965288724
  0
VERTEX
  8
0
 62
7
  6
CONTINUOUS
 10
181.2512167381
 20
551.3951705388
  0
VERTEX
  8
0
 62
7
  6
CONTINUOUS
 10
182.6198104834
 20
551.39431157
  0
VERTEX
  8
0
 62
7
  6
CONTINUOUS
 10
183.9974879173
 20
551.393956679
  0
SEQEND
  0
POLYLINE
  8
0
 62
7
  6
CONTINUOUS
 66
1
 70
0
  0
VERTEX
  8
0
 62
7
  6
CONTINUOUS
 10
162.812406675
 20
547.8236666924
  0
VERTEX
  8
0
 62
7
  6
CONTINUOUS
 10
162.8663821277
 20
547.8161328733
  0
VERTEX
  8
0
 62
7
  6
CONTINUOUS
 10
163.0280370093
 20
547.8086369465
  0
VERTEX
  8
0
 62
7
  6
CONTINUOUS
 10
163.2965582553
 20
547.8012166138
  0
VERTEX
  8
0
 62
7
  6
CONTINUOUS
 10
163.6705953028
 20
547.7939091966
  0
VERTEX
  8
0
 62
7
  6
CONTINUOUS
 10
164.1482668833
 20
547.7867514488
  0
VERTEX
  8
0
 62
7
  6
CONTINUOUS
 10
164.7271704849
 20
547.779779371
  0
VERTEX
  8
0
 62
7
  6
CONTINUOUS
 10
165.4043944357
 20
547.7730280302
  0
VERTEX
  8
0
 62
7
  6
CONTINUOUS
 10
166.1765325489
 20
547.7665313833
  0
VERTEX
  8
0
 62
7
  6
CONTINUOUS
 10
167.0397012544
 20
547.7603221059
  0
VERTEX
  8
0
 62
7
  6
CONTINUOUS
 10
167.9895591318
 20
547.7544314284
  0
VERTEX
  8
0
 62
7
  6
CONTINUOUS
 10
169.0213287461
 20
547.7488889788
  0
VERTEX
  8
0
 62
7
  6
CONTINUOUS
 10
170.1298206763
 20
547.7437226335
  0
VERTEX
  8
0
 62
7
  6
CONTINUOUS
 10
171.3094596167
 20
547.7389583774
  0
VERTEX
  8
0
 62
7
  6
CONTINUOUS
 10
172.5543124182
 20
547.7346201729
  0
VERTEX
  8
0
 62
7
  6
CONTINUOUS
 10
173.85811793
 20
547.7307298395
  0
VERTEX
  8
0
 62
7
  6
CONTINUOUS
 10
175.2143184909
 20
547.7273069443
  0
VERTEX
  8
0
 62
7
  6
CONTINUOUS
 10
176.616092912
 20
547.724368703
  0
VERTEX
  8
0
 62
7
  6
CONTINUOUS
 10
178.0563907847
 20
547.7219298941
  0
VERTEX
  8
0
 62
7
  6
CONTINUOUS
 10
179.5279679414
 20
547.7200027838
  0
VERTEX
  8
0
 62
7
  6
CONTINUOUS
 10
181.0234228916
 20
547.7185970647
  0
VERTEX
  8
0
 62
7
  6
CONTINUOUS
 10
182.5352340479
 20
547.7177198071
  0
VERTEX
  8
0
 62
7
  6
CONTINUOUS
 10
184.0557975576
 20
547.7173754233
  0
SEQEND
  0
POLYLINE
  8
0
 62
7
  6
CONTINUOUS
 66
1
 70
0
  0
VERTEX
  8
0
 62
7
  6
CONTINUOUS
 10
185.540812022
 20
552.7172499914
  0
VERTEX
  8
0
 62
7
  6
CONTINUOUS
 10
185.4046995353
 20
552.7431299185
  0
VERTEX
  8
0
 62
7
  6
CONTINUOUS
 10
185.276927167
 20
552.7695047535
  0
VERTEX
  8
0
 62
7
  6
CONTINUOUS
 10
185.1579125478
 20
552.7964130977
  0
SEQEND
  0
LINE
  8
0
 62
7
  6
CONTINUOUS
 10
186.3078960441
 20
552.5712176204
 11
185.540812022
 21
552.7172654651
  0
LINE
  8
0
 62
7
  6
CONTINUOUS
 10
185.1579125478
 20
552.7964130977
 11
185.0480407847
 21
552.8237295097
  0
LINE
  8
0
 62
7
  6
CONTINUOUS
 10
205.4139308583
 20
547.9132055653
 11
211.3489296644
 21
546.2929349046
  0
ENDSEC
  0
EOF
