999
DXF file: k:\Client\125_Heirloom\001\00\Creo\ASM WITH VIEWS\centrowf-373100_2.dxf
999
Pro/ENGINEER 2017110 by Parametric Technology Corporation
  0
SECTION
  2
HEADER
  9
$EXTMAX
 10
420.0
 20
297.0
 30
0.0
  9
$EXTMIN
 10
0.0
 20
0.0
 30
0.0
  9
$LIMMIN
 10
0.0
 20
0.0
  9
$LIMMAX
 10
420.0
 20
297.0
  9
$VIEWCTR
 10
210.0
 20
148.5
  9
$VIEWSIZE
 40
297.0
  9
$CLAYER
  8
0
  9
$LTSCALE
 40
23.1
  9
$CELTYPE
  6
BYLAYER
  9
$DIMSCALE
 40
1.0
  9
$DIMASZ
 40
3.0
  9
$DIMEXO
 40
1.0
  9
$DIMDLI
 40
15.96
  9
$DIMEXE
 40
1.0
  9
$DIMCEN
 40
3.78
  9
$DIMLFAC
 40
1.0
  9
$DIMBLK
  1
_FILLED
  9
$DIMALT
 70
0
  9
$DIMALTF
 40
0.0393700787
  9
$DIMTXT
 40
3.0
  9
$AUNITS
 70
0
  9
$PDMODE
 70
3
  9
$PDSIZE
 40
5.0
  9
$TILEMODE
 70
1
  0
ENDSEC
  0
SECTION
  2
TABLES
  0
TABLE
  2
LTYPE
 70
6
  0
LTYPE
  2
BYBLOCK
 70
0
  3

 72
65
 73
0
 40
0.0
  0
LTYPE
  2
BYLAYER
 70
0
  3

 72
65
 73
0
 40
0.0
  0
LTYPE
  2
CONTINUOUS
 70
64
  3
Solid line
 72
65
 73
0
 40
0.0
  0
LTYPE
  2
CENTER
 70
64
  3
____ _ ____ _ ____ _ ____ _ ____ _ ____ _ ____
 72
65
 73
4
 40
0.6
 49
0.375
 49
-0.075
 49
0.075
 49
-0.075
  0
LTYPE
  2
HIDDEN
 70
64
  3
- - - - - - - - - - - - - - - - - - - -
 72
65
 73
2
 40
0.2
 49
0.1
 49
-0.1
  0
LTYPE
  2
PHANTOM
 70
64
  3
_____ _ _ _____ _ _ _____ _ _ _____
 72
65
 73
6
 40
0.8
 49
0.45
 49
-0.05
 49
0.1
 49
-0.05
 49
0.1
 49
-0.05
  0
LTYPE
  2
DOT
 70
64
  3
. . . . . . . . . . . . . . . . . . . .
 72
65
 73
2
 40
0.2
 49
0.1
 49
-0.1
  0
LTYPE
  2
DASHED
 70
64
  3
- - - - - - - - - - - - - - - - - - - -
 72
65
 73
2
 40
0.2
 49
0.1
 49
-0.1
  0
ENDTAB
  0
TABLE
  2
LAYER
 70
36
  0
LAYER
  2
0
 70
0
 62
7
  6
CONTINUOUS
  0
LAYER
  2
DEFAULT_1
 70
0
 62
7
  6
CENTER
  0
LAYER
  2
DEFAULT_2
 70
0
 62
8
  6
HIDDEN
  0
LAYER
  2
DEFAULT_3
 70
0
 62
7
  6
PHANTOM
  0
LAYER
  2
0000_BOM
 70
0
 62
7
  6
CONTINUOUS
  0
LAYER
  2
0000_REV_TABLE
 70
0
 62
7
  6
CONTINUOUS
  0
LAYER
  2
0000_STEVENS_NOTE
 70
0
 62
7
  6
CONTINUOUS
  0
LAYER
  2
01_DATUM_PLANES
 70
0
 62
7
  6
CONTINUOUS
  0
LAYER
  2
01_DEF_PLANES
 70
0
 62
7
  6
CONTINUOUS
  0
LAYER
  2
02_DATUM_COS
 70
0
 62
7
  6
CONTINUOUS
  0
LAYER
  2
90_IMP_FEAT
 70
0
 62
7
  6
CONTINUOUS
  0
LAYER
  2
95_STL
 70
0
 62
7
  6
CONTINUOUS
  0
LAYER
  2
99_SOLID
 70
0
 62
7
  6
CONTINUOUS
  0
LAYER
  2
CAD-MASTER_ZINC-PL
 70
0
 62
7
  6
CONTINUOUS
  0
LAYER
  2
CURVE
 70
0
 62
7
  6
CONTINUOUS
  0
LAYER
  2
SHELL
 70
0
 62
7
  6
CONTINUOUS
  0
LAYER
  2
SKEL
 70
0
 62
7
  6
CONTINUOUS
  0
LAYER
  2
SKETCH
 70
0
 62
7
  6
CONTINUOUS
  0
LAYER
  2
SURFACE
 70
0
 62
7
  6
CONTINUOUS
  0
ENDTAB
  0
TABLE
  2
STYLE
 70
1
  0
STYLE
  2
STANDARD
 70
0
 40
0.0
 41
0.75
 50
0.0
 71
0
 42
0.2
  3
txt
  4

  0
STYLE
  2
TEXTSTYLE_1
 70
0
 40
0.0
 41
0.8
 50
0.0
 71
0
 42
0.2
  3
gdt
  4

  0
ENDTAB
  0
ENDSEC
  0
SECTION
  2
BLOCKS
  0
BLOCK
  8
0
 62
5
  6
CONTINUOUS
  2
PLUMBING_BL1
 70
64
 10
494.3261802735
 20
-246.7158059078
  0
CIRCLE
  8
0
 62
5
  6
CONTINUOUS
 10
494.3261802735
 20
-246.7158059078
 40
12.5
  0
LINE
  8
0
 62
5
  6
CONTINUOUS
 10
506.8261802735
 20
-234.2158059078
 11
481.8261802735
 21
-259.2158059078
  0
LINE
  8
0
 62
5
  6
CONTINUOUS
 10
494.3261802735
 20
-246.7158059078
 11
481.8261802735
 21
-234.2158059078
  0
LINE
  8
0
 62
5
  6
CONTINUOUS
 10
494.3261802735
 20
-246.7158059078
 11
506.8261802735
 21
-259.2158059078
  0
ENDBLK
  8
0
  6
BYBLOCK
 62
0
  0
BLOCK
  8
0
 62
1
  6
CONTINUOUS
  2
PLUMBING_BL0
 70
64
 10
224.3261802735
 20
-69.2103058845
  0
CIRCLE
  8
0
 62
1
  6
CONTINUOUS
 10
224.3261802735
 20
-69.2103058845
 40
12.5
  0
LINE
  8
0
 62
1
  6
CONTINUOUS
 10
236.8261802735
 20
-56.7103058845
 11
211.8261802735
 21
-81.7103058845
  0
LINE
  8
0
 62
1
  6
CONTINUOUS
 10
224.3261802735
 20
-69.2103058845
 11
211.8261802735
 21
-56.7103058845
  0
LINE
  8
0
 62
1
  6
CONTINUOUS
 10
224.3261802735
 20
-69.2103058845
 11
236.8261802735
 21
-81.7103058845
  0
ENDBLK
  8
0
  6
BYBLOCK
 62
0
  0
ENDSEC
  0
SECTION
  2
ENTITIES
  0
INSERT
  8
0
 62
1
  6
CONTINUOUS
  2
PLUMBING_BL0
 10
224.3261802735
 20
-69.2103058845
  0
INSERT
  8
0
 62
5
  6
CONTINUOUS
  2
PLUMBING_BL1
 10
494.3261802735
 20
-246.7158059078
  0
LINE
  8
DEFAULT_2
 62
8
  6
HIDDEN
 10
174.3261802735
 20
-119.2102755633
 11
224.3261802735
 21
-119.2102755633
  0
LINE
  8
DEFAULT_2
 62
8
  6
HIDDEN
 10
174.3261802735
 20
-19.2102755633
 11
224.3261802735
 21
-19.2102755633
  0
LINE
  8
0
 62
7
  6
CONTINUOUS
 10
34.4386889981
 20
133.1392024656
 11
334.3844326491
 21
142.0969161903
  0
LINE
  8
DEFAULT_2
 62
8
  6
HIDDEN
 10
224.3261802735
 20
-19.2102755633
 11
224.3261802735
 21
-119.2102755633
  0
POLYLINE
  8
0
 62
7
  6
CONTINUOUS
 66
1
 70
0
  0
VERTEX
  8
0
 62
7
  6
CONTINUOUS
 10
494.1463845843
 20
502.9372781358
  0
VERTEX
  8
0
 62
7
  6
CONTINUOUS
 10
494.1450811622
 20
502.8496825672
  0
VERTEX
  8
0
 62
7
  6
CONTINUOUS
 10
494.1411295344
 20
502.7611053724
  0
VERTEX
  8
0
 62
7
  6
CONTINUOUS
 10
494.1344705375
 20
502.6716827757
  0
VERTEX
  8
0
 62
7
  6
CONTINUOUS
 10
494.1250450082
 20
502.581551001
  0
VERTEX
  8
0
 62
7
  6
CONTINUOUS
 10
494.112793783
 20
502.4908462726
  0
VERTEX
  8
0
 62
7
  6
CONTINUOUS
 10
494.0976576988
 20
502.3997048146
  0
VERTEX
  8
0
 62
7
  6
CONTINUOUS
 10
494.0795775921
 20
502.3082628509
  0
VERTEX
  8
0
 62
7
  6
CONTINUOUS
 10
494.0584942996
 20
502.2166566058
  0
VERTEX
  8
0
 62
7
  6
CONTINUOUS
 10
494.034348658
 20
502.1250223034
  0
VERTEX
  8
0
 62
7
  6
CONTINUOUS
 10
494.0070815039
 20
502.0334961677
  0
VERTEX
  8
0
 62
7
  6
CONTINUOUS
 10
493.976633674
 20
501.9422144228
  0
VERTEX
  8
0
 62
7
  6
CONTINUOUS
 10
493.942946005
 20
501.8513132929
  0
VERTEX
  8
0
 62
7
  6
CONTINUOUS
 10
493.9089387271
 20
501.7678638625
  0
VERTEX
  8
0
 62
7
  6
CONTINUOUS
 10
493.872168696
 20
501.6849839929
  0
VERTEX
  8
0
 62
7
  6
CONTINUOUS
 10
493.8326841432
 20
501.6028028615
  0
VERTEX
  8
0
 62
7
  6
CONTINUOUS
 10
493.7905332998
 20
501.5214496454
  0
VERTEX
  8
0
 62
7
  6
CONTINUOUS
 10
493.7457643972
 20
501.4410535221
  0
VERTEX
  8
0
 62
7
  6
CONTINUOUS
 10
493.6984256666
 20
501.3617436688
  0
VERTEX
  8
0
 62
7
  6
CONTINUOUS
 10
493.6485653393
 20
501.2836492627
  0
VERTEX
  8
0
 62
7
  6
CONTINUOUS
 10
493.5962316466
 20
501.2068994811
  0
VERTEX
  8
0
 62
7
  6
CONTINUOUS
 10
493.5414728197
 20
501.1316235013
  0
VERTEX
  8
0
 62
7
  6
CONTINUOUS
 10
493.48433709
 20
501.0579505006
  0
VERTEX
  8
0
 62
7
  6
CONTINUOUS
 10
493.4248726886
 20
500.9860096563
  0
VERTEX
  8
0
 62
7
  6
CONTINUOUS
 10
493.3631278469
 20
500.9159301457
  0
VERTEX
  8
0
 62
7
  6
CONTINUOUS
 10
493.2991507962
 20
500.847841146
  0
VERTEX
  8
0
 62
7
  6
CONTINUOUS
 10
493.2330030089
 20
500.7818589832
  0
VERTEX
  8
0
 62
7
  6
CONTINUOUS
 10
493.1647989223
 20
500.7180485787
  0
VERTEX
  8
0
 62
7
  6
CONTINUOUS
 10
493.0946662147
 20
500.6564620024
  0
VERTEX
  8
0
 62
7
  6
CONTINUOUS
 10
493.0227325646
 20
500.5971513242
  0
VERTEX
  8
0
 62
7
  6
CONTINUOUS
 10
492.9491256504
 20
500.5401686142
  0
VERTEX
  8
0
 62
7
  6
CONTINUOUS
 10
492.8739731506
 20
500.4855659423
  0
VERTEX
  8
0
 62
7
  6
CONTINUOUS
 10
492.7974027435
 20
500.4333953786
  0
VERTEX
  8
0
 62
7
  6
CONTINUOUS
 10
492.7195421076
 20
500.3837089931
  0
VERTEX
  8
0
 62
7
  6
CONTINUOUS
 10
492.6405189212
 20
500.3365588556
  0
VERTEX
  8
0
 62
7
  6
CONTINUOUS
 10
492.5604608629
 20
500.2919970363
  0
VERTEX
  8
0
 62
7
  6
CONTINUOUS
 10
492.479495611
 20
500.250075605
  0
VERTEX
  8
0
 62
7
  6
CONTINUOUS
 10
492.397750844
 20
500.2108466319
  0
VERTEX
  8
0
 62
7
  6
CONTINUOUS
 10
492.3153542402
 20
500.1743621868
  0
VERTEX
  8
0
 62
7
  6
CONTINUOUS
 10
492.2254996902
 20
500.1379746751
  0
VERTEX
  8
0
 62
7
  6
CONTINUOUS
 10
492.1351679141
 20
500.1048142145
  0
VERTEX
  8
0
 62
7
  6
CONTINUOUS
 10
492.0444968436
 20
500.0748257375
  0
VERTEX
  8
0
 62
7
  6
CONTINUOUS
 10
491.9536244105
 20
500.0479541768
  0
VERTEX
  8
0
 62
7
  6
CONTINUOUS
 10
491.8626885466
 20
500.0241444648
  0
VERTEX
  8
0
 62
7
  6
CONTINUOUS
 10
491.7718271838
 20
500.0033415341
  0
VERTEX
  8
0
 62
7
  6
CONTINUOUS
 10
491.6811782539
 20
499.9854903172
  0
VERTEX
  8
0
 62
7
  6
CONTINUOUS
 10
491.5908796886
 20
499.9705357468
  0
VERTEX
  8
0
 62
7
  6
CONTINUOUS
 10
491.5010694199
 20
499.9584227552
  0
VERTEX
  8
0
 62
7
  6
CONTINUOUS
 10
491.4118853795
 20
499.9490962751
  0
VERTEX
  8
0
 62
7
  6
CONTINUOUS
 10
491.3234654992
 20
499.9425012391
  0
VERTEX
  8
0
 62
7
  6
CONTINUOUS
 10
491.2359477108
 20
499.9385825796
  0
SEQEND
  0
POLYLINE
  8
0
 62
7
  6
CONTINUOUS
 66
1
 70
0
  0
VERTEX
  8
0
 62
7
  6
CONTINUOUS
 10
489.2615922579
 20
-246.6721939853
  0
VERTEX
  8
0
 62
7
  6
CONTINUOUS
 10
489.9100074758
 20
-246.6267312918
  0
VERTEX
  8
0
 62
7
  6
CONTINUOUS
 10
491.4847445523
 20
-246.138448438
  0
VERTEX
  8
0
 62
7
  6
CONTINUOUS
 10
492.8114719468
 20
-245.1682438029
  0
VERTEX
  8
0
 62
7
  6
CONTINUOUS
 10
493.751871194
 20
-243.8203711416
  0
VERTEX
  8
0
 62
7
  6
CONTINUOUS
 10
494.2050331858
 20
-242.235240747
  0
VERTEX
  8
0
 62
7
  6
CONTINUOUS
 10
494.2368294446
 20
-241.6722552041
  0
SEQEND
  0
LINE
  8
0
 62
7
  6
CONTINUOUS
 10
489.2615941387
 20
-246.6721939806
 11
-23.2165261726
 21
-249.2103063165
  0
POLYLINE
  8
0
 62
7
  6
CONTINUOUS
 66
1
 70
0
  0
VERTEX
  8
0
 62
7
  6
CONTINUOUS
 10
-135.4751758536
 20
136.9082000949
  0
VERTEX
  8
0
 62
7
  6
CONTINUOUS
 10
-135.4124174154
 20
135.9057670435
  0
VERTEX
  8
0
 62
7
  6
CONTINUOUS
 10
-134.8122514059
 20
134.2235872583
  0
VERTEX
  8
0
 62
7
  6
CONTINUOUS
 10
-133.6579628014
 20
132.8586868607
  0
VERTEX
  8
0
 62
7
  6
CONTINUOUS
 10
-132.0973249544
 20
131.987032268
  0
VERTEX
  8
0
 62
7
  6
CONTINUOUS
 10
-130.3295433754
 20
131.7200507955
  0
SEQEND
  0
LINE
  8
0
 62
7
  6
CONTINUOUS
 10
-134.5169393862
 20
161.8565171196
 11
-135.48276425
 21
136.9078541275
  0
POLYLINE
  8
0
 62
7
  6
CONTINUOUS
 66
1
 70
0
  0
VERTEX
  8
0
 62
7
  6
CONTINUOUS
 10
406.8308088513
 20
552.0066990603
  0
VERTEX
  8
0
 62
7
  6
CONTINUOUS
 10
408.7291413686
 20
552.5728641794
  0
VERTEX
  8
0
 62
7
  6
CONTINUOUS
 10
410.4677100182
 20
553.0042722052
  0
VERTEX
  8
0
 62
7
  6
CONTINUOUS
 10
412.0416159232
 20
553.3242303619
  0
SEQEND
  0
POLYLINE
  8
0
 62
7
  6
CONTINUOUS
 66
1
 70
0
  0
VERTEX
  8
0
 62
7
  6
CONTINUOUS
 10
-137.7829753836
 20
119.5466236218
  0
VERTEX
  8
0
 62
7
  6
CONTINUOUS
 10
-133.0492704677
 20
80.8888702714
  0
VERTEX
  8
0
 62
7
  6
CONTINUOUS
 10
-125.0474881896
 20
50.3100358669
  0
VERTEX
  8
0
 62
7
  6
CONTINUOUS
 10
-113.3244110613
 20
22.5768949018
  0
VERTEX
  8
0
 62
7
  6
CONTINUOUS
 10
-100.3610835777
 20
1.450181871
  0
VERTEX
  8
0
 62
7
  6
CONTINUOUS
 10
-86.7108497878
 20
-14.374539121
  0
VERTEX
  8
0
 62
7
  6
CONTINUOUS
 10
-72.1951229204
 20
-26.2972396367
  0
VERTEX
  8
0
 62
7
  6
CONTINUOUS
 10
-55.820486492
 20
-35.4888379727
  0
VERTEX
  8
0
 62
7
  6
CONTINUOUS
 10
-35.4916722869
 20
-42.7049798821
  0
VERTEX
  8
0
 62
7
  6
CONTINUOUS
 10
-22.8833300241
 20
-45.7169497586
  0
SEQEND
  0
LINE
  8
0
 62
7
  6
CONTINUOUS
 10
404.9138737341
 20
548.4222204807
 11
404.6690975838
 21
548.3328256427
  0
POLYLINE
  8
0
 62
7
  6
CONTINUOUS
 66
1
 70
0
  0
VERTEX
  8
0
 62
7
  6
CONTINUOUS
 10
-22.8761566336
 20
-45.7184956063
  0
VERTEX
  8
0
 62
7
  6
CONTINUOUS
 10
-22.4875572573
 20
-45.8114853412
  0
VERTEX
  8
0
 62
7
  6
CONTINUOUS
 10
-21.8928390101
 20
-45.9946539429
  0
VERTEX
  8
0
 62
7
  6
CONTINUOUS
 10
-21.2742416726
 20
-46.2412400385
  0
VERTEX
  8
0
 62
7
  6
CONTINUOUS
 10
-20.6687189245
 20
-46.5437166363
  0
VERTEX
  8
0
 62
7
  6
CONTINUOUS
 10
-20.0803350806
 20
-46.9034103892
  0
VERTEX
  8
0
 62
7
  6
CONTINUOUS
 10
-19.513930332
 20
-47.321467231
  0
VERTEX
  8
0
 62
7
  6
CONTINUOUS
 10
-18.976001126
 20
-47.7978277839
  0
VERTEX
  8
0
 62
7
  6
CONTINUOUS
 10
-18.4732775236
 20
-48.3318187192
  0
VERTEX
  8
0
 62
7
  6
CONTINUOUS
 10
-18.0127943402
 20
-48.9219811001
  0
VERTEX
  8
0
 62
7
  6
CONTINUOUS
 10
-17.6022747139
 20
-49.5651612326
  0
VERTEX
  8
0
 62
7
  6
CONTINUOUS
 10
-17.2486582276
 20
-50.2583497372
  0
VERTEX
  8
0
 62
7
  6
CONTINUOUS
 10
-16.9588782674
 20
-50.9980152751
  0
VERTEX
  8
0
 62
7
  6
CONTINUOUS
 10
-16.7400739102
 20
-51.7795597042
  0
VERTEX
  8
0
 62
7
  6
CONTINUOUS
 10
-16.5994443511
 20
-52.597027937
  0
VERTEX
  8
0
 62
7
  6
CONTINUOUS
 10
-16.5439683559
 20
-53.442813292
  0
VERTEX
  8
0
 62
7
  6
CONTINUOUS
 10
-16.5649772078
 20
-54.1307233019
  0
SEQEND
  0
LINE
  8
0
 62
7
  6
CONTINUOUS
 10
-22.883085975
 20
-45.7170211561
 11
-22.8833300241
 21
-45.7169497586
  0
POLYLINE
  8
0
 62
7
  6
CONTINUOUS
 66
1
 70
0
  0
VERTEX
  8
0
 62
7
  6
CONTINUOUS
 10
-16.564950437
 20
-54.1302734835
  0
VERTEX
  8
0
 62
7
  6
CONTINUOUS
 10
-20.8465997526
 20
-122.6967003537
  0
VERTEX
  8
0
 62
7
  6
CONTINUOUS
 10
-24.0067780314
 20
-186.894574831
  0
VERTEX
  8
0
 62
7
  6
CONTINUOUS
 10
-28.2105253026
 20
-243.6579759437
  0
SEQEND
  0
POLYLINE
  8
0
 62
7
  6
CONTINUOUS
 66
1
 70
0
  0
VERTEX
  8
0
 62
7
  6
CONTINUOUS
 10
-28.2105030884
 20
-243.6579752223
  0
VERTEX
  8
0
 62
7
  6
CONTINUOUS
 10
-28.2173969323
 20
-243.7239798342
  0
VERTEX
  8
0
 62
7
  6
CONTINUOUS
 10
-28.2366377925
 20
-243.9989307733
  0
VERTEX
  8
0
 62
7
  6
CONTINUOUS
 10
-28.2407395222
 20
-244.2712528238
  0
VERTEX
  8
0
 62
7
  6
CONTINUOUS
 10
-28.2302204596
 20
-244.5401830864
  0
VERTEX
  8
0
 62
7
  6
CONTINUOUS
 10
-28.2056184985
 20
-244.8050574487
  0
VERTEX
  8
0
 62
7
  6
CONTINUOUS
 10
-28.1674766393
 20
-245.0653013678
  0
VERTEX
  8
0
 62
7
  6
CONTINUOUS
 10
-28.1163315396
 20
-245.3204191578
  0
VERTEX
  8
0
 62
7
  6
CONTINUOUS
 10
-28.0527068212
 20
-245.5699760725
  0
VERTEX
  8
0
 62
7
  6
CONTINUOUS
 10
-27.9771853738
 20
-245.8133613612
  0
VERTEX
  8
0
 62
7
  6
CONTINUOUS
 10
-27.8903897544
 20
-246.0499862034
  0
VERTEX
  8
0
 62
7
  6
CONTINUOUS
 10
-27.7929383588
 20
-246.2793909046
  0
VERTEX
  8
0
 62
7
  6
CONTINUOUS
 10
-27.6854539941
 20
-246.5011764967
  0
VERTEX
  8
0
 62
7
  6
CONTINUOUS
 10
-27.568558926
 20
-246.7150002889
  0
VERTEX
  8
0
 62
7
  6
CONTINUOUS
 10
-27.4428709326
 20
-246.9205713594
  0
VERTEX
  8
0
 62
7
  6
CONTINUOUS
 10
-27.3090002572
 20
-247.1176461376
  0
VERTEX
  8
0
 62
7
  6
CONTINUOUS
 10
-27.1675473425
 20
-247.3060241952
  0
VERTEX
  8
0
 62
7
  6
CONTINUOUS
 10
-27.0191012227
 20
-247.4855443309
  0
VERTEX
  8
0
 62
7
  6
CONTINUOUS
 10
-26.8642384517
 20
-247.6560810037
  0
VERTEX
  8
0
 62
7
  6
CONTINUOUS
 10
-26.7035224518
 20
-247.8175411444
  0
VERTEX
  8
0
 62
7
  6
CONTINUOUS
 10
-26.5375031768
 20
-247.9698613546
  0
VERTEX
  8
0
 62
7
  6
CONTINUOUS
 10
-26.3667169933
 20
-248.1130054838
  0
VERTEX
  8
0
 62
7
  6
CONTINUOUS
 10
-26.1916866988
 20
-248.2469625615
  0
VERTEX
  8
0
 62
7
  6
CONTINUOUS
 10
-26.0129620648
 20
-248.3717181037
  0
VERTEX
  8
0
 62
7
  6
CONTINUOUS
 10
-25.8312415054
 20
-248.4871912741
  0
VERTEX
  8
0
 62
7
  6
CONTINUOUS
 10
-25.6472570327
 20
-248.5933412936
  0
VERTEX
  8
0
 62
7
  6
CONTINUOUS
 10
-25.4617463779
 20
-248.6901863368
  0
VERTEX
  8
0
 62
7
  6
CONTINUOUS
 10
-25.2754487016
 20
-248.7778031696
  0
VERTEX
  8
0
 62
7
  6
CONTINUOUS
 10
-25.0890997815
 20
-248.8563266076
  0
VERTEX
  8
0
 62
7
  6
CONTINUOUS
 10
-24.9034270791
 20
-248.925948461
  0
VERTEX
  8
0
 62
7
  6
CONTINUOUS
 10
-24.719144773
 20
-248.9869158966
  0
VERTEX
  8
0
 62
7
  6
CONTINUOUS
 10
-24.5369681851
 20
-249.0395239835
  0
VERTEX
  8
0
 62
7
  6
CONTINUOUS
 10
-24.3577677541
 20
-249.0840802062
  0
VERTEX
  8
0
 62
7
  6
CONTINUOUS
 10
-24.1824893321
 20
-249.1209483467
  0
VERTEX
  8
0
 62
7
  6
CONTINUOUS
 10
-24.0120601072
 20
-249.1505734033
  0
VERTEX
  8
0
 62
7
  6
CONTINUOUS
 10
-23.8473940919
 20
-249.1734730908
  0
VERTEX
  8
0
 62
7
  6
CONTINUOUS
 10
-23.6897830756
 20
-249.1901957097
  0
VERTEX
  8
0
 62
7
  6
CONTINUOUS
 10
-23.5409595508
 20
-249.201367978
  0
VERTEX
  8
0
 62
7
  6
CONTINUOUS
 10
-23.403440393
 20
-249.2077311429
  0
VERTEX
  8
0
 62
7
  6
CONTINUOUS
 10
-23.2821706355
 20
-249.2101982634
  0
VERTEX
  8
0
 62
7
  6
CONTINUOUS
 10
-23.2163500808
 20
-249.2103055129
  0
SEQEND
  0
LINE
  8
0
 62
7
  6
CONTINUOUS
 10
494.1514320628
 20
534.1404771243
 11
494.1513648321
 21
534.1404261858
  0
LINE
  8
0
 62
7
  6
CONTINUOUS
 10
494.1513648324
 20
534.1404261864
 11
494.1514320628
 21
534.140477131
  0
LINE
  8
0
 62
40
  6
CONTINUOUS
 10
485.8486631824
 20
-245.3613779102
 11
485.6930809699
 21
-245.218855089
  0
LINE
  8
0
 62
40
  6
CONTINUOUS
 10
485.693111114
 20
-245.2188781131
 11
485.5436806144
 21
-245.0699179761
  0
LINE
  8
0
 62
7
  6
CONTINUOUS
 10
405.6660763758
 20
552.0009113066
 11
402.8454978779
 21
548.3243347564
  0
POLYLINE
  8
0
 62
7
  6
CONTINUOUS
 66
1
 70
0
  0
VERTEX
  8
0
 62
7
  6
CONTINUOUS
 10
296.9263288999
 20
144.4798110923
  0
VERTEX
  8
0
 62
7
  6
CONTINUOUS
 10
298.6228899888
 20
144.8307607541
  0
VERTEX
  8
0
 62
7
  6
CONTINUOUS
 10
300.0975890039
 20
145.7393803293
  0
VERTEX
  8
0
 62
7
  6
CONTINUOUS
 10
301.1738285409
 20
147.096719185
  0
VERTEX
  8
0
 62
7
  6
CONTINUOUS
 10
301.7221504937
 20
148.7385495959
  0
VERTEX
  8
0
 62
7
  6
CONTINUOUS
 10
301.7747199308
 20
149.6308309072
  0
SEQEND
  0
POLYLINE
  8
0
 62
7
  6
CONTINUOUS
 66
1
 70
0
  0
VERTEX
  8
0
 62
7
  6
CONTINUOUS
 10
490.35623448
 20
155.2587174463
  0
VERTEX
  8
0
 62
7
  6
CONTINUOUS
 10
491.696493854
 20
155.5327730544
  0
VERTEX
  8
0
 62
7
  6
CONTINUOUS
 10
492.8658579687
 20
156.2422687916
  0
VERTEX
  8
0
 62
7
  6
CONTINUOUS
 10
493.7278534023
 20
157.304307119
  0
VERTEX
  8
0
 62
7
  6
CONTINUOUS
 10
494.1814602554
 20
158.5936915683
  0
VERTEX
  8
0
 62
7
  6
CONTINUOUS
 10
494.236829945
 20
159.2569348684
  0
SEQEND
  0
POLYLINE
  8
0
 62
7
  6
CONTINUOUS
 66
1
 70
0
  0
VERTEX
  8
0
 62
7
  6
CONTINUOUS
 10
344.285274899
 20
150.8963890349
  0
VERTEX
  8
0
 62
7
  6
CONTINUOUS
 10
343.3938742948
 20
150.7397362292
  0
VERTEX
  8
0
 62
7
  6
CONTINUOUS
 10
341.3391808352
 20
149.7165593319
  0
VERTEX
  8
0
 62
7
  6
CONTINUOUS
 10
339.6603055993
 20
148.1529552343
  0
VERTEX
  8
0
 62
7
  6
CONTINUOUS
 10
338.4938440484
 20
146.1761911457
  0
VERTEX
  8
0
 62
7
  6
CONTINUOUS
 10
338.1419129627
 20
145.110428789
  0
SEQEND
  0
POLYLINE
  8
0
 62
40
  6
CONTINUOUS
 66
1
 70
0
  0
VERTEX
  8
0
 62
40
  6
CONTINUOUS
 10
485.5436504708
 20
-245.0698949523
  0
VERTEX
  8
0
 62
40
  6
CONTINUOUS
 10
485.4006377934
 20
-244.9147627707
  0
VERTEX
  8
0
 62
40
  6
CONTINUOUS
 10
485.264297617
 20
-244.753734806
  0
VERTEX
  8
0
 62
40
  6
CONTINUOUS
 10
485.1348727382
 20
-244.5870978195
  0
VERTEX
  8
0
 62
40
  6
CONTINUOUS
 10
485.0125936392
 20
-244.4151485609
  0
VERTEX
  8
0
 62
40
  6
CONTINUOUS
 10
484.8976780763
 20
-244.2381932403
  0
VERTEX
  8
0
 62
40
  6
CONTINUOUS
 10
484.7903306932
 20
-244.0565469825
  0
VERTEX
  8
0
 62
40
  6
CONTINUOUS
 10
484.6907426557
 20
-243.8705332662
  0
VERTEX
  8
0
 62
40
  6
CONTINUOUS
 10
484.5990913119
 20
-243.6804833476
  0
VERTEX
  8
0
 62
40
  6
CONTINUOUS
 10
484.5155398759
 20
-243.4867356705
  0
VERTEX
  8
0
 62
40
  6
CONTINUOUS
 10
484.4402371374
 20
-243.2896352641
  0
VERTEX
  8
0
 62
40
  6
CONTINUOUS
 10
484.3733171969
 20
-243.0895331278
  0
VERTEX
  8
0
 62
40
  6
CONTINUOUS
 10
484.3148992264
 20
-242.8867856068
  0
VERTEX
  8
0
 62
40
  6
CONTINUOUS
 10
484.2650872576
 20
-242.6817537572
  0
VERTEX
  8
0
 62
40
  6
CONTINUOUS
 10
484.2239699964
 20
-242.4748027029
  0
VERTEX
  8
0
 62
40
  6
CONTINUOUS
 10
484.1916206651
 20
-242.2663009857
  0
VERTEX
  8
0
 62
40
  6
CONTINUOUS
 10
484.1680968719
 20
-242.0566199088
  0
VERTEX
  8
0
 62
40
  6
CONTINUOUS
 10
484.1534405084
 20
-241.8461328757
  0
VERTEX
  8
0
 62
40
  6
CONTINUOUS
 10
484.1476776748
 20
-241.6352147251
  0
SEQEND
  0
POLYLINE
  8
0
 62
7
  6
CONTINUOUS
 66
1
 70
0
  0
VERTEX
  8
0
 62
7
  6
CONTINUOUS
 10
404.6690975838
 20
548.3328256427
  0
VERTEX
  8
0
 62
7
  6
CONTINUOUS
 10
405.7996760349
 20
550.2649920471
  0
VERTEX
  8
0
 62
7
  6
CONTINUOUS
 10
406.8308088513
 20
552.0066990603
  0
SEQEND
  0
POLYLINE
  8
0
 62
7
  6
CONTINUOUS
 66
1
 70
0
  0
VERTEX
  8
0
 62
7
  6
CONTINUOUS
 10
407.11807919
 20
551.8306867694
  0
VERTEX
  8
0
 62
7
  6
CONTINUOUS
 10
406.4951918673
 20
550.7693217212
  0
VERTEX
  8
0
 62
7
  6
CONTINUOUS
 10
405.8333882101
 20
549.6334360736
  0
VERTEX
  8
0
 62
7
  6
CONTINUOUS
 10
405.1330260494
 20
548.4233052391
  0
SEQEND
  0
LINE
  8
0
 62
7
  6
CONTINUOUS
 10
494.1530960746
 20
150.4207792004
 11
494.1449561401
 21
150.4202361751
  0
LINE
  8
0
 62
7
  6
CONTINUOUS
 10
494.1468934985
 20
150.4204434517
 11
494.1539380951
 21
150.4208661399
  0
LINE
  8
0
 62
7
  6
CONTINUOUS
 10
494.1468993009
 20
150.420371317
 11
494.1447949739
 21
150.4203061579
  0
LINE
  8
0
 62
7
  6
CONTINUOUS
 10
-130.0490448575
 20
128.2268672774
 11
34.4386889981
 21
133.1392024656
  0
LINE
  8
0
 62
7
  6
CONTINUOUS
 10
494.1462145231
 20
146.8681134367
 11
494.2369881456
 21
146.8708243408
  0
LINE
  8
0
 62
7
  6
CONTINUOUS
 10
296.9257752615
 20
144.4797945582
 11
-130.3384320866
 21
131.7197853391
  0
LINE
  8
0
 62
7
  6
CONTINUOUS
 10
490.3562344703
 20
155.2587174461
 11
490.2669376078
 21
155.2560506446
  0
LINE
  8
0
 62
7
  6
CONTINUOUS
 10
489.591951556
 20
155.2358925596
 11
339.3495419222
 21
150.7489860997
  0
LINE
  8
0
 62
7
  6
CONTINUOUS
 10
301.6982073152
 20
152.1256644258
 11
303.1834227286
 21
152.1700195626
  0
LINE
  8
0
 62
7
  6
CONTINUOUS
 10
494.1539380951
 20
150.4208661399
 11
494.1468734041
 21
150.4206932613
  0
LINE
  8
0
 62
7
  6
CONTINUOUS
 10
494.1438202434
 20
150.4205712829
 11
494.1530960746
 21
150.4207792004
  0
LINE
  8
0
 62
7
  6
CONTINUOUS
 10
494.1447949739
 20
150.4203061579
 11
494.144525964
 21
150.4203013954
  0
POLYLINE
  8
0
 62
7
  6
CONTINUOUS
 66
1
 70
0
  0
VERTEX
  8
0
 62
7
  6
CONTINUOUS
 10
-130.0510573755
 20
128.2268071746
  0
VERTEX
  8
0
 62
7
  6
CONTINUOUS
 10
-132.3458230593
 20
127.8185867567
  0
VERTEX
  8
0
 62
7
  6
CONTINUOUS
 10
-134.4246044952
 20
126.7668980339
  0
VERTEX
  8
0
 62
7
  6
CONTINUOUS
 10
-136.1125078904
 20
125.1605575414
  0
VERTEX
  8
0
 62
7
  6
CONTINUOUS
 10
-137.2659672311
 20
123.1358966597
  0
VERTEX
  8
0
 62
7
  6
CONTINUOUS
 10
-137.786883599
 20
120.8669187122
  0
VERTEX
  8
0
 62
7
  6
CONTINUOUS
 10
-137.7828438258
 20
119.5450927809
  0
SEQEND
  0
POLYLINE
  8
0
 62
7
  6
CONTINUOUS
 66
1
 70
0
  0
VERTEX
  8
0
 62
7
  6
CONTINUOUS
 10
292.0950350774
 20
192.6886946935
  0
VERTEX
  8
0
 62
7
  6
CONTINUOUS
 10
165.321287263
 20
188.1272869361
  0
VERTEX
  8
0
 62
7
  6
CONTINUOUS
 10
24.5465583125
 20
179.8407867942
  0
VERTEX
  8
0
 62
7
  6
CONTINUOUS
 10
-128.0738589429
 20
168.5706051064
  0
SEQEND
  0
LINE
  8
0
 62
7
  6
CONTINUOUS
 10
493.3202355107
 20
500.8679143475
 11
493.7871853879
 21
501.5443014142
  0
LINE
  8
0
 62
7
  6
CONTINUOUS
 10
493.3233557635
 20
500.868012711
 11
493.8562742463
 21
501.6399570409
  0
LINE
  8
0
 62
7
  6
CONTINUOUS
 10
258.580936175
 20
143.3346471487
 11
258.6854151578
 21
139.8362069045
  0
LINE
  8
0
 62
7
  6
CONTINUOUS
 10
396.5649605957
 20
546.1373557861
 11
395.7616429183
 21
543.8957784211
  0
POLYLINE
  8
0
 62
7
  6
CONTINUOUS
 66
1
 70
0
  0
VERTEX
  8
0
 62
7
  6
CONTINUOUS
 10
-128.0630601472
 20
168.5714303194
  0
VERTEX
  8
0
 62
7
  6
CONTINUOUS
 10
-130.0285538854
 20
168.1304777218
  0
VERTEX
  8
0
 62
7
  6
CONTINUOUS
 10
-131.9672063472
 20
167.0053009612
  0
VERTEX
  8
0
 62
7
  6
CONTINUOUS
 10
-133.4511801121
 20
165.324448845
  0
VERTEX
  8
0
 62
7
  6
CONTINUOUS
 10
-134.327418961
 20
163.2612608332
  0
VERTEX
  8
0
 62
7
  6
CONTINUOUS
 10
-134.5243326617
 20
161.8584060434
  0
SEQEND
  0
LINE
  8
0
 62
7
  6
CONTINUOUS
 10
300.7708836834
 20
182.358552225
 11
300.7178808427
 21
183.022739644
  0
LINE
  8
0
 62
7
  6
CONTINUOUS
 10
300.7708694888
 20
182.3579411427
 11
300.7205038623
 21
183.0091243154
  0
LINE
  8
0
 62
7
  6
CONTINUOUS
 10
301.7747297174
 20
149.6309257328
 11
300.7708769076
 21
182.3579491051
  0
LINE
  8
0
 62
7
  6
CONTINUOUS
 10
303.1834227286
 20
152.1700195626
 11
303.511785246
 21
141.1749216523
  0
LINE
  8
0
 62
7
  6
CONTINUOUS
 10
301.774736257
 20
149.6307125325
 11
301.774737498
 21
149.6306673604
  0
LINE
  8
0
 62
7
  6
CONTINUOUS
 10
332.1921467084
 20
498.3941640721
 11
333.5796595234
 21
534.6782307991
  0
LINE
  8
0
 62
7
  6
CONTINUOUS
 10
298.5664965887
 20
188.8901800089
 11
296.2169996814
 21
191.3341622511
  0
LINE
  8
0
 62
7
  6
CONTINUOUS
 10
298.568019568
 20
188.8870995575
 11
298.3006850853
 21
189.1653529815
  0
LINE
  8
0
 62
7
  6
CONTINUOUS
 10
299.7155452868
 20
186.5660587888
 11
298.5664965887
 21
188.8901800089
  0
LINE
  8
0
 62
7
  6
CONTINUOUS
 10
299.7171599892
 20
186.5609113695
 11
299.0521603249
 21
187.9078531528
  0
POLYLINE
  8
0
 62
7
  6
CONTINUOUS
 66
1
 70
0
  0
VERTEX
  8
0
 62
7
  6
CONTINUOUS
 10
298.2993832439
 20
189.1680353528
  0
VERTEX
  8
0
 62
7
  6
CONTINUOUS
 10
298.0877446436
 20
189.604104855
  0
VERTEX
  8
0
 62
7
  6
CONTINUOUS
 10
296.7659463486
 20
191.0678064229
  0
VERTEX
  8
0
 62
7
  6
CONTINUOUS
 10
295.088229084
 20
192.1047669218
  0
VERTEX
  8
0
 62
7
  6
CONTINUOUS
 10
293.1894429048
 20
192.6323605532
  0
VERTEX
  8
0
 62
7
  6
CONTINUOUS
 10
292.0973148615
 20
192.6887578726
  0
SEQEND
  0
LINE
  8
0
 62
7
  6
CONTINUOUS
 10
300.5450546343
 20
183.9217034464
 11
299.7155452868
 21
186.5660587888
  0
LINE
  8
0
 62
7
  6
CONTINUOUS
 10
300.5450035898
 20
183.9218983304
 11
300.5436580191
 21
183.9270273728
  0
LINE
  8
0
 62
7
  6
CONTINUOUS
 10
300.7205038623
 20
183.0091243154
 11
300.5436956057
 21
183.9268843156
  0
POLYLINE
  8
0
 62
7
  6
CONTINUOUS
 66
1
 70
0
  0
VERTEX
  8
0
 62
7
  6
CONTINUOUS
 10
335.2301867567
 20
154.7676747082
  0
VERTEX
  8
0
 62
7
  6
CONTINUOUS
 10
335.2922939773
 20
154.0447684003
  0
VERTEX
  8
0
 62
7
  6
CONTINUOUS
 10
335.7836266659
 20
152.7170340554
  0
VERTEX
  8
0
 62
7
  6
CONTINUOUS
 10
336.7075973317
 20
151.642882561
  0
VERTEX
  8
0
 62
7
  6
CONTINUOUS
 10
337.9479947313
 20
150.9582567517
  0
VERTEX
  8
0
 62
7
  6
CONTINUOUS
 10
339.3495401664
 20
150.7489860472
  0
SEQEND
  0
POLYLINE
  8
0
 62
7
  6
CONTINUOUS
 66
1
 70
0
  0
VERTEX
  8
0
 62
7
  6
CONTINUOUS
 10
332.1925046025
 20
498.3942814015
  0
VERTEX
  8
0
 62
7
  6
CONTINUOUS
 10
332.2233355958
 20
497.8358278392
  0
VERTEX
  8
0
 62
7
  6
CONTINUOUS
 10
332.5739785444
 20
496.8117889129
  0
VERTEX
  8
0
 62
7
  6
CONTINUOUS
 10
333.2659451734
 20
495.9782274298
  0
VERTEX
  8
0
 62
7
  6
CONTINUOUS
 10
334.2087952548
 20
495.4448111464
  0
VERTEX
  8
0
 62
7
  6
CONTINUOUS
 10
335.2798694462
 20
495.2810405665
  0
SEQEND
  0
LINE
  8
0
 62
7
  6
CONTINUOUS
 10
336.9584359309
 20
492.4366734113
 11
335.2303053573
 21
154.7702049225
  0
POLYLINE
  8
0
 62
7
  6
CONTINUOUS
 66
1
 70
0
  0
VERTEX
  8
0
 62
7
  6
CONTINUOUS
 10
338.1419374091
 20
145.1104253183
  0
VERTEX
  8
0
 62
7
  6
CONTINUOUS
 10
338.0298197779
 20
144.7436851181
  0
VERTEX
  8
0
 62
7
  6
CONTINUOUS
 10
337.210605626
 20
143.3889179985
  0
VERTEX
  8
0
 62
7
  6
CONTINUOUS
 10
335.9292073717
 20
142.457757612
  0
VERTEX
  8
0
 62
7
  6
CONTINUOUS
 10
334.3844326491
 20
142.0969161903
  0
SEQEND
  0
POLYLINE
  8
0
 62
7
  6
CONTINUOUS
 66
1
 70
0
  0
VERTEX
  8
0
 62
7
  6
CONTINUOUS
 10
493.9999921601
 20
502.1314217395
  0
VERTEX
  8
0
 62
7
  6
CONTINUOUS
 10
494.1216022987
 20
502.5385253872
  0
VERTEX
  8
0
 62
7
  6
CONTINUOUS
 10
494.1482240717
 20
502.9373071196
  0
SEQEND
  0
POLYLINE
  8
0
 62
7
  6
CONTINUOUS
 66
1
 70
0
  0
VERTEX
  8
0
 62
7
  6
CONTINUOUS
 10
493.8562742463
 20
501.6399570409
  0
VERTEX
  8
0
 62
7
  6
CONTINUOUS
 10
494.1247245872
 20
502.5386328236
  0
VERTEX
  8
0
 62
7
  6
CONTINUOUS
 10
494.1513446834
 20
502.9374905765
  0
SEQEND
  0
LINE
  8
0
 62
7
  6
CONTINUOUS
 10
493.7838115467
 20
501.5349932015
 11
494.1020544019
 21
502.4130049615
  0
LINE
  8
0
 62
7
  6
CONTINUOUS
 10
494.1020544019
 20
502.4130049615
 11
494.1482240717
 21
502.9373068321
  0
POLYLINE
  8
0
 62
7
  6
CONTINUOUS
 66
1
 70
0
  0
VERTEX
  8
0
 62
7
  6
CONTINUOUS
 10
339.8687286621
 20
495.4180843087
  0
VERTEX
  8
0
 62
7
  6
CONTINUOUS
 10
338.8340505743
 20
495.2008063788
  0
VERTEX
  8
0
 62
7
  6
CONTINUOUS
 10
337.94071666
 20
494.6396531415
  0
VERTEX
  8
0
 62
7
  6
CONTINUOUS
 10
337.2977399951
 20
493.8056092707
  0
VERTEX
  8
0
 62
7
  6
CONTINUOUS
 10
336.9823865616
 20
492.798960754
  0
VERTEX
  8
0
 62
7
  6
CONTINUOUS
 10
336.9583204416
 20
492.4347746797
  0
SEQEND
  0
POLYLINE
  8
0
 62
7
  6
CONTINUOUS
 66
1
 70
0
  0
VERTEX
  8
0
 62
7
  6
CONTINUOUS
 10
494.1530960746
 20
150.4207792004
  0
VERTEX
  8
0
 62
7
  6
CONTINUOUS
 10
494.0870199349
 20
151.2308282618
  0
VERTEX
  8
0
 62
7
  6
CONTINUOUS
 10
493.4845606191
 20
152.918326576
  0
VERTEX
  8
0
 62
7
  6
CONTINUOUS
 10
492.333950301
 20
154.278385094
  0
VERTEX
  8
0
 62
7
  6
CONTINUOUS
 10
490.7832643899
 20
155.1474342146
  0
SEQEND
  0
POLYLINE
  8
0
 62
7
  6
CONTINUOUS
 66
1
 70
0
  0
VERTEX
  8
0
 62
7
  6
CONTINUOUS
 10
494.1539380951
 20
150.4208661399
  0
VERTEX
  8
0
 62
7
  6
CONTINUOUS
 10
494.0879852921
 20
151.2301019052
  0
VERTEX
  8
0
 62
7
  6
CONTINUOUS
 10
493.4859946819
 20
152.9173245433
  0
VERTEX
  8
0
 62
7
  6
CONTINUOUS
 10
492.3357385413
 20
154.2776295982
  0
VERTEX
  8
0
 62
7
  6
CONTINUOUS
 10
490.7849311974
 20
155.147175585
  0
VERTEX
  8
0
 62
7
  6
CONTINUOUS
 10
490.7832643899
 20
155.1474342146
  0
SEQEND
  0
POLYLINE
  8
0
 62
7
  6
CONTINUOUS
 66
1
 70
0
  0
VERTEX
  8
0
 62
7
  6
CONTINUOUS
 10
494.2368299441
 20
496.9372713971
  0
VERTEX
  8
0
 62
7
  6
CONTINUOUS
 10
494.2022190398
 20
497.3916583769
  0
VERTEX
  8
0
 62
7
  6
CONTINUOUS
 10
493.8489267048
 20
498.4127206672
  0
VERTEX
  8
0
 62
7
  6
CONTINUOUS
 10
493.1585401604
 20
499.2409705688
  0
VERTEX
  8
0
 62
7
  6
CONTINUOUS
 10
492.2178587816
 20
499.7723344351
  0
VERTEX
  8
0
 62
7
  6
CONTINUOUS
 10
491.1472765275
 20
499.9359344638
  0
SEQEND
  0
LINE
  8
0
 62
7
  6
CONTINUOUS
 10
494.1478357227
 20
534.1448237034
 11
494.1039005473
 21
534.9279326077
  0
LINE
  8
0
 62
7
  6
CONTINUOUS
 10
494.1484108194
 20
534.1429831744
 11
494.107510317
 21
534.8986962165
  0
LINE
  8
0
 62
7
  6
CONTINUOUS
 10
494.1484108194
 20
534.1429839295
 11
494.1074217522
 21
534.8995114693
  0
LINE
  8
0
 62
7
  6
CONTINUOUS
 10
494.1281973267
 20
534.647505495
 11
494.1464655613
 21
534.1419789883
  0
LINE
  8
0
 62
7
  6
CONTINUOUS
 10
494.1514320628
 20
534.1404771243
 11
494.1453419569
 21
534.4326003376
  0
POLYLINE
  8
0
 62
40
  6
CONTINUOUS
 66
1
 70
0
  0
VERTEX
  8
0
 62
40
  6
CONTINUOUS
 10
494.1452255886
 20
-241.4547891732
  0
VERTEX
  8
0
 62
40
  6
CONTINUOUS
 10
494.1470684223
 20
-241.665778068
  0
VERTEX
  8
0
 62
40
  6
CONTINUOUS
 10
494.1400079724
 20
-241.876657024
  0
VERTEX
  8
0
 62
40
  6
CONTINUOUS
 10
494.1240568124
 20
-242.0870505046
  0
VERTEX
  8
0
 62
40
  6
CONTINUOUS
 10
494.0992433483
 20
-242.2965838376
  0
VERTEX
  8
0
 62
40
  6
CONTINUOUS
 10
494.0656117683
 20
-242.5048838828
  0
VERTEX
  8
0
 62
40
  6
CONTINUOUS
 10
494.0232219642
 20
-242.711579696
  0
VERTEX
  8
0
 62
40
  6
CONTINUOUS
 10
493.9721494243
 20
-242.9163031901
  0
VERTEX
  8
0
 62
40
  6
CONTINUOUS
 10
493.9124850995
 20
-243.1186897902
  0
VERTEX
  8
0
 62
40
  6
CONTINUOUS
 10
493.8443352409
 20
-243.3183790828
  0
SEQEND
  0
LINE
  8
0
 62
7
  6
CONTINUOUS
 10
494.1484935779
 20
146.8681814994
 11
494.1484837975
 21
150.4205097505
  0
LINE
  8
0
 62
7
  6
CONTINUOUS
 10
494.1507796093
 20
502.9374502543
 11
494.1508154516
 21
534.1405327531
  0
LINE
  8
0
 62
7
  6
CONTINUOUS
 10
494.2368285992
 20
496.936890369
 11
494.2368285772
 21
159.2564269055
  0
LINE
  8
0
 62
7
  6
CONTINUOUS
 10
494.2368285747
 20
146.8703845195
 11
494.2368286006
 21
-241.672255177
  0
LINE
  8
0
 62
7
  6
CONTINUOUS
 10
402.8454978779
 20
548.3243347564
 11
397.2381531035
 21
546.7633618621
  0
LINE
  8
0
 62
7
  6
CONTINUOUS
 10
494.1513446834
 20
502.9374905765
 11
494.1512913374
 21
502.937488867
  0
LINE
  8
0
 62
7
  6
CONTINUOUS
 10
494.1512913376
 20
502.937488867
 11
494.1513446834
 21
502.9374905744
  0
LINE
  8
0
 62
7
  6
CONTINUOUS
 10
491.2379911616
 20
499.9386436061
 11
335.2797444361
 21
495.2810368331
  0
LINE
  8
0
 62
7
  6
CONTINUOUS
 10
491.2377709105
 20
499.9386370285
 11
491.2375455799
 21
499.9386303029
  0
LINE
  8
0
 62
7
  6
CONTINUOUS
 10
491.2372578876
 20
499.9386217314
 11
491.2377709105
 21
499.9386370285
  0
POLYLINE
  8
0
 62
7
  6
CONTINUOUS
 66
1
 70
0
  0
VERTEX
  8
0
 62
7
  6
CONTINUOUS
 10
494.1453419569
 20
534.4326003376
  0
VERTEX
  8
0
 62
7
  6
CONTINUOUS
 10
494.0690659597
 20
535.2114004081
  0
VERTEX
  8
0
 62
7
  6
CONTINUOUS
 10
493.9123530879
 20
535.9545468666
  0
SEQEND
  0
LINE
  8
0
 62
7
  6
CONTINUOUS
 10
494.1453419569
 20
534.4326003376
 11
494.1171675152
 21
534.7202614743
  0
LINE
  8
0
 62
7
  6
CONTINUOUS
 10
494.1171675152
 20
534.7202614743
 11
494.0690165938
 21
535.2117193123
  0
LINE
  8
0
 62
7
  6
CONTINUOUS
 10
494.1478357227
 20
534.14482333
 11
494.0215604461
 21
535.4684903807
  0
POLYLINE
  8
0
 62
7
  6
CONTINUOUS
 66
1
 70
0
  0
VERTEX
  8
0
 62
7
  6
CONTINUOUS
 10
340.0320857538
 20
541.3893193396
  0
VERTEX
  8
0
 62
7
  6
CONTINUOUS
 10
338.3316141613
 20
541.0413893406
  0
VERTEX
  8
0
 62
7
  6
CONTINUOUS
 10
336.7175944418
 20
540.2521121237
  0
VERTEX
  8
0
 62
7
  6
CONTINUOUS
 10
335.3573527285
 20
539.0776572569
  0
VERTEX
  8
0
 62
7
  6
CONTINUOUS
 10
334.340923355
 20
537.5955225171
  0
VERTEX
  8
0
 62
7
  6
CONTINUOUS
 10
333.7355378819
 20
535.9042911765
  0
VERTEX
  8
0
 62
7
  6
CONTINUOUS
 10
333.5793482438
 20
534.6776834322
  0
SEQEND
  0
POLYLINE
  8
0
 62
7
  6
CONTINUOUS
 66
1
 70
0
  0
VERTEX
  8
0
 62
7
  6
CONTINUOUS
 10
412.3959239
 20
553.1727450303
  0
VERTEX
  8
0
 62
7
  6
CONTINUOUS
 10
410.8142236227
 20
552.850399387
  0
VERTEX
  8
0
 62
7
  6
CONTINUOUS
 10
409.0531916601
 20
552.4116273306
  0
VERTEX
  8
0
 62
7
  6
CONTINUOUS
 10
407.11807919
 20
551.8306867694
  0
SEQEND
  0
POLYLINE
  8
0
 62
7
  6
CONTINUOUS
 66
1
 70
0
  0
VERTEX
  8
0
 62
7
  6
CONTINUOUS
 10
412.0416159998
 20
553.3242148881
  0
VERTEX
  8
0
 62
7
  6
CONTINUOUS
 10
412.3369683106
 20
553.3764696503
  0
VERTEX
  8
0
 62
7
  6
CONTINUOUS
 10
412.660415255
 20
553.4306944065
  0
VERTEX
  8
0
 62
7
  6
CONTINUOUS
 10
413.0078767337
 20
553.4862130841
  0
VERTEX
  8
0
 62
7
  6
CONTINUOUS
 10
413.3746046894
 20
553.5422641081
  0
VERTEX
  8
0
 62
7
  6
CONTINUOUS
 10
413.756662277
 20
553.5982401612
  0
VERTEX
  8
0
 62
7
  6
CONTINUOUS
 10
414.1439134091
 20
553.6526915534
  0
SEQEND
  0
POLYLINE
  8
0
 62
7
  6
CONTINUOUS
 66
1
 70
0
  0
VERTEX
  8
0
 62
7
  6
CONTINUOUS
 10
414.5156596155
 20
553.497955183
  0
VERTEX
  8
0
 62
7
  6
CONTINUOUS
 10
414.21336783
 20
553.4570467183
  0
VERTEX
  8
0
 62
7
  6
CONTINUOUS
 10
413.8968968286
 20
553.4125655114
  0
VERTEX
  8
0
 62
7
  6
CONTINUOUS
 10
413.5736957154
 20
553.3652993126
  0
VERTEX
  8
0
 62
7
  6
CONTINUOUS
 10
413.2538335503
 20
553.3165161139
  0
VERTEX
  8
0
 62
7
  6
CONTINUOUS
 10
412.9444426539
 20
553.2671526683
  0
VERTEX
  8
0
 62
7
  6
CONTINUOUS
 10
412.6559551336
 20
553.2187952375
  0
VERTEX
  8
0
 62
7
  6
CONTINUOUS
 10
412.3959239
 20
553.1727450303
  0
SEQEND
  0
LINE
  8
0
 62
7
  6
CONTINUOUS
 10
414.1439134091
 20
553.6526915534
 11
414.5146451835
 21
553.7027822908
  0
LINE
  8
0
 62
7
  6
CONTINUOUS
 10
340.0322332859
 20
541.3849497126
 11
340.5517110299
 21
541.4251475814
  0
LINE
  8
0
 62
7
  6
CONTINUOUS
 10
340.5547623107
 20
541.4252407719
 11
340.54868405
 21
541.4248230034
  0
POLYLINE
  8
0
 62
7
  6
CONTINUOUS
 66
1
 70
0
  0
VERTEX
  8
0
 62
7
  6
CONTINUOUS
 10
493.9883995601
 20
535.6212776226
  0
VERTEX
  8
0
 62
7
  6
CONTINUOUS
 10
494.1282172178
 20
534.6472306352
  0
VERTEX
  8
0
 62
7
  6
CONTINUOUS
 10
494.1464655613
 20
534.1419787486
  0
SEQEND
  0
LINE
  8
0
 62
7
  6
CONTINUOUS
 10
402.8454978779
 20
548.3243347564
 11
404.6724657142
 21
548.3333830445
  0
LINE
  8
0
 62
7
  6
CONTINUOUS
 10
443.9439743304
 20
548.5278801339
 11
445.7709421667
 21
548.5369284221
  0
LINE
  8
0
 62
7
  6
CONTINUOUS
 10
404.9138737341
 20
548.4222204807
 11
443.7016982174
 21
548.6143220635
  0
LINE
  8
0
 62
7
  6
CONTINUOUS
 10
407.1180775017
 20
551.8306865979
 11
441.463841692
 21
552.000788318
  0
LINE
  8
0
 62
7
  6
CONTINUOUS
 10
405.6660763758
 20
552.0009113066
 11
406.8306791243
 21
552.0066791483
  0
LINE
  8
0
 62
7
  6
CONTINUOUS
 10
441.7494827631
 20
552.1796189184
 11
442.9140855116
 21
552.1853867601
  0
LINE
  8
0
 62
40
  6
CONTINUOUS
 10
494.1474809208
 20
534.1406404782
 11
494.1473073367
 21
534.1406461072
  0
LINE
  8
0
 62
40
  6
CONTINUOUS
 10
487.7146665577
 20
541.1176228165
 11
487.714841452
 21
541.1176170812
  0
LINE
  8
0
 62
7
  6
CONTINUOUS
 10
452.072833398
 20
546.4122655127
 11
453.3328249411
 21
543.003096801
  0
LINE
  8
0
 62
7
  6
CONTINUOUS
 10
494.1039005473
 20
534.9279326077
 11
493.8517613216
 21
536.1591977301
  0
LINE
  8
0
 62
7
  6
CONTINUOUS
 10
494.1074217522
 20
534.8995114693
 11
493.8706849046
 21
536.09530515
  0
LINE
  8
0
 62
7
  6
CONTINUOUS
 10
494.107510317
 20
534.8986962165
 11
493.8711161927
 21
536.09381938
  0
LINE
  8
0
 62
40
  6
CONTINUOUS
 10
493.8443653787
 20
-243.3184021027
 11
493.7678513494
 21
-243.5150384786
  0
POLYLINE
  8
0
 62
40
  6
CONTINUOUS
 66
1
 70
0
  0
VERTEX
  8
0
 62
40
  6
CONTINUOUS
 10
487.7680678912
 20
541.1130848841
  0
VERTEX
  8
0
 62
40
  6
CONTINUOUS
 10
487.8448060357
 20
541.1058295734
  0
VERTEX
  8
0
 62
40
  6
CONTINUOUS
 10
487.9214596365
 20
541.0977296927
  0
VERTEX
  8
0
 62
40
  6
CONTINUOUS
 10
487.9980193989
 20
541.0887862242
  0
VERTEX
  8
0
 62
40
  6
CONTINUOUS
 10
488.0744760396
 20
541.0790002524
  0
VERTEX
  8
0
 62
40
  6
CONTINUOUS
 10
488.1508202877
 20
541.0683729639
  0
VERTEX
  8
0
 62
40
  6
CONTINUOUS
 10
488.2270428862
 20
541.0569056472
  0
VERTEX
  8
0
 62
40
  6
CONTINUOUS
 10
488.3031345925
 20
541.044599693
  0
VERTEX
  8
0
 62
40
  6
CONTINUOUS
 10
488.3790861801
 20
541.0314565932
  0
VERTEX
  8
0
 62
40
  6
CONTINUOUS
 10
488.4548884394
 20
541.0174779417
  0
VERTEX
  8
0
 62
40
  6
CONTINUOUS
 10
488.530532179
 20
541.0026654333
  0
VERTEX
  8
0
 62
40
  6
CONTINUOUS
 10
488.6060082266
 20
540.9870208643
  0
VERTEX
  8
0
 62
40
  6
CONTINUOUS
 10
488.6813074303
 20
540.9705461316
  0
VERTEX
  8
0
 62
40
  6
CONTINUOUS
 10
488.7564206596
 20
540.9532432329
  0
VERTEX
  8
0
 62
40
  6
CONTINUOUS
 10
488.8313388065
 20
540.9351142662
  0
SEQEND
  0
POLYLINE
  8
0
 62
40
  6
CONTINUOUS
 66
1
 70
0
  0
VERTEX
  8
0
 62
40
  6
CONTINUOUS
 10
487.7146543928
 20
541.1176238054
  0
VERTEX
  8
0
 62
40
  6
CONTINUOUS
 10
487.9402579701
 20
541.095598701
  0
VERTEX
  8
0
 62
40
  6
CONTINUOUS
 10
488.1650301224
 20
541.0662803473
  0
VERTEX
  8
0
 62
40
  6
CONTINUOUS
 10
488.3887351444
 20
541.0296994889
  0
VERTEX
  8
0
 62
40
  6
CONTINUOUS
 10
488.6111384499
 20
540.9858944859
  0
VERTEX
  8
0
 62
40
  6
CONTINUOUS
 10
488.8320068175
 20
540.934911274
  0
VERTEX
  8
0
 62
40
  6
CONTINUOUS
 10
489.0511086357
 20
540.8768033163
  0
VERTEX
  8
0
 62
40
  6
CONTINUOUS
 10
489.2682141452
 20
540.8116315473
  0
VERTEX
  8
0
 62
40
  6
CONTINUOUS
 10
489.4830956804
 20
540.7394643086
  0
VERTEX
  8
0
 62
40
  6
CONTINUOUS
 10
489.6955279075
 20
540.6603772779
  0
VERTEX
  8
0
 62
40
  6
CONTINUOUS
 10
489.9052880614
 20
540.5744533891
  0
VERTEX
  8
0
 62
40
  6
CONTINUOUS
 10
490.1121561791
 20
540.4817827454
  0
VERTEX
  8
0
 62
40
  6
CONTINUOUS
 10
490.31591533
 20
540.3824625252
  0
VERTEX
  8
0
 62
40
  6
CONTINUOUS
 10
490.516351844
 20
540.2765968796
  0
VERTEX
  8
0
 62
40
  6
CONTINUOUS
 10
490.7132555351
 20
540.1642968238
  0
VERTEX
  8
0
 62
40
  6
CONTINUOUS
 10
490.906419922
 20
540.0456801202
  0
VERTEX
  8
0
 62
40
  6
CONTINUOUS
 10
491.0956424446
 20
539.9208711552
  0
VERTEX
  8
0
 62
40
  6
CONTINUOUS
 10
491.2807246763
 20
539.7900008086
  0
VERTEX
  8
0
 62
40
  6
CONTINUOUS
 10
491.4614725323
 20
539.6532063163
  0
VERTEX
  8
0
 62
40
  6
CONTINUOUS
 10
491.6376964731
 20
539.5106311268
  0
VERTEX
  8
0
 62
40
  6
CONTINUOUS
 10
491.8092117028
 20
539.3624247503
  0
VERTEX
  8
0
 62
40
  6
CONTINUOUS
 10
491.9758383636
 20
539.2087426019
  0
VERTEX
  8
0
 62
40
  6
CONTINUOUS
 10
492.137401724
 20
539.0497458392
  0
VERTEX
  8
0
 62
40
  6
CONTINUOUS
 10
492.2937323619
 20
538.8856011928
  0
VERTEX
  8
0
 62
40
  6
CONTINUOUS
 10
492.4446663426
 20
538.7164807913
  0
VERTEX
  8
0
 62
40
  6
CONTINUOUS
 10
492.5900453906
 20
538.5425619815
  0
VERTEX
  8
0
 62
40
  6
CONTINUOUS
 10
492.7297170553
 20
538.3640271417
  0
VERTEX
  8
0
 62
40
  6
CONTINUOUS
 10
492.8635348714
 20
538.1810634909
  0
VERTEX
  8
0
 62
40
  6
CONTINUOUS
 10
492.991358512
 20
537.9938628924
  0
VERTEX
  8
0
 62
40
  6
CONTINUOUS
 10
493.1130539359
 20
537.8026216523
  0
VERTEX
  8
0
 62
40
  6
CONTINUOUS
 10
493.2284935283
 20
537.6075403141
  0
VERTEX
  8
0
 62
40
  6
CONTINUOUS
 10
493.3375562346
 20
537.4088234481
  0
VERTEX
  8
0
 62
40
  6
CONTINUOUS
 10
493.440127687
 20
537.206679437
  0
VERTEX
  8
0
 62
40
  6
CONTINUOUS
 10
493.536100325
 20
537.0013202573
  0
VERTEX
  8
0
 62
40
  6
CONTINUOUS
 10
493.6253735077
 20
536.7929612571
  0
VERTEX
  8
0
 62
40
  6
CONTINUOUS
 10
493.7078536195
 20
536.5818209301
  0
VERTEX
  8
0
 62
40
  6
CONTINUOUS
 10
493.7834541685
 20
536.3681206869
  0
VERTEX
  8
0
 62
40
  6
CONTINUOUS
 10
493.8520958767
 20
536.1520846222
  0
VERTEX
  8
0
 62
40
  6
CONTINUOUS
 10
493.9137067637
 20
535.9339392805
  0
VERTEX
  8
0
 62
40
  6
CONTINUOUS
 10
493.9682222218
 20
535.7139134178
  0
VERTEX
  8
0
 62
40
  6
CONTINUOUS
 10
494.0155850837
 20
535.4922377623
  0
VERTEX
  8
0
 62
40
  6
CONTINUOUS
 10
494.055745683
 20
535.2691447722
  0
VERTEX
  8
0
 62
40
  6
CONTINUOUS
 10
494.0886619054
 20
535.044868392
  0
VERTEX
  8
0
 62
40
  6
CONTINUOUS
 10
494.1142992337
 20
534.8196438072
  0
VERTEX
  8
0
 62
40
  6
CONTINUOUS
 10
494.1326307836
 20
534.5937071975
  0
VERTEX
  8
0
 62
40
  6
CONTINUOUS
 10
494.1436373318
 20
534.3672954893
  0
VERTEX
  8
0
 62
40
  6
CONTINUOUS
 10
494.1473073364
 20
534.1406461072
  0
SEQEND
  0
POLYLINE
  8
0
 62
40
  6
CONTINUOUS
 66
1
 70
0
  0
VERTEX
  8
0
 62
40
  6
CONTINUOUS
 10
487.714841452
 20
541.1176170812
  0
VERTEX
  8
0
 62
40
  6
CONTINUOUS
 10
487.9404446949
 20
541.0955915746
  0
VERTEX
  8
0
 62
40
  6
CONTINUOUS
 10
488.1652165012
 20
541.0662728393
  0
VERTEX
  8
0
 62
40
  6
CONTINUOUS
 10
488.3889211666
 20
541.02969162
  0
VERTEX
  8
0
 62
40
  6
CONTINUOUS
 10
488.6113241058
 20
540.9858862771
  0
VERTEX
  8
0
 62
40
  6
CONTINUOUS
 10
488.8321920984
 20
540.9349027467
  0
VERTEX
  8
0
 62
40
  6
CONTINUOUS
 10
489.0512935339
 20
540.8767944919
  0
VERTEX
  8
0
 62
40
  6
CONTINUOUS
 10
489.2683986541
 20
540.8116224475
  0
VERTEX
  8
0
 62
40
  6
CONTINUOUS
 10
489.4832797942
 20
540.7394549552
  0
VERTEX
  8
0
 62
40
  6
CONTINUOUS
 10
489.6957116216
 20
540.6603676927
  0
VERTEX
  8
0
 62
40
  6
CONTINUOUS
 10
489.9054713721
 20
540.574443594
  0
VERTEX
  8
0
 62
40
  6
CONTINUOUS
 10
490.1123390836
 20
540.4817727622
  0
VERTEX
  8
0
 62
40
  6
CONTINUOUS
 10
490.3160978266
 20
540.3824523757
  0
VERTEX
  8
0
 62
40
  6
CONTINUOUS
 10
490.516533932
 20
540.2765865855
  0
VERTEX
  8
0
 62
40
  6
CONTINUOUS
 10
490.7134372148
 20
540.1642864067
  0
VERTEX
  8
0
 62
40
  6
CONTINUOUS
 10
490.9066011945
 20
540.0456696015
  0
VERTEX
  8
0
 62
40
  6
CONTINUOUS
 10
491.095823312
 20
539.920860556
  0
VERTEX
  8
0
 62
40
  6
CONTINUOUS
 10
491.2809051418
 20
539.7899901498
  0
VERTEX
  8
0
 62
40
  6
CONTINUOUS
 10
491.4616525999
 20
539.6531956187
  0
VERTEX
  8
0
 62
40
  6
CONTINUOUS
 10
491.6378761476
 20
539.5106204106
  0
VERTEX
  8
0
 62
40
  6
CONTINUOUS
 10
491.8093909902
 20
539.3624140353
  0
VERTEX
  8
0
 62
40
  6
CONTINUOUS
 10
491.9760172705
 20
539.2087319078
  0
VERTEX
  8
0
 62
40
  6
CONTINUOUS
 10
492.1375802579
 20
539.049735185
  0
VERTEX
  8
0
 62
40
  6
CONTINUOUS
 10
492.2939105313
 20
538.885590597
  0
VERTEX
  8
0
 62
40
  6
CONTINUOUS
 10
492.4448441566
 20
538.7164702722
  0
VERTEX
  8
0
 62
40
  6
CONTINUOUS
 10
492.5902228591
 20
538.5425515566
  0
VERTEX
  8
0
 62
40
  6
CONTINUOUS
 10
492.7298941891
 20
538.3640168279
  0
VERTEX
  8
0
 62
40
  6
CONTINUOUS
 10
492.8637116819
 20
538.1810533047
  0
VERTEX
  8
0
 62
40
  6
CONTINUOUS
 10
492.9915350113
 20
537.9938528495
  0
VERTEX
  8
0
 62
40
  6
CONTINUOUS
 10
493.1132301369
 20
537.8026117678
  0
VERTEX
  8
0
 62
40
  6
CONTINUOUS
 10
493.2286694444
 20
537.6075306024
  0
VERTEX
  8
0
 62
40
  6
CONTINUOUS
 10
493.3377318799
 20
537.408813923
  0
VERTEX
  8
0
 62
40
  6
CONTINUOUS
 10
493.4403030762
 20
537.2066701113
  0
VERTEX
  8
0
 62
40
  6
CONTINUOUS
 10
493.5362754733
 20
537.0013111433
  0
VERTEX
  8
0
 62
40
  6
CONTINUOUS
 10
493.6255484308
 20
536.7929523662
  0
VERTEX
  8
0
 62
40
  6
CONTINUOUS
 10
493.7080283336
 20
536.581812273
  0
VERTEX
  8
0
 62
40
  6
CONTINUOUS
 10
493.7836286902
 20
536.3681122734
  0
VERTEX
  8
0
 62
40
  6
CONTINUOUS
 10
493.8522702232
 20
536.1520764613
  0
VERTEX
  8
0
 62
40
  6
CONTINUOUS
 10
493.9138809523
 20
535.9339313802
  0
VERTEX
  8
0
 62
40
  6
CONTINUOUS
 10
493.9683962702
 20
535.7139057853
  0
VERTEX
  8
0
 62
40
  6
CONTINUOUS
 10
494.0157590101
 20
535.4922304041
  0
VERTEX
  8
0
 62
40
  6
CONTINUOUS
 10
494.0559195055
 20
535.2691376938
  0
VERTEX
  8
0
 62
40
  6
CONTINUOUS
 10
494.0888356427
 20
535.044861598
  0
VERTEX
  8
0
 62
40
  6
CONTINUOUS
 10
494.1144729044
 20
534.8196373012
  0
VERTEX
  8
0
 62
40
  6
CONTINUOUS
 10
494.1328044066
 20
534.5937009823
  0
VERTEX
  8
0
 62
40
  6
CONTINUOUS
 10
494.143810926
 20
534.3672895667
  0
VERTEX
  8
0
 62
40
  6
CONTINUOUS
 10
494.1474809208
 20
534.1406404782
  0
SEQEND
  0
POLYLINE
  8
0
 62
7
  6
CONTINUOUS
 66
1
 70
0
  0
VERTEX
  8
0
 62
7
  6
CONTINUOUS
 10
434.049093729
 20
553.7995293935
  0
VERTEX
  8
0
 62
7
  6
CONTINUOUS
 10
434.4141541412
 20
553.7538978529
  0
VERTEX
  8
0
 62
7
  6
CONTINUOUS
 10
434.8007066722
 20
553.7034825257
  0
VERTEX
  8
0
 62
7
  6
CONTINUOUS
 10
435.1845087958
 20
553.6511698616
  0
VERTEX
  8
0
 62
7
  6
CONTINUOUS
 10
435.5536606005
 20
553.5985190986
  0
VERTEX
  8
0
 62
7
  6
CONTINUOUS
 10
435.9032911689
 20
553.5462251635
  0
VERTEX
  8
0
 62
7
  6
CONTINUOUS
 10
436.2287670635
 20
553.494985091
  0
VERTEX
  8
0
 62
7
  6
CONTINUOUS
 10
436.5257512241
 20
553.4454932413
  0
SEQEND
  0
POLYLINE
  8
0
 62
7
  6
CONTINUOUS
 66
1
 70
0
  0
VERTEX
  8
0
 62
7
  6
CONTINUOUS
 10
436.1729611022
 20
553.2905037998
  0
VERTEX
  8
0
 62
7
  6
CONTINUOUS
 10
435.9239102033
 20
553.3321234029
  0
VERTEX
  8
0
 62
7
  6
CONTINUOUS
 10
435.6470720585
 20
553.3758582951
  0
VERTEX
  8
0
 62
7
  6
CONTINUOUS
 10
435.3487753986
 20
553.4206391038
  0
VERTEX
  8
0
 62
7
  6
CONTINUOUS
 10
435.033689919
 20
553.4657516537
  0
VERTEX
  8
0
 62
7
  6
CONTINUOUS
 10
434.7068690848
 20
553.5104801189
  0
VERTEX
  8
0
 62
7
  6
CONTINUOUS
 10
434.3768198279
 20
553.5537146009
  0
VERTEX
  8
0
 62
7
  6
CONTINUOUS
 10
434.0501081625
 20
553.5947019982
  0
SEQEND
  0
LINE
  8
0
 62
7
  6
CONTINUOUS
 10
489.0731694435
 20
540.8749866245
 11
487.7160403479
 21
541.1218803963
  0
POLYLINE
  8
0
 62
7
  6
CONTINUOUS
 66
1
 70
0
  0
VERTEX
  8
0
 62
7
  6
CONTINUOUS
 10
436.5257512346
 20
553.4454911237
  0
VERTEX
  8
0
 62
7
  6
CONTINUOUS
 10
438.1027488272
 20
553.1411382771
  0
VERTEX
  8
0
 62
7
  6
CONTINUOUS
 10
439.8455052918
 20
552.7269719654
  0
VERTEX
  8
0
 62
7
  6
CONTINUOUS
 10
441.7493528452
 20
552.1796375445
  0
SEQEND
  0
LINE
  8
0
 62
7
  6
CONTINUOUS
 10
488.5643122485
 20
540.9967904791
 11
488.5291818683
 21
541.0039463928
  0
POLYLINE
  8
0
 62
7
  6
CONTINUOUS
 66
1
 70
0
  0
VERTEX
  8
0
 62
7
  6
CONTINUOUS
 10
488.549327603
 20
540.9998624968
  0
VERTEX
  8
0
 62
7
  6
CONTINUOUS
 10
488.7891574961
 20
540.9464519642
  0
VERTEX
  8
0
 62
7
  6
CONTINUOUS
 10
489.2339146835
 20
540.8234886216
  0
VERTEX
  8
0
 62
7
  6
CONTINUOUS
 10
489.8191746112
 20
540.611689203
  0
VERTEX
  8
0
 62
7
  6
CONTINUOUS
 10
490.4817298749
 20
540.2963953939
  0
VERTEX
  8
0
 62
7
  6
CONTINUOUS
 10
491.1444001856
 20
539.8880646424
  0
VERTEX
  8
0
 62
7
  6
CONTINUOUS
 10
491.7773304433
 20
539.3913714558
  0
VERTEX
  8
0
 62
7
  6
CONTINUOUS
 10
492.3670051131
 20
538.8053438312
  0
VERTEX
  8
0
 62
7
  6
CONTINUOUS
 10
492.8989279757
 20
538.1307250244
  0
VERTEX
  8
0
 62
7
  6
CONTINUOUS
 10
493.3573486164
 20
537.3708663904
  0
VERTEX
  8
0
 62
7
  6
CONTINUOUS
 10
493.7258816545
 20
536.5319342774
  0
VERTEX
  8
0
 62
7
  6
CONTINUOUS
 10
493.9885184512
 20
535.6207275839
  0
SEQEND
  0
LINE
  8
0
 62
7
  6
CONTINUOUS
 10
488.7868743832
 20
540.9470936691
 11
488.5638391872
 21
540.9968880712
  0
POLYLINE
  8
0
 62
7
  6
CONTINUOUS
 66
1
 70
0
  0
VERTEX
  8
0
 62
7
  6
CONTINUOUS
 10
441.7493528452
 20
552.1796375445
  0
VERTEX
  8
0
 62
7
  6
CONTINUOUS
 10
442.7976867018
 20
550.4482293517
  0
VERTEX
  8
0
 62
7
  6
CONTINUOUS
 10
443.9473478167
 20
548.5273561208
  0
SEQEND
  0
POLYLINE
  8
0
 62
7
  6
CONTINUOUS
 66
1
 70
0
  0
VERTEX
  8
0
 62
7
  6
CONTINUOUS
 10
443.4825459082
 20
548.6132360631
  0
VERTEX
  8
0
 62
7
  6
CONTINUOUS
 10
442.7702317479
 20
549.8163704403
  0
VERTEX
  8
0
 62
7
  6
CONTINUOUS
 10
442.0972095986
 20
550.9456451951
  0
VERTEX
  8
0
 62
7
  6
CONTINUOUS
 10
441.4638400021
 20
552.0007884728
  0
SEQEND
  0
POLYLINE
  8
0
 62
7
  6
CONTINUOUS
 66
1
 70
0
  0
VERTEX
  8
0
 62
7
  6
CONTINUOUS
 10
493.419755775
 20
537.2534513871
  0
VERTEX
  8
0
 62
7
  6
CONTINUOUS
 10
493.679727739
 20
536.6617121926
  0
VERTEX
  8
0
 62
7
  6
CONTINUOUS
 10
493.8840132376
 20
536.0485159901
  0
VERTEX
  8
0
 62
7
  6
CONTINUOUS
 10
494.0308708571
 20
535.4190877664
  0
SEQEND
  0
LINE
  8
0
 62
7
  6
CONTINUOUS
 10
493.8517613216
 20
536.1591977301
 11
493.4197722378
 21
537.253425787
  0
POLYLINE
  8
0
 62
7
  6
CONTINUOUS
 66
1
 70
0
  0
VERTEX
  8
0
 62
7
  6
CONTINUOUS
 10
493.419755775
 20
537.2534513871
  0
VERTEX
  8
0
 62
7
  6
CONTINUOUS
 10
493.870904041
 20
536.0943107361
  0
VERTEX
  8
0
 62
7
  6
CONTINUOUS
 10
494.1097754522
 20
534.873615813
  0
VERTEX
  8
0
 62
7
  6
CONTINUOUS
 10
494.1478006199
 20
534.14493436
  0
SEQEND
  0
LINE
  8
0
 62
7
  6
CONTINUOUS
 10
493.8706849046
 20
536.09530515
 11
493.4627485106
 21
537.1645933737
  0
LINE
  8
0
 62
7
  6
CONTINUOUS
 10
493.8711161927
 20
536.09381938
 11
493.4636745089
 21
537.1626573651
  0
POLYLINE
  8
0
 62
7
  6
CONTINUOUS
 66
1
 70
0
  0
VERTEX
  8
0
 62
7
  6
CONTINUOUS
 10
493.9124746856
 20
535.9540935582
  0
VERTEX
  8
0
 62
7
  6
CONTINUOUS
 10
493.6843040451
 20
536.6550009027
  0
VERTEX
  8
0
 62
7
  6
CONTINUOUS
 10
493.3923579066
 20
537.3110313442
  0
SEQEND
  0
LINE
  8
0
 62
7
  6
CONTINUOUS
 10
493.9123530879
 20
535.9545468666
 11
493.6840856879
 21
536.6555681882
  0
LINE
  8
0
 62
7
  6
CONTINUOUS
 10
494.0215604461
 20
535.4684903807
 11
493.5440257436
 21
536.9889887697
  0
POLYLINE
  8
0
 62
40
  6
CONTINUOUS
 66
1
 70
0
  0
VERTEX
  8
0
 62
40
  6
CONTINUOUS
 10
493.7678212109
 20
-243.5150154582
  0
VERTEX
  8
0
 62
40
  6
CONTINUOUS
 10
493.683079267
 20
-243.7082487431
  0
VERTEX
  8
0
 62
40
  6
CONTINUOUS
 10
493.5902603189
 20
-243.8977348245
  0
VERTEX
  8
0
 62
40
  6
CONTINUOUS
 10
493.4895296601
 20
-244.0831362626
  0
VERTEX
  8
0
 62
40
  6
CONTINUOUS
 10
493.3810666734
 20
-244.2641228915
  0
SEQEND
  0
LINE
  8
0
 62
40
  6
CONTINUOUS
 10
493.3810968143
 20
-244.2641459138
 11
493.265094653
 21
-244.4403954301
  0
POLYLINE
  8
0
 62
40
  6
CONTINUOUS
 66
1
 70
0
  0
VERTEX
  8
0
 62
40
  6
CONTINUOUS
 10
493.2650645115
 20
-244.4403724074
  0
VERTEX
  8
0
 62
40
  6
CONTINUOUS
 10
493.1417297528
 20
-244.6115709421
  0
VERTEX
  8
0
 62
40
  6
CONTINUOUS
 10
493.0112820338
 20
-244.7774136228
  0
SEQEND
  0
LINE
  8
0
 62
40
  6
CONTINUOUS
 10
493.0113121764
 20
-244.7774366463
 11
492.8739838012
 21
-244.9376281379
  0
POLYLINE
  8
0
 62
40
  6
CONTINUOUS
 66
1
 70
0
  0
VERTEX
  8
0
 62
40
  6
CONTINUOUS
 10
492.8739536581
 20
-244.9376051139
  0
VERTEX
  8
0
 62
40
  6
CONTINUOUS
 10
492.7299891821
 20
-245.091860144
  0
VERTEX
  8
0
 62
40
  6
CONTINUOUS
 10
492.5796449801
 20
-245.2399040132
  0
VERTEX
  8
0
 62
40
  6
CONTINUOUS
 10
492.4231887875
 20
-245.3814730825
  0
VERTEX
  8
0
 62
40
  6
CONTINUOUS
 10
492.2608992239
 20
-245.5163152436
  0
VERTEX
  8
0
 62
40
  6
CONTINUOUS
 10
492.0930652974
 20
-245.6441903673
  0
VERTEX
  8
0
 62
40
  6
CONTINUOUS
 10
491.9199858891
 20
-245.7648707315
  0
SEQEND
  0
LINE
  8
0
 62
40
  6
CONTINUOUS
 10
491.920016035
 20
-245.7648937576
 11
491.741999368
 21
-245.8781644531
  0
LINE
  8
0
 62
40
  6
CONTINUOUS
 10
491.7419692218
 20
-245.8781414268
 11
491.5593323103
 21
-245.9838007387
  0
LINE
  8
0
 62
40
  6
CONTINUOUS
 10
491.5593624569
 20
-245.9838237653
 11
491.3724305444
 21
-246.0816835344
  0
LINE
  8
0
 62
40
  6
CONTINUOUS
 10
491.3724003975
 20
-246.0816605076
 11
491.1815063746
 21
-246.1715464632
  0
LINE
  8
0
 62
40
  6
CONTINUOUS
 10
491.1815365218
 20
-246.1715694902
 11
490.9870203363
 21
-246.2533215623
  0
LINE
  8
0
 62
40
  6
CONTINUOUS
 10
490.9869901888
 20
-246.2532985351
 11
490.7891982377
 21
-246.3267711379
  0
POLYLINE
  8
0
 62
40
  6
CONTINUOUS
 66
1
 70
0
  0
VERTEX
  8
0
 62
40
  6
CONTINUOUS
 10
490.7892283855
 20
-246.3267941652
  0
VERTEX
  8
0
 62
40
  6
CONTINUOUS
 10
490.5885129004
 20
-246.3918564579
  0
VERTEX
  8
0
 62
40
  6
CONTINUOUS
 10
490.3852313184
 20
-246.4483925763
  0
VERTEX
  8
0
 62
40
  6
CONTINUOUS
 10
490.1797456466
 20
-246.4963018399
  0
VERTEX
  8
0
 62
40
  6
CONTINUOUS
 10
489.9724218172
 20
-246.5354989313
  0
VERTEX
  8
0
 62
40
  6
CONTINUOUS
 10
489.7636290359
 20
-246.5659140475
  0
VERTEX
  8
0
 62
40
  6
CONTINUOUS
 10
489.5537391241
 20
-246.5874930249
  0
VERTEX
  8
0
 62
40
  6
CONTINUOUS
 10
489.3431258572
 20
-246.6001974353
  0
VERTEX
  8
0
 62
40
  6
CONTINUOUS
 10
489.1321642988
 20
-246.6040046544
  0
VERTEX
  8
0
 62
40
  6
CONTINUOUS
 10
488.9212301325
 20
-246.5989079023
  0
VERTEX
  8
0
 62
40
  6
CONTINUOUS
 10
488.7106989932
 20
-246.5849162554
  0
VERTEX
  8
0
 62
40
  6
CONTINUOUS
 10
488.5009457984
 20
-246.5620546302
  0
VERTEX
  8
0
 62
40
  6
CONTINUOUS
 10
488.2923440797
 20
-246.5303637391
  0
VERTEX
  8
0
 62
40
  6
CONTINUOUS
 10
488.0852653185
 20
-246.4899000177
  0
VERTEX
  8
0
 62
40
  6
CONTINUOUS
 10
487.8800782841
 20
-246.4407355244
  0
VERTEX
  8
0
 62
40
  6
CONTINUOUS
 10
487.6771483767
 20
-246.3829578123
  0
VERTEX
  8
0
 62
40
  6
CONTINUOUS
 10
487.4768369772
 20
-246.3166697727
  0
VERTEX
  8
0
 62
40
  6
CONTINUOUS
 10
487.2795008034
 20
-246.2419894525
  0
VERTEX
  8
0
 62
40
  6
CONTINUOUS
 10
487.0854912748
 20
-246.1590498435
  0
VERTEX
  8
0
 62
40
  6
CONTINUOUS
 10
486.8951538865
 20
-246.0679986461
  0
VERTEX
  8
0
 62
40
  6
CONTINUOUS
 10
486.7088275945
 20
-245.9689980056
  0
VERTEX
  8
0
 62
40
  6
CONTINUOUS
 10
486.5268442117
 20
-245.8622242239
  0
VERTEX
  8
0
 62
40
  6
CONTINUOUS
 10
486.349527817
 20
-245.7478674456
  0
VERTEX
  8
0
 62
40
  6
CONTINUOUS
 10
486.1771941783
 20
-245.626131319
  0
VERTEX
  8
0
 62
40
  6
CONTINUOUS
 10
486.0101501901
 20
-245.4972326337
  0
VERTEX
  8
0
 62
40
  6
CONTINUOUS
 10
485.848693327
 20
-245.3614009347
  0
SEQEND
  0
LINE
  8
0
 62
7
  6
CONTINUOUS
 10
445.7709421667
 20
548.5369284221
 11
451.3934733186
 21
547.0315729017
  0
POLYLINE
  8
0
 62
7
  6
CONTINUOUS
 66
1
 70
0
  0
VERTEX
  8
0
 62
7
  6
CONTINUOUS
 10
488.78822051
 20
540.9466779432
  0
VERTEX
  8
0
 62
7
  6
CONTINUOUS
 10
489.2325076604
 20
540.8239279182
  0
VERTEX
  8
0
 62
7
  6
CONTINUOUS
 10
489.8173949288
 20
540.6124240366
  0
VERTEX
  8
0
 62
7
  6
CONTINUOUS
 10
490.4798578289
 20
540.2974094943
  0
VERTEX
  8
0
 62
7
  6
CONTINUOUS
 10
491.1427340714
 20
539.8892234895
  0
VERTEX
  8
0
 62
7
  6
CONTINUOUS
 10
491.7759312515
 20
539.3926054495
  0
VERTEX
  8
0
 62
7
  6
CONTINUOUS
 10
492.3659016467
 20
538.8065788567
  0
VERTEX
  8
0
 62
7
  6
CONTINUOUS
 10
492.8981238884
 20
538.1318844306
  0
VERTEX
  8
0
 62
7
  6
CONTINUOUS
 10
493.356823088
 20
537.3718770934
  0
VERTEX
  8
0
 62
7
  6
CONTINUOUS
 10
493.7255904084
 20
536.5327359478
  0
VERTEX
  8
0
 62
7
  6
CONTINUOUS
 10
493.9883995601
 20
535.6212776226
  0
SEQEND
  0
POLYLINE
  8
0
 62
7
  6
CONTINUOUS
 66
1
 70
0
  0
VERTEX
  8
0
 62
7
  6
CONTINUOUS
 10
441.4638400021
 20
552.0007884728
  0
VERTEX
  8
0
 62
7
  6
CONTINUOUS
 10
439.5230686269
 20
552.5625331276
  0
VERTEX
  8
0
 62
7
  6
CONTINUOUS
 10
437.7577770143
 20
552.9838406408
  0
VERTEX
  8
0
 62
7
  6
CONTINUOUS
 10
436.1729611022
 20
553.2905037998
  0
SEQEND
  0
LINE
  8
0
 62
7
  6
CONTINUOUS
 10
443.9473478167
 20
548.5273561208
 11
443.7016982174
 21
548.6143220635
  0
LINE
  8
0
 62
7
  6
CONTINUOUS
 10
490.8417143761
 20
540.0909897075
 11
489.0731694435
 21
540.8749866245
  0
POLYLINE
  8
0
 62
7
  6
CONTINUOUS
 66
1
 70
0
  0
VERTEX
  8
0
 62
7
  6
CONTINUOUS
 10
491.2388965554
 20
539.8233970617
  0
VERTEX
  8
0
 62
7
  6
CONTINUOUS
 10
490.7138513226
 20
540.1664519969
  0
VERTEX
  8
0
 62
7
  6
CONTINUOUS
 10
490.1645594354
 20
540.4590647749
  0
VERTEX
  8
0
 62
7
  6
CONTINUOUS
 10
489.6276125689
 20
540.688174354
  0
VERTEX
  8
0
 62
7
  6
CONTINUOUS
 10
489.1530468815
 20
540.8485125637
  0
SEQEND
  0
POLYLINE
  8
0
 62
7
  6
CONTINUOUS
 66
1
 70
0
  0
VERTEX
  8
0
 62
7
  6
CONTINUOUS
 10
491.2399694239
 20
539.8226251962
  0
VERTEX
  8
0
 62
7
  6
CONTINUOUS
 10
490.7150807179
 20
540.1657249868
  0
VERTEX
  8
0
 62
7
  6
CONTINUOUS
 10
490.1659460722
 20
540.4584032873
  0
VERTEX
  8
0
 62
7
  6
CONTINUOUS
 10
489.6290052158
 20
540.687647447
  0
VERTEX
  8
0
 62
7
  6
CONTINUOUS
 10
489.1543078347
 20
540.8481360812
  0
VERTEX
  8
0
 62
7
  6
CONTINUOUS
 10
488.7859519046
 20
540.9473153747
  0
SEQEND
  0
LINE
  8
0
 62
7
  6
CONTINUOUS
 10
492.3287807173
 20
538.8521521026
 11
490.8417143761
 21
540.0909897075
  0
POLYLINE
  8
0
 62
7
  6
CONTINUOUS
 66
1
 70
0
  0
VERTEX
  8
0
 62
7
  6
CONTINUOUS
 10
491.8288121248
 20
539.3484469224
  0
VERTEX
  8
0
 62
7
  6
CONTINUOUS
 10
491.7733275972
 20
539.397815011
  0
VERTEX
  8
0
 62
7
  6
CONTINUOUS
 10
491.8005293334
 20
539.3737420562
  0
SEQEND
  0
POLYLINE
  8
0
 62
7
  6
CONTINUOUS
 66
1
 70
0
  0
VERTEX
  8
0
 62
7
  6
CONTINUOUS
 10
491.8280284065
 20
539.3491516171
  0
VERTEX
  8
0
 62
7
  6
CONTINUOUS
 10
491.7729597695
 20
539.398138792
  0
VERTEX
  8
0
 62
7
  6
CONTINUOUS
 10
491.8011943779
 20
539.3731503508
  0
SEQEND
  0
POLYLINE
  8
0
 62
7
  6
CONTINUOUS
 66
1
 70
0
  0
VERTEX
  8
0
 62
7
  6
CONTINUOUS
 10
491.8005293334
 20
539.3737420562
  0
VERTEX
  8
0
 62
7
  6
CONTINUOUS
 10
492.0396271391
 20
539.1508167665
  0
VERTEX
  8
0
 62
7
  6
CONTINUOUS
 10
492.4482617412
 20
538.7160163652
  0
SEQEND
  0
POLYLINE
  8
0
 62
7
  6
CONTINUOUS
 66
1
 70
0
  0
VERTEX
  8
0
 62
7
  6
CONTINUOUS
 10
492.2120760297
 20
538.9770370671
  0
VERTEX
  8
0
 62
7
  6
CONTINUOUS
 10
491.7400843302
 20
539.4269655711
  0
VERTEX
  8
0
 62
7
  6
CONTINUOUS
 10
491.2388965554
 20
539.8233970617
  0
SEQEND
  0
POLYLINE
  8
0
 62
7
  6
CONTINUOUS
 66
1
 70
0
  0
VERTEX
  8
0
 62
7
  6
CONTINUOUS
 10
492.2128364153
 20
538.9762412813
  0
VERTEX
  8
0
 62
7
  6
CONTINUOUS
 10
491.7409999042
 20
539.4261706721
  0
VERTEX
  8
0
 62
7
  6
CONTINUOUS
 10
491.2399694239
 20
539.8226251962
  0
SEQEND
  0
LINE
  8
0
 62
7
  6
CONTINUOUS
 10
492.4069766805
 20
538.7635514845
 11
491.9759044391
 21
539.2123095436
  0
POLYLINE
  8
0
 62
7
  6
CONTINUOUS
 66
1
 70
0
  0
VERTEX
  8
0
 62
7
  6
CONTINUOUS
 10
492.4086194119
 20
538.7616810345
  0
VERTEX
  8
0
 62
7
  6
CONTINUOUS
 10
491.9771896218
 20
539.2110851618
  0
VERTEX
  8
0
 62
7
  6
CONTINUOUS
 10
491.8280284065
 20
539.3491516171
  0
SEQEND
  0
POLYLINE
  8
0
 62
7
  6
CONTINUOUS
 66
1
 70
0
  0
VERTEX
  8
0
 62
7
  6
CONTINUOUS
 10
492.0383828345
 20
539.1520321603
  0
VERTEX
  8
0
 62
7
  6
CONTINUOUS
 10
492.447851909
 20
538.7164914527
  0
VERTEX
  8
0
 62
7
  6
CONTINUOUS
 10
492.9004919689
 20
538.1320686065
  0
VERTEX
  8
0
 62
7
  6
CONTINUOUS
 10
493.3248494095
 20
537.4367233045
  0
VERTEX
  8
0
 62
7
  6
CONTINUOUS
 10
493.693002665
 20
536.6255291917
  0
VERTEX
  8
0
 62
7
  6
CONTINUOUS
 10
493.9708446731
 20
535.7071141761
  0
VERTEX
  8
0
 62
7
  6
CONTINUOUS
 10
494.1255632981
 20
534.6986159178
  0
VERTEX
  8
0
 62
7
  6
CONTINUOUS
 10
494.1475498259
 20
534.1441891159
  0
SEQEND
  0
LINE
  8
0
 62
7
  6
CONTINUOUS
 10
492.6491153937
 20
538.4737941494
 11
492.2120760297
 21
538.9770370671
  0
LINE
  8
0
 62
7
  6
CONTINUOUS
 10
492.309240612
 20
538.8652001792
 11
492.2128364153
 21
538.9762412813
  0
LINE
  8
0
 62
7
  6
CONTINUOUS
 10
442.9140855116
 20
552.1853867601
 11
445.7709421667
 21
548.5369284221
  0
LINE
  8
0
 62
7
  6
CONTINUOUS
 10
492.9429088044
 20
538.0704934367
 11
492.4069766805
 21
538.7635514845
  0
LINE
  8
0
 62
7
  6
CONTINUOUS
 10
492.9443272611
 20
538.0683996885
 11
492.4086194119
 21
538.7616810345
  0
LINE
  8
0
 62
7
  6
CONTINUOUS
 10
493.0448591794
 20
537.9179616821
 11
492.6491153937
 21
538.4737941494
  0
POLYLINE
  8
0
 62
7
  6
CONTINUOUS
 66
1
 70
0
  0
VERTEX
  8
0
 62
7
  6
CONTINUOUS
 10
492.8606338704
 20
538.1767107142
  0
VERTEX
  8
0
 62
7
  6
CONTINUOUS
 10
492.6497252485
 20
538.4730202678
  0
VERTEX
  8
0
 62
7
  6
CONTINUOUS
 10
492.4855501943
 20
538.6621217757
  0
SEQEND
  0
LINE
  8
0
 62
7
  6
CONTINUOUS
 10
493.419755775
 20
537.2534513871
 11
492.3287807173
 21
538.8521521026
  0
POLYLINE
  8
0
 62
7
  6
CONTINUOUS
 66
1
 70
0
  0
VERTEX
  8
0
 62
7
  6
CONTINUOUS
 10
492.9004762445
 20
538.132091289
  0
VERTEX
  8
0
 62
7
  6
CONTINUOUS
 10
493.3245041471
 20
537.4373709568
  0
VERTEX
  8
0
 62
7
  6
CONTINUOUS
 10
493.6925854269
 20
536.626629497
  0
VERTEX
  8
0
 62
7
  6
CONTINUOUS
 10
493.9705660404
 20
535.7083300981
  0
VERTEX
  8
0
 62
7
  6
CONTINUOUS
 10
494.1254942376
 20
534.6994844917
  0
VERTEX
  8
0
 62
7
  6
CONTINUOUS
 10
494.1475498259
 20
534.1441899315
  0
SEQEND
  0
LINE
  8
0
 62
7
  6
CONTINUOUS
 10
493.4627485106
 20
537.1645933737
 11
492.9429088044
 21
538.0704934367
  0
LINE
  8
0
 62
7
  6
CONTINUOUS
 10
493.4636745089
 20
537.1626573651
 11
492.9443272611
 21
538.0683996885
  0
LINE
  8
0
 62
7
  6
CONTINUOUS
 10
493.3923579066
 20
537.3110313442
 11
493.0448591794
 21
537.9179616821
  0
POLYLINE
  8
0
 62
7
  6
CONTINUOUS
 66
1
 70
0
  0
VERTEX
  8
0
 62
7
  6
CONTINUOUS
 10
493.3926929587
 20
537.3103716897
  0
VERTEX
  8
0
 62
7
  6
CONTINUOUS
 10
493.0453260972
 20
537.917233075
  0
VERTEX
  8
0
 62
7
  6
CONTINUOUS
 10
492.9716699418
 20
538.0207140154
  0
SEQEND
  0
LINE
  8
0
 62
7
  6
CONTINUOUS
 10
493.5440257436
 20
536.9889887697
 11
492.9107421135
 21
538.1184586777
  0
ARC
  8
0
 62
7
  6
CONTINUOUS
 10
412.1927508307
 20
-387.7699394812
 40
931.9527608227
 50
85.3518048939
 51
85.3518701357
  0
ARC
  8
0
 62
7
  6
CONTINUOUS
 10
412.1928477748
 20
-387.7659473956
 40
931.948642798
 50
85.3517946418
 51
94.4086238672
  0
ARC
  8
0
 62
7
  6
CONTINUOUS
 10
424.6614489031
 20
477.1090962274
 40
77.2632392753
 50
99.1551164478
 51
104.2322285909
  0
ARC
  8
0
 62
7
  6
CONTINUOUS
 10
424.6614489031
 20
477.1090962274
 40
77.2632392753
 50
76.3352958882
 51
81.4124080313
  0
ARC
  8
0
 62
7
  6
CONTINUOUS
 10
424.6614489031
 20
477.1090962274
 40
77.2628656098
 50
83.0211658606
 51
97.5463586185
  0
ARC
  8
0
 62
7
  6
CONTINUOUS
 10
424.6614489031
 20
477.1090962274
 40
77.0596834461
 50
83.0019130432
 51
97.5656114359
  0
ARC
  8
0
 62
7
  6
CONTINUOUS
 10
397.5063355691
 20
545.7999937262
 40
1.0
 50
105.5561415488
 51
160.2837622396
  0
ARC
  8
0
 62
7
  6
CONTINUOUS
 10
451.1348461787
 20
546.065595675
 40
1.0
 50
20.2837622395
 51
75.0113829303
  0
ENDSEC
  0
EOF
