999
DXF file: K:\Client\125_Heirloom\001\00\Final_Data\Drawings\LADDER TOWEL WARMERS\we575_1.dxf
999
Pro/ENGINEER 2017110 by Parametric Technology Corporation
  0
SECTION
  2
HEADER
  9
$EXTMAX
 10
420.0
 20
297.0
 30
0.0
  9
$EXTMIN
 10
0.0
 20
0.0
 30
0.0
  9
$LIMMIN
 10
0.0
 20
0.0
  9
$LIMMAX
 10
420.0
 20
297.0
  9
$VIEWCTR
 10
210.0
 20
148.5
  9
$VIEWSIZE
 40
297.0
  9
$CLAYER
  8
0
  9
$LTSCALE
 40
23.1
  9
$CELTYPE
  6
BYLAYER
  9
$DIMSCALE
 40
1.0
  9
$DIMASZ
 40
3.0
  9
$DIMEXO
 40
1.0
  9
$DIMDLI
 40
15.96
  9
$DIMEXE
 40
1.0
  9
$DIMCEN
 40
3.78
  9
$DIMLFAC
 40
1.0
  9
$DIMBLK
  1
_FILLED
  9
$DIMALT
 70
0
  9
$DIMALTF
 40
0.0393700787
  9
$DIMTXT
 40
3.0
  9
$AUNITS
 70
0
  9
$PDMODE
 70
3
  9
$PDSIZE
 40
5.0
  9
$TILEMODE
 70
1
  0
ENDSEC
  0
SECTION
  2
TABLES
  0
TABLE
  2
LTYPE
 70
6
  0
LTYPE
  2
BYBLOCK
 70
0
  3

 72
65
 73
0
 40
0.0
  0
LTYPE
  2
BYLAYER
 70
0
  3

 72
65
 73
0
 40
0.0
  0
LTYPE
  2
CONTINUOUS
 70
64
  3
Solid line
 72
65
 73
0
 40
0.0
  0
LTYPE
  2
CENTER
 70
64
  3
____ _ ____ _ ____ _ ____ _ ____ _ ____ _ ____
 72
65
 73
4
 40
0.6
 49
0.375
 49
-0.075
 49
0.075
 49
-0.075
  0
LTYPE
  2
HIDDEN
 70
64
  3
- - - - - - - - - - - - - - - - - - - -
 72
65
 73
2
 40
0.2
 49
0.1
 49
-0.1
  0
LTYPE
  2
PHANTOM
 70
64
  3
_____ _ _ _____ _ _ _____ _ _ _____
 72
65
 73
6
 40
0.8
 49
0.45
 49
-0.05
 49
0.1
 49
-0.05
 49
0.1
 49
-0.05
  0
LTYPE
  2
DOT
 70
64
  3
. . . . . . . . . . . . . . . . . . . .
 72
65
 73
2
 40
0.2
 49
0.1
 49
-0.1
  0
LTYPE
  2
DASHED
 70
64
  3
- - - - - - - - - - - - - - - - - - - -
 72
65
 73
2
 40
0.2
 49
0.1
 49
-0.1
  0
ENDTAB
  0
TABLE
  2
LAYER
 70
36
  0
LAYER
  2
0
 70
0
 62
7
  6
CONTINUOUS
  0
LAYER
  2
DEFAULT_1
 70
0
 62
7
  6
CENTER
  0
LAYER
  2
DEFAULT_2
 70
0
 62
8
  6
HIDDEN
  0
LAYER
  2
DEFAULT_3
 70
0
 62
7
  6
PHANTOM
  0
LAYER
  2
0000_BOM
 70
0
 62
7
  6
CONTINUOUS
  0
LAYER
  2
0000_REV_TABLE
 70
0
 62
7
  6
CONTINUOUS
  0
LAYER
  2
0000_STEVENS_NOTE
 70
0
 62
7
  6
CONTINUOUS
  0
LAYER
  2
01_DATUM_PLANES
 70
0
 62
7
  6
CONTINUOUS
  0
LAYER
  2
01_DEF_PLANES
 70
0
 62
7
  6
CONTINUOUS
  0
LAYER
  2
02_DATUM_COS
 70
0
 62
7
  6
CONTINUOUS
  0
LAYER
  2
99_SOLID
 70
0
 62
7
  6
CONTINUOUS
  0
LAYER
  2
CAD-MASTER_ZINC-PL
 70
0
 62
7
  6
CONTINUOUS
  0
LAYER
  2
CURVE
 70
0
 62
7
  6
CONTINUOUS
  0
LAYER
  2
SKEL
 70
0
 62
7
  6
CONTINUOUS
  0
LAYER
  2
SKETCH
 70
0
 62
7
  6
CONTINUOUS
  0
LAYER
  2
SURFACE
 70
0
 62
7
  6
CONTINUOUS
  0
ENDTAB
  0
TABLE
  2
STYLE
 70
1
  0
STYLE
  2
STANDARD
 70
0
 40
0.0
 41
0.75
 50
0.0
 71
0
 42
0.2
  3
txt
  4

  0
STYLE
  2
TEXTSTYLE_1
 70
0
 40
0.0
 41
0.8
 50
0.0
 71
0
 42
0.2
  3
gdt
  4

  0
ENDTAB
  0
ENDSEC
  0
SECTION
  2
BLOCKS
  0
ENDSEC
  0
SECTION
  2
ENTITIES
  0
POLYLINE
  8
0
 62
7
  6
CONTINUOUS
 66
1
 70
0
  0
VERTEX
  8
0
 62
7
  6
CONTINUOUS
 10
369.275392042
 20
-155.4009805629
  0
VERTEX
  8
0
 62
7
  6
CONTINUOUS
 10
369.3513643395
 20
-155.3999772925
  0
VERTEX
  8
0
 62
7
  6
CONTINUOUS
 10
369.4316513215
 20
-155.3967015073
  0
VERTEX
  8
0
 62
7
  6
CONTINUOUS
 10
369.5150944502
 20
-155.3908242439
  0
VERTEX
  8
0
 62
7
  6
CONTINUOUS
 10
369.6035996695
 20
-155.3817627237
  0
VERTEX
  8
0
 62
7
  6
CONTINUOUS
 10
369.6984323666
 20
-155.3687300236
  0
VERTEX
  8
0
 62
7
  6
CONTINUOUS
 10
369.799319167
 20
-155.3509731074
  0
VERTEX
  8
0
 62
7
  6
CONTINUOUS
 10
369.9062262223
 20
-155.3276286137
  0
VERTEX
  8
0
 62
7
  6
CONTINUOUS
 10
370.0191756788
 20
-155.297715932
  0
VERTEX
  8
0
 62
7
  6
CONTINUOUS
 10
370.1381915317
 20
-155.260127255
  0
VERTEX
  8
0
 62
7
  6
CONTINUOUS
 10
370.2627013376
 20
-155.2138477615
  0
VERTEX
  8
0
 62
7
  6
CONTINUOUS
 10
370.3923842638
 20
-155.1577285938
  0
VERTEX
  8
0
 62
7
  6
CONTINUOUS
 10
370.5263114721
 20
-155.0908660536
  0
VERTEX
  8
0
 62
7
  6
CONTINUOUS
 10
370.6638743108
 20
-155.0122572635
  0
VERTEX
  8
0
 62
7
  6
CONTINUOUS
 10
370.8039889678
 20
-154.9212484841
  0
VERTEX
  8
0
 62
7
  6
CONTINUOUS
 10
370.9458335392
 20
-154.8171811971
  0
VERTEX
  8
0
 62
7
  6
CONTINUOUS
 10
371.0885340548
 20
-154.6995872678
  0
VERTEX
  8
0
 62
7
  6
CONTINUOUS
 10
371.2313102911
 20
-154.5681046919
  0
VERTEX
  8
0
 62
7
  6
CONTINUOUS
 10
371.3736166463
 20
-154.4223141027
  0
VERTEX
  8
0
 62
7
  6
CONTINUOUS
 10
371.5148758601
 20
-154.2619588935
  0
VERTEX
  8
0
 62
7
  6
CONTINUOUS
 10
371.6547912367
 20
-154.0865773324
  0
VERTEX
  8
0
 62
7
  6
CONTINUOUS
 10
371.792987376
 20
-153.8958685473
  0
VERTEX
  8
0
 62
7
  6
CONTINUOUS
 10
371.9293103622
 20
-153.6892805845
  0
VERTEX
  8
0
 62
7
  6
CONTINUOUS
 10
372.0635242117
 20
-153.4663900059
  0
VERTEX
  8
0
 62
7
  6
CONTINUOUS
 10
372.1955332038
 20
-153.2265438694
  0
VERTEX
  8
0
 62
7
  6
CONTINUOUS
 10
372.3251719746
 20
-152.9691801354
  0
VERTEX
  8
0
 62
7
  6
CONTINUOUS
 10
372.452355133
 20
-152.6935443219
  0
VERTEX
  8
0
 62
7
  6
CONTINUOUS
 10
372.5769395623
 20
-152.3989452452
  0
VERTEX
  8
0
 62
7
  6
CONTINUOUS
 10
372.6988273212
 20
-152.0845252169
  0
VERTEX
  8
0
 62
7
  6
CONTINUOUS
 10
372.8178704054
 20
-151.7494744553
  0
VERTEX
  8
0
 62
7
  6
CONTINUOUS
 10
372.9339471661
 20
-151.3928293357
  0
VERTEX
  8
0
 62
7
  6
CONTINUOUS
 10
373.0469880909
 20
-151.0133249562
  0
VERTEX
  8
0
 62
7
  6
CONTINUOUS
 10
373.1456410318
 20
-150.6509805629
  0
SEQEND
  0
POLYLINE
  8
0
 62
9
  6
CONTINUOUS
 66
1
 70
0
  0
VERTEX
  8
0
 62
9
  6
CONTINUOUS
 10
369.275392042
 20
-154.4009805629
  0
VERTEX
  8
0
 62
9
  6
CONTINUOUS
 10
369.3238150474
 20
-154.4004581031
  0
VERTEX
  8
0
 62
9
  6
CONTINUOUS
 10
369.3740332771
 20
-154.3983579132
  0
VERTEX
  8
0
 62
9
  6
CONTINUOUS
 10
369.425752441
 20
-154.394849664
  0
VERTEX
  8
0
 62
9
  6
CONTINUOUS
 10
369.479855409
 20
-154.3894243431
  0
VERTEX
  8
0
 62
9
  6
CONTINUOUS
 10
369.5371845415
 20
-154.3817945137
  0
VERTEX
  8
0
 62
9
  6
CONTINUOUS
 10
369.5975670765
 20
-154.3714651191
  0
VERTEX
  8
0
 62
9
  6
CONTINUOUS
 10
369.6610469588
 20
-154.3580707759
  0
VERTEX
  8
0
 62
9
  6
CONTINUOUS
 10
369.7278164283
 20
-154.3409350267
  0
VERTEX
  8
0
 62
9
  6
CONTINUOUS
 10
369.7980484897
 20
-154.3195420354
  0
VERTEX
  8
0
 62
9
  6
CONTINUOUS
 10
369.8718447928
 20
-154.2930445546
  0
VERTEX
  8
0
 62
9
  6
CONTINUOUS
 10
369.9493532492
 20
-154.2607574225
  0
VERTEX
  8
0
 62
9
  6
CONTINUOUS
 10
370.0306080782
 20
-154.2216785454
  0
VERTEX
  8
0
 62
9
  6
CONTINUOUS
 10
370.1157403781
 20
-154.1749245655
  0
VERTEX
  8
0
 62
9
  6
CONTINUOUS
 10
370.2046074233
 20
-154.1194541141
  0
VERTEX
  8
0
 62
9
  6
CONTINUOUS
 10
370.29721392
 20
-154.0542526605
  0
VERTEX
  8
0
 62
9
  6
CONTINUOUS
 10
370.3932486714
 20
-153.9783563323
  0
VERTEX
  8
0
 62
9
  6
CONTINUOUS
 10
370.4925390544
 20
-153.8907401202
  0
VERTEX
  8
0
 62
9
  6
CONTINUOUS
 10
370.5946740541
 20
-153.7905729043
  0
VERTEX
  8
0
 62
9
  6
CONTINUOUS
 10
370.699330587
 20
-153.6769189241
  0
VERTEX
  8
0
 62
9
  6
CONTINUOUS
 10
370.8060722352
 20
-153.5490670918
  0
VERTEX
  8
0
 62
9
  6
CONTINUOUS
 10
370.9144908184
 20
-153.406211005
  0
VERTEX
  8
0
 62
9
  6
CONTINUOUS
 10
371.0241785393
 20
-153.2477008474
  0
VERTEX
  8
0
 62
9
  6
CONTINUOUS
 10
371.1347122248
 20
-153.0728338767
  0
VERTEX
  8
0
 62
9
  6
CONTINUOUS
 10
371.2457298219
 20
-152.8809624694
  0
VERTEX
  8
0
 62
9
  6
CONTINUOUS
 10
371.3568354232
 20
-152.6714335029
  0
VERTEX
  8
0
 62
9
  6
CONTINUOUS
 10
371.4677074198
 20
-152.4435607334
  0
VERTEX
  8
0
 62
9
  6
CONTINUOUS
 10
371.5779898617
 20
-152.1966908534
  0
VERTEX
  8
0
 62
9
  6
CONTINUOUS
 10
371.6873898651
 20
-151.9300719316
  0
VERTEX
  8
0
 62
9
  6
CONTINUOUS
 10
371.7955897246
 20
-151.6430129276
  0
VERTEX
  8
0
 62
9
  6
CONTINUOUS
 10
371.9023079543
 20
-151.3346778615
  0
VERTEX
  8
0
 62
9
  6
CONTINUOUS
 10
372.0071087426
 20
-151.0038671157
  0
VERTEX
  8
0
 62
9
  6
CONTINUOUS
 10
372.1101373602
 20
-150.6509805629
  0
SEQEND
  0
LINE
  8
0
 62
7
  6
CONTINUOUS
 10
349.275392042
 20
-155.4009805629
 11
369.275392042
 21
-155.4009805629
  0
POLYLINE
  8
0
 62
7
  6
CONTINUOUS
 66
1
 70
0
  0
VERTEX
  8
0
 62
7
  6
CONTINUOUS
 10
-107.974607958
 20
-48.1509805629
  0
VERTEX
  8
0
 62
7
  6
CONTINUOUS
 10
-107.9736049733
 20
-48.226942085
  0
VERTEX
  8
0
 62
7
  6
CONTINUOUS
 10
-107.9703298123
 20
-48.3072233608
  0
VERTEX
  8
0
 62
7
  6
CONTINUOUS
 10
-107.9644530335
 20
-48.3906667173
  0
VERTEX
  8
0
 62
7
  6
CONTINUOUS
 10
-107.955391807
 20
-48.4791740188
  0
VERTEX
  8
0
 62
7
  6
CONTINUOUS
 10
-107.9423595857
 20
-48.5740069893
  0
VERTEX
  8
0
 62
7
  6
CONTINUOUS
 10
-107.9246032742
 20
-48.6748935701
  0
VERTEX
  8
0
 62
7
  6
CONTINUOUS
 10
-107.9012595643
 20
-48.7817999698
  0
VERTEX
  8
0
 62
7
  6
CONTINUOUS
 10
-107.8713478844
 20
-48.8947484477
  0
VERTEX
  8
0
 62
7
  6
CONTINUOUS
 10
-107.8337604477
 20
-49.0137631361
  0
VERTEX
  8
0
 62
7
  6
CONTINUOUS
 10
-107.7874825053
 20
-49.1382715376
  0
VERTEX
  8
0
 62
7
  6
CONTINUOUS
 10
-107.7313653084
 20
-49.2679527381
  0
VERTEX
  8
0
 62
7
  6
CONTINUOUS
 10
-107.6645051113
 20
-49.4018781611
  0
VERTEX
  8
0
 62
7
  6
CONTINUOUS
 10
-107.5858989363
 20
-49.5394394015
  0
VERTEX
  8
0
 62
7
  6
CONTINUOUS
 10
-107.4948931603
 20
-49.6795524611
  0
VERTEX
  8
0
 62
7
  6
CONTINUOUS
 10
-107.3908295434
 20
-49.8213951222
  0
VERTEX
  8
0
 62
7
  6
CONTINUOUS
 10
-107.2732394501
 20
-49.9640941297
  0
VERTEX
  8
0
 62
7
  6
CONTINUOUS
 10
-107.1417602751
 20
-50.1068697986
  0
VERTEX
  8
0
 62
7
  6
CONTINUOUS
 10
-106.9959727144
 20
-50.2491762274
  0
VERTEX
  8
0
 62
7
  6
CONTINUOUS
 10
-106.8356199587
 20
-50.3904361604
  0
VERTEX
  8
0
 62
7
  6
CONTINUOUS
 10
-106.660240504
 20
-50.5303525602
  0
VERTEX
  8
0
 62
7
  6
CONTINUOUS
 10
-106.4695338494
 20
-50.6685496871
  0
VERTEX
  8
0
 62
7
  6
CONTINUOUS
 10
-106.2629476568
 20
-50.8048738744
  0
VERTEX
  8
0
 62
7
  6
CONTINUOUS
 10
-106.0400582228
 20
-50.9390892325
  0
VERTEX
  8
0
 62
7
  6
CONTINUOUS
 10
-105.8002124776
 20
-51.0711000241
  0
VERTEX
  8
0
 62
7
  6
CONTINUOUS
 10
-105.5428481738
 20
-51.2007409
  0
VERTEX
  8
0
 62
7
  6
CONTINUOUS
 10
-105.2672107463
 20
-51.3279264114
  0
VERTEX
  8
0
 62
7
  6
CONTINUOUS
 10
-104.9726089045
 20
-51.4525133977
  0
VERTEX
  8
0
 62
7
  6
CONTINUOUS
 10
-104.6581848186
 20
-51.5744038871
  0
VERTEX
  8
0
 62
7
  6
CONTINUOUS
 10
-104.3231285858
 20
-51.6934498324
  0
VERTEX
  8
0
 62
7
  6
CONTINUOUS
 10
-103.9664763968
 20
-51.8095295619
  0
VERTEX
  8
0
 62
7
  6
CONTINUOUS
 10
-103.5869631198
 20
-51.9225735443
  0
VERTEX
  8
0
 62
7
  6
CONTINUOUS
 10
-103.2244971627
 20
-52.0212597051
  0
SEQEND
  0
POLYLINE
  8
0
 62
9
  6
CONTINUOUS
 66
1
 70
0
  0
VERTEX
  8
0
 62
9
  6
CONTINUOUS
 10
-106.974607958
 20
-48.1509805629
  0
VERTEX
  8
0
 62
9
  6
CONTINUOUS
 10
-106.9740857849
 20
-48.1993969671
  0
VERTEX
  8
0
 62
9
  6
CONTINUOUS
 10
-106.9719858611
 20
-48.2496115245
  0
VERTEX
  8
0
 62
9
  6
CONTINUOUS
 10
-106.9684778485
 20
-48.3013307244
  0
VERTEX
  8
0
 62
9
  6
CONTINUOUS
 10
-106.963052761
 20
-48.3554350987
  0
VERTEX
  8
0
 62
9
  6
CONTINUOUS
 10
-106.9554231672
 20
-48.4127647093
  0
VERTEX
  8
0
 62
9
  6
CONTINUOUS
 10
-106.9450940649
 20
-48.4731474546
  0
VERTEX
  8
0
 62
9
  6
CONTINUOUS
 10
-106.9317001256
 20
-48.5366271127
  0
VERTEX
  8
0
 62
9
  6
CONTINUOUS
 10
-106.9145648966
 20
-48.6033961071
  0
VERTEX
  8
0
 62
9
  6
CONTINUOUS
 10
-106.8931725334
 20
-48.6736276165
  0
VERTEX
  8
0
 62
9
  6
CONTINUOUS
 10
-106.8666758826
 20
-48.7474231535
  0
VERTEX
  8
0
 62
9
  6
CONTINUOUS
 10
-106.8343898816
 20
-48.8249304895
  0
VERTEX
  8
0
 62
9
  6
CONTINUOUS
 10
-106.7953124126
 20
-48.9061840267
  0
VERTEX
  8
0
 62
9
  6
CONTINUOUS
 10
-106.7485600974
 20
-48.9913150302
  0
VERTEX
  8
0
 62
9
  6
CONTINUOUS
 10
-106.6930916544
 20
-49.0801806826
  0
VERTEX
  8
0
 62
9
  6
CONTINUOUS
 10
-106.6278927475
 20
-49.1727855188
  0
VERTEX
  8
0
 62
9
  6
CONTINUOUS
 10
-106.5519991619
 20
-49.2688187472
  0
VERTEX
  8
0
 62
9
  6
CONTINUOUS
 10
-106.4643856514
 20
-49.3681081139
  0
VERTEX
  8
0
 62
9
  6
CONTINUOUS
 10
-106.3642209743
 20
-49.4702425405
  0
VERTEX
  8
0
 62
9
  6
CONTINUOUS
 10
-106.2505691076
 20
-49.5748990864
  0
VERTEX
  8
0
 62
9
  6
CONTINUOUS
 10
-106.1227191482
 20
-49.6816410846
  0
VERTEX
  8
0
 62
9
  6
CONTINUOUS
 10
-105.9798648582
 20
-49.7900601172
  0
VERTEX
  8
0
 62
9
  6
CONTINUOUS
 10
-105.8213562196
 20
-49.899748496
  0
VERTEX
  8
0
 62
9
  6
CONTINUOUS
 10
-105.6464904264
 20
-50.0102830609
  0
VERTEX
  8
0
 62
9
  6
CONTINUOUS
 10
-105.4546196047
 20
-50.12130181
  0
VERTEX
  8
0
 62
9
  6
CONTINUOUS
 10
-105.2450903988
 20
-50.2324089094
  0
VERTEX
  8
0
 62
9
  6
CONTINUOUS
 10
-105.0172164488
 20
-50.3432826953
  0
VERTEX
  8
0
 62
9
  6
CONTINUOUS
 10
-104.7703443005
 20
-50.4535672006
  0
VERTEX
  8
0
 62
9
  6
CONTINUOUS
 10
-104.5037218804
 20
-50.5629695009
  0
VERTEX
  8
0
 62
9
  6
CONTINUOUS
 10
-104.2166575919
 20
-50.6711718261
  0
VERTEX
  8
0
 62
9
  6
CONTINUOUS
 10
-103.9083165505
 20
-50.7778927461
  0
VERTEX
  8
0
 62
9
  6
CONTINUOUS
 10
-103.5775001621
 20
-50.8826964887
  0
VERTEX
  8
0
 62
9
  6
CONTINUOUS
 10
-103.224607958
 20
-50.9857283112
  0
SEQEND
  0
LINE
  8
0
 62
7
  6
CONTINUOUS
 10
-107.974607958
 20
-28.1509805629
 11
-107.974607958
 21
-48.1509805629
  0
LINE
  8
0
 62
9
  6
CONTINUOUS
 10
-106.974607958
 20
-28.1509805629
 11
-106.974607958
 21
-48.1509805629
  0
LINE
  8
0
 62
7
  6
CONTINUOUS
 10
-104.474607958
 20
-46.6509805629
 11
-104.474607958
 21
-29.6509805629
  0
LINE
  8
0
 62
7
  6
CONTINUOUS
 10
-103.224607958
 20
415.5990194371
 11
-103.224607958
 21
319.3490194371
  0
LINE
  8
0
 62
7
  6
CONTINUOUS
 10
-103.224607958
 20
-46.6509805629
 11
-103.224607958
 21
-106.9009805629
  0
LINE
  8
0
 62
7
  6
CONTINUOUS
 10
-103.224607958
 20
-29.6509805629
 11
-103.224607958
 21
123.0990194371
  0
LINE
  8
0
 62
9
  6
CONTINUOUS
 10
349.275392042
 20
-154.4009805629
 11
369.275392042
 21
-154.4009805629
  0
LINE
  8
0
 62
7
  6
CONTINUOUS
 10
350.775392042
 20
-151.9009805629
 11
367.775392042
 21
-151.9009805629
  0
LINE
  8
0
 62
7
  6
CONTINUOUS
 10
428.025392042
 20
-150.6509805629
 11
367.775392042
 21
-150.6509805629
  0
LINE
  8
0
 62
7
  6
CONTINUOUS
 10
-59.474607958
 20
-150.6509805629
 11
350.775392042
 21
-150.6509805629
  0
LINE
  8
0
 62
9
  6
CONTINUOUS
 10
-57.0835444125
 20
-50.5824800048
 11
-61.4804797646
 21
-39.435230842
  0
LINE
  8
0
 62
7
  6
CONTINUOUS
 10
-56.1532953249
 20
-50.2155513536
 11
-60.550230677
 21
-39.0683021908
  0
POLYLINE
  8
0
 62
7
  6
CONTINUOUS
 66
1
 70
0
  0
VERTEX
  8
0
 62
7
  6
CONTINUOUS
 10
-73.474607958
 20
-28.1509805629
  0
VERTEX
  8
0
 62
7
  6
CONTINUOUS
 10
-73.4756112289
 20
-28.0750082513
  0
VERTEX
  8
0
 62
7
  6
CONTINUOUS
 10
-73.4788870149
 20
-27.994721261
  0
VERTEX
  8
0
 62
7
  6
CONTINUOUS
 10
-73.4847642791
 20
-27.9112781307
  0
VERTEX
  8
0
 62
7
  6
CONTINUOUS
 10
-73.4938258
 20
-27.8227729124
  0
VERTEX
  8
0
 62
7
  6
CONTINUOUS
 10
-73.5068585009
 20
-27.7279402157
  0
VERTEX
  8
0
 62
7
  6
CONTINUOUS
 10
-73.5246154179
 20
-27.6270534156
  0
VERTEX
  8
0
 62
7
  6
CONTINUOUS
 10
-73.5479599127
 20
-27.52014636
  0
VERTEX
  8
0
 62
7
  6
CONTINUOUS
 10
-73.5778725957
 20
-27.4071969029
  0
VERTEX
  8
0
 62
7
  6
CONTINUOUS
 10
-73.615461274
 20
-27.28818105
  0
VERTEX
  8
0
 62
7
  6
CONTINUOUS
 10
-73.6617407688
 20
-27.163671244
  0
VERTEX
  8
0
 62
7
  6
CONTINUOUS
 10
-73.7178599383
 20
-27.0339883172
  0
VERTEX
  8
0
 62
7
  6
CONTINUOUS
 10
-73.7847224804
 20
-26.9000611085
  0
VERTEX
  8
0
 62
7
  6
CONTINUOUS
 10
-73.8633312723
 20
-26.7624982697
  0
VERTEX
  8
0
 62
7
  6
CONTINUOUS
 10
-73.9543400536
 20
-26.622383613
  0
VERTEX
  8
0
 62
7
  6
CONTINUOUS
 10
-74.0584073423
 20
-26.480539042
  0
VERTEX
  8
0
 62
7
  6
CONTINUOUS
 10
-74.1760012733
 20
-26.337838527
  0
VERTEX
  8
0
 62
7
  6
CONTINUOUS
 10
-74.3074838512
 20
-26.1950622911
  0
VERTEX
  8
0
 62
7
  6
CONTINUOUS
 10
-74.4532744423
 20
-26.0527559364
  0
VERTEX
  8
0
 62
7
  6
CONTINUOUS
 10
-74.6136296532
 20
-25.9114967232
  0
VERTEX
  8
0
 62
7
  6
CONTINUOUS
 10
-74.7890112158
 20
-25.7715813475
  0
VERTEX
  8
0
 62
7
  6
CONTINUOUS
 10
-74.9797200021
 20
-25.6333852092
  0
VERTEX
  8
0
 62
7
  6
CONTINUOUS
 10
-75.1863079657
 20
-25.4970622243
  0
VERTEX
  8
0
 62
7
  6
CONTINUOUS
 10
-75.4091985447
 20
-25.3628483761
  0
VERTEX
  8
0
 62
7
  6
CONTINUOUS
 10
-75.649044681
 20
-25.2308393856
  0
VERTEX
  8
0
 62
7
  6
CONTINUOUS
 10
-75.9064084142
 20
-25.1012006164
  0
VERTEX
  8
0
 62
7
  6
CONTINUOUS
 10
-76.1820442263
 20
-24.9740174599
  0
VERTEX
  8
0
 62
7
  6
CONTINUOUS
 10
-76.4766433008
 20
-24.8494330325
  0
VERTEX
  8
0
 62
7
  6
CONTINUOUS
 10
-76.791063326
 20
-24.7275452755
  0
VERTEX
  8
0
 62
7
  6
CONTINUOUS
 10
-77.1261140838
 20
-24.6085021934
  0
VERTEX
  8
0
 62
7
  6
CONTINUOUS
 10
-77.4827591984
 20
-24.4924254347
  0
VERTEX
  8
0
 62
7
  6
CONTINUOUS
 10
-77.862263572
 20
-24.3793845119
  0
VERTEX
  8
0
 62
7
  6
CONTINUOUS
 10
-78.2247187499
 20
-24.2807014085
  0
SEQEND
  0
POLYLINE
  8
0
 62
9
  6
CONTINUOUS
 66
1
 70
0
  0
VERTEX
  8
0
 62
9
  6
CONTINUOUS
 10
-74.474607958
 20
-28.1509805629
  0
VERTEX
  8
0
 62
9
  6
CONTINUOUS
 10
-74.4751304188
 20
-28.10255752
  0
VERTEX
  8
0
 62
9
  6
CONTINUOUS
 10
-74.4772306118
 20
-28.0523392533
  0
VERTEX
  8
0
 62
9
  6
CONTINUOUS
 10
-74.480738866
 20
-28.0006200537
  0
VERTEX
  8
0
 62
9
  6
CONTINUOUS
 10
-74.486164195
 20
-27.9465170486
  0
VERTEX
  8
0
 62
9
  6
CONTINUOUS
 10
-74.4937940357
 20
-27.8891878749
  0
VERTEX
  8
0
 62
9
  6
CONTINUOUS
 10
-74.5041234464
 20
-27.8288052948
  0
VERTEX
  8
0
 62
9
  6
CONTINUOUS
 10
-74.5175178112
 20
-27.7653253622
  0
VERTEX
  8
0
 62
9
  6
CONTINUOUS
 10
-74.5346535891
 20
-27.6985558378
  0
VERTEX
  8
0
 62
9
  6
CONTINUOUS
 10
-74.5560466172
 20
-27.628323717
  0
VERTEX
  8
0
 62
9
  6
CONTINUOUS
 10
-74.5825441453
 20
-27.5545273495
  0
VERTEX
  8
0
 62
9
  6
CONTINUOUS
 10
-74.614831337
 20
-27.4770188229
  0
VERTEX
  8
0
 62
9
  6
CONTINUOUS
 10
-74.653910288
 20
-27.3957639187
  0
VERTEX
  8
0
 62
9
  6
CONTINUOUS
 10
-74.7006643583
 20
-27.3106315389
  0
VERTEX
  8
0
 62
9
  6
CONTINUOUS
 10
-74.7561349183
 20
-27.2217644102
  0
VERTEX
  8
0
 62
9
  6
CONTINUOUS
 10
-74.8213365005
 20
-27.1291578272
  0
VERTEX
  8
0
 62
9
  6
CONTINUOUS
 10
-74.8972329785
 20
-27.0331229878
  0
VERTEX
  8
0
 62
9
  6
CONTINUOUS
 10
-74.9848493631
 20
-26.9338325162
  0
VERTEX
  8
0
 62
9
  6
CONTINUOUS
 10
-75.085016775
 20
-26.8316974284
  0
VERTEX
  8
0
 62
9
  6
CONTINUOUS
 10
-75.1986709757
 20
-26.7270408088
  0
VERTEX
  8
0
 62
9
  6
CONTINUOUS
 10
-75.3265230536
 20
-26.6202990764
  0
VERTEX
  8
0
 62
9
  6
CONTINUOUS
 10
-75.469379412
 20
-26.5118804122
  0
VERTEX
  8
0
 62
9
  6
CONTINUOUS
 10
-75.627889868
 20
-26.4021926139
  0
VERTEX
  8
0
 62
9
  6
CONTINUOUS
 10
-75.8027571648
 20
-26.2916588554
  0
VERTEX
  8
0
 62
9
  6
CONTINUOUS
 10
-75.9946289268
 20
-26.1806411899
  0
VERTEX
  8
0
 62
9
  6
CONTINUOUS
 10
-76.2041582779
 20
-26.0695355254
  0
VERTEX
  8
0
 62
9
  6
CONTINUOUS
 10
-76.432031463
 20
-25.9586634711
  0
VERTEX
  8
0
 62
9
  6
CONTINUOUS
 10
-76.6789017911
 20
-25.8483809772
  0
VERTEX
  8
0
 62
9
  6
CONTINUOUS
 10
-76.9455211952
 20
-25.738980928
  0
VERTEX
  8
0
 62
9
  6
CONTINUOUS
 10
-77.2325811492
 20
-25.6307809077
  0
VERTEX
  8
0
 62
9
  6
CONTINUOUS
 10
-77.5409163391
 20
-25.5240627668
  0
VERTEX
  8
0
 62
9
  6
CONTINUOUS
 10
-77.8717250892
 20
-25.4192626813
  0
VERTEX
  8
0
 62
9
  6
CONTINUOUS
 10
-78.224607958
 20
-25.3162352591
  0
SEQEND
  0
LINE
  8
0
 62
7
  6
CONTINUOUS
 10
-78.224607958
 20
415.5990194371
 11
-78.224607958
 21
319.3490194371
  0
LINE
  8
0
 62
7
  6
CONTINUOUS
 10
-78.224607958
 20
-106.9009805629
 11
-78.224607958
 21
-46.6509805629
  0
LINE
  8
0
 62
7
  6
CONTINUOUS
 10
-78.224607958
 20
-29.6509805629
 11
-78.224607958
 21
123.0990194371
  0
LINE
  8
0
 62
7
  6
CONTINUOUS
 10
-76.974607958
 20
-46.6509805629
 11
-76.974607958
 21
-29.6509805629
  0
LINE
  8
0
 62
9
  6
CONTINUOUS
 10
-74.474607958
 20
-48.1509805629
 11
-74.474607958
 21
-28.1509805629
  0
LINE
  8
0
 62
7
  6
CONTINUOUS
 10
-73.474607958
 20
-48.1509805629
 11
-73.474607958
 21
-28.1509805629
  0
POLYLINE
  8
0
 62
7
  6
CONTINUOUS
 66
1
 70
0
  0
VERTEX
  8
0
 62
7
  6
CONTINUOUS
 10
349.275392042
 20
-120.9009805629
  0
VERTEX
  8
0
 62
7
  6
CONTINUOUS
 10
349.1994305094
 20
-120.901983548
  0
VERTEX
  8
0
 62
7
  6
CONTINUOUS
 10
349.1191492274
 20
-120.9052587096
  0
VERTEX
  8
0
 62
7
  6
CONTINUOUS
 10
349.0357058694
 20
-120.9111354891
  0
VERTEX
  8
0
 62
7
  6
CONTINUOUS
 10
348.9471985685
 20
-120.9201967161
  0
VERTEX
  8
0
 62
7
  6
CONTINUOUS
 10
348.8523655985
 20
-120.933228938
  0
VERTEX
  8
0
 62
7
  6
CONTINUOUS
 10
348.751479018
 20
-120.9509852501
  0
VERTEX
  8
0
 62
7
  6
CONTINUOUS
 10
348.6445726179
 20
-120.9743289608
  0
VERTEX
  8
0
 62
7
  6
CONTINUOUS
 10
348.5316241396
 20
-121.0042406417
  0
VERTEX
  8
0
 62
7
  6
CONTINUOUS
 10
348.4126094512
 20
-121.0418280793
  0
VERTEX
  8
0
 62
7
  6
CONTINUOUS
 10
348.2881010497
 20
-121.0881060227
  0
VERTEX
  8
0
 62
7
  6
CONTINUOUS
 10
348.1584198488
 20
-121.1442232209
  0
VERTEX
  8
0
 62
7
  6
CONTINUOUS
 10
348.0244944254
 20
-121.2110834195
  0
VERTEX
  8
0
 62
7
  6
CONTINUOUS
 10
347.886933185
 20
-121.2896895959
  0
VERTEX
  8
0
 62
7
  6
CONTINUOUS
 10
347.7468201256
 20
-121.3806953732
  0
VERTEX
  8
0
 62
7
  6
CONTINUOUS
 10
347.6049774649
 20
-121.4847589915
  0
VERTEX
  8
0
 62
7
  6
CONTINUOUS
 10
347.4622784578
 20
-121.6023490861
  0
VERTEX
  8
0
 62
7
  6
CONTINUOUS
 10
347.3195027891
 20
-121.7338282625
  0
VERTEX
  8
0
 62
7
  6
CONTINUOUS
 10
347.1771963607
 20
-121.8796158246
  0
VERTEX
  8
0
 62
7
  6
CONTINUOUS
 10
347.0359364283
 20
-122.0399685816
  0
VERTEX
  8
0
 62
7
  6
CONTINUOUS
 10
346.896020029
 20
-122.2153480375
  0
VERTEX
  8
0
 62
7
  6
CONTINUOUS
 10
346.7578229029
 20
-122.4060546931
  0
VERTEX
  8
0
 62
7
  6
CONTINUOUS
 10
346.6214987166
 20
-122.6126408862
  0
VERTEX
  8
0
 62
7
  6
CONTINUOUS
 10
346.4872833595
 20
-122.8355303205
  0
VERTEX
  8
0
 62
7
  6
CONTINUOUS
 10
346.355272569
 20
-123.0753760656
  0
VERTEX
  8
0
 62
7
  6
CONTINUOUS
 10
346.2256316945
 20
-123.3327403688
  0
VERTEX
  8
0
 62
7
  6
CONTINUOUS
 10
346.0984461844
 20
-123.6083777952
  0
VERTEX
  8
0
 62
7
  6
CONTINUOUS
 10
345.9738591995
 20
-123.9029796353
  0
VERTEX
  8
0
 62
7
  6
CONTINUOUS
 10
345.8519687116
 20
-124.217403719
  0
VERTEX
  8
0
 62
7
  6
CONTINUOUS
 10
345.7329227678
 20
-124.5524599488
  0
VERTEX
  8
0
 62
7
  6
CONTINUOUS
 10
345.6168430399
 20
-124.9091121341
  0
VERTEX
  8
0
 62
7
  6
CONTINUOUS
 10
345.5037990591
 20
-125.2886254066
  0
VERTEX
  8
0
 62
7
  6
CONTINUOUS
 10
345.4051430653
 20
-125.6509805629
  0
SEQEND
  0
POLYLINE
  8
0
 62
9
  6
CONTINUOUS
 66
1
 70
0
  0
VERTEX
  8
0
 62
9
  6
CONTINUOUS
 10
349.275392042
 20
-121.9009805629
  0
VERTEX
  8
0
 62
9
  6
CONTINUOUS
 10
349.2269756602
 20
-121.9015027358
  0
VERTEX
  8
0
 62
9
  6
CONTINUOUS
 10
349.1767611302
 20
-121.9036026572
  0
VERTEX
  8
0
 62
9
  6
CONTINUOUS
 10
349.1250419625
 20
-121.9071106657
  0
VERTEX
  8
0
 62
9
  6
CONTINUOUS
 10
349.0709376255
 20
-121.9125357461
  0
VERTEX
  8
0
 62
9
  6
CONTINUOUS
 10
349.0136080575
 20
-121.9201653292
  0
VERTEX
  8
0
 62
9
  6
CONTINUOUS
 10
348.953225359
 20
-121.9304944163
  0
VERTEX
  8
0
 62
9
  6
CONTINUOUS
 10
348.8897457503
 20
-121.9438883354
  0
VERTEX
  8
0
 62
9
  6
CONTINUOUS
 10
348.8229768094
 20
-121.9610235373
  0
VERTEX
  8
0
 62
9
  6
CONTINUOUS
 10
348.7527453588
 20
-121.9824158651
  0
VERTEX
  8
0
 62
9
  6
CONTINUOUS
 10
348.6789498852
 20
-122.0089124706
  0
VERTEX
  8
0
 62
9
  6
CONTINUOUS
 10
348.6014426169
 20
-122.041198415
  0
VERTEX
  8
0
 62
9
  6
CONTINUOUS
 10
348.5201891518
 20
-122.0802758137
  0
VERTEX
  8
0
 62
9
  6
CONTINUOUS
 10
348.4350582253
 20
-122.1270280428
  0
VERTEX
  8
0
 62
9
  6
CONTINUOUS
 10
348.3461926537
 20
-122.182496382
  0
VERTEX
  8
0
 62
9
  6
CONTINUOUS
 10
348.2535879019
 20
-122.2476951651
  0
VERTEX
  8
0
 62
9
  6
CONTINUOUS
 10
348.1575547601
 20
-122.3235886058
  0
VERTEX
  8
0
 62
9
  6
CONTINUOUS
 10
348.0582654813
 20
-122.4112019483
  0
VERTEX
  8
0
 62
9
  6
CONTINUOUS
 10
347.9561311427
 20
-122.5113664339
  0
VERTEX
  8
0
 62
9
  6
CONTINUOUS
 10
347.8514746837
 20
-122.6250180842
  0
VERTEX
  8
0
 62
9
  6
CONTINUOUS
 10
347.7447327705
 20
-122.7528678018
  0
VERTEX
  8
0
 62
9
  6
CONTINUOUS
 10
347.63631382
 20
-122.895721824
  0
VERTEX
  8
0
 62
9
  6
CONTINUOUS
 10
347.5266255198
 20
-123.0542301677
  0
VERTEX
  8
0
 62
9
  6
CONTINUOUS
 10
347.4160910293
 20
-123.2290956383
  0
VERTEX
  8
0
 62
9
  6
CONTINUOUS
 10
347.3050723501
 20
-123.4209661081
  0
VERTEX
  8
0
 62
9
  6
CONTINUOUS
 10
347.1939653159
 20
-123.6304949319
  0
VERTEX
  8
0
 62
9
  6
CONTINUOUS
 10
347.08309159
 20
-123.8583684679
  0
VERTEX
  8
0
 62
9
  6
CONTINUOUS
 10
346.9728071392
 20
-124.1052401688
  0
VERTEX
  8
0
 62
9
  6
CONTINUOUS
 10
346.8634048876
 20
-124.371862106
  0
VERTEX
  8
0
 62
9
  6
CONTINUOUS
 10
346.7552027239
 20
-124.6589254457
  0
VERTEX
  8
0
 62
9
  6
CONTINUOUS
 10
346.648481721
 20
-124.9672663564
  0
VERTEX
  8
0
 62
9
  6
CONTINUOUS
 10
346.5436772943
 20
-125.2980847152
  0
VERTEX
  8
0
 62
9
  6
CONTINUOUS
 10
346.4406443054
 20
-125.6509805629
  0
SEQEND
  0
LINE
  8
0
 62
7
  6
CONTINUOUS
 10
428.025392042
 20
-125.6509805629
 11
367.775392042
 21
-125.6509805629
  0
LINE
  8
0
 62
7
  6
CONTINUOUS
 10
350.775392042
 20
-125.6509805629
 11
-59.474607958
 21
-125.6509805629
  0
LINE
  8
0
 62
7
  6
CONTINUOUS
 10
350.775392042
 20
-124.4009805629
 11
367.775392042
 21
-124.4009805629
  0
LINE
  8
0
 62
9
  6
CONTINUOUS
 10
369.275392042
 20
-121.9009805629
 11
349.275392042
 21
-121.9009805629
  0
LINE
  8
0
 62
7
  6
CONTINUOUS
 10
369.275392042
 20
-120.9009805629
 11
349.275392042
 21
-120.9009805629
  0
LINE
  8
0
 62
9
  6
CONTINUOUS
 10
337.275392042
 20
-111.0216606304
 11
336.2753920421
 21
-111.0216606304
  0
LINE
  8
0
 62
9
  6
CONTINUOUS
 10
381.275392042
 20
-111.0216606304
 11
382.275392042
 21
-111.0216606305
  0
LINE
  8
0
 62
9
  6
CONTINUOUS
 10
471.775392042
 20
-106.9009805629
 11
446.775392042
 21
-106.9009805629
  0
LINE
  8
0
 62
9
  6
CONTINUOUS
 10
-103.224607958
 20
-106.9009805629
 11
-78.224607958
 21
-106.9009805629
  0
LINE
  8
0
 62
9
  6
CONTINUOUS
 10
-61.4804797646
 20
-36.8667302838
 11
-60.550230677
 21
-37.233658935
  0
LINE
  8
0
 62
9
  6
CONTINUOUS
 10
-57.0835444125
 20
-25.7194811211
 11
-56.1532953249
 21
-26.0864097723
  0
LINE
  8
0
 62
9
  6
CONTINUOUS
 10
-63.5952880255
 20
-16.1509805629
 11
-63.5952880255
 21
-15.1509805631
  0
LINE
  8
0
 62
9
  6
CONTINUOUS
 10
-63.5952880255
 20
-60.1509805629
 11
-63.5952880256
 21
-61.1509805629
  0
LINE
  8
0
 62
9
  6
CONTINUOUS
 10
-59.474607958
 20
166.8490194371
 11
-59.474607958
 21
141.8490194371
  0
LINE
  8
0
 62
9
  6
CONTINUOUS
 10
-59.474607958
 20
-150.6509805629
 11
-59.474607958
 21
-125.6509805629
  0
LINE
  8
0
 62
9
  6
CONTINUOUS
 10
-59.474607958
 20
434.3490194371
 11
-59.474607958
 21
459.3490194371
  0
LINE
  8
0
 62
9
  6
CONTINUOUS
 10
-74.474607958
 20
-48.1509805629
 11
-73.474607958
 21
-48.1509805629
  0
LINE
  8
0
 62
9
  6
CONTINUOUS
 10
-106.974607958
 20
-48.1509805629
 11
-107.974607958
 21
-48.1509805629
  0
LINE
  8
0
 62
7
  6
CONTINUOUS
 10
-104.474607958
 20
-46.6509805629
 11
-76.974607958
 21
-46.6509805629
  0
LINE
  8
0
 62
7
  6
CONTINUOUS
 10
-104.474607958
 20
-29.6509805629
 11
-76.974607958
 21
-29.6509805629
  0
LINE
  8
0
 62
9
  6
CONTINUOUS
 10
-74.474607958
 20
-28.1509805629
 11
-73.474607958
 21
-28.1509805629
  0
LINE
  8
0
 62
9
  6
CONTINUOUS
 10
-106.974607958
 20
-28.1509805629
 11
-107.974607958
 21
-28.1509805629
  0
LINE
  8
0
 62
9
  6
CONTINUOUS
 10
357.9911417629
 20
-108.9068523695
 11
346.8438926001
 21
-104.5099170173
  0
LINE
  8
0
 62
7
  6
CONTINUOUS
 10
358.358070414
 20
-107.9766032819
 11
347.2108212513
 21
-103.5796679297
  0
LINE
  8
0
 62
9
  6
CONTINUOUS
 10
-61.4804797646
 20
-36.8667302838
 11
-57.0835444125
 21
-25.7194811211
  0
LINE
  8
0
 62
7
  6
CONTINUOUS
 10
-60.550230677
 20
-37.233658935
 11
-56.1532953249
 21
-26.0864097723
  0
LINE
  8
0
 62
7
  6
CONTINUOUS
 10
471.775392042
 20
-10.6509805629
 11
446.775392042
 21
-10.6509805629
  0
POLYLINE
  8
0
 62
7
  6
CONTINUOUS
 66
1
 70
0
  0
VERTEX
  8
0
 62
7
  6
CONTINUOUS
 10
-78.224607958
 20
-52.0213140254
  0
VERTEX
  8
0
 62
7
  6
CONTINUOUS
 10
-77.9300786396
 20
-51.9417455612
  0
VERTEX
  8
0
 62
7
  6
CONTINUOUS
 10
-77.6117774721
 20
-51.8491054957
  0
VERTEX
  8
0
 62
7
  6
CONTINUOUS
 10
-77.309738946
 20
-51.7544988046
  0
VERTEX
  8
0
 62
7
  6
CONTINUOUS
 10
-77.0231581211
 20
-51.6579753842
  0
VERTEX
  8
0
 62
7
  6
CONTINUOUS
 10
-76.7514231145
 20
-51.5596225855
  0
VERTEX
  8
0
 62
7
  6
CONTINUOUS
 10
-76.4939964679
 20
-51.4595380115
  0
VERTEX
  8
0
 62
7
  6
CONTINUOUS
 10
-76.2503206894
 20
-51.357796026
  0
VERTEX
  8
0
 62
7
  6
CONTINUOUS
 10
-76.0199123039
 20
-51.2544853916
  0
VERTEX
  8
0
 62
7
  6
CONTINUOUS
 10
-75.8022655776
 20
-51.1496699448
  0
VERTEX
  8
0
 62
7
  6
CONTINUOUS
 10
-75.5969531314
 20
-51.0434354921
  0
VERTEX
  8
0
 62
7
  6
CONTINUOUS
 10
-75.4035201506
 20
-50.9358402425
  0
VERTEX
  8
0
 62
7
  6
CONTINUOUS
 10
-75.221597657
 20
-50.8269763756
  0
VERTEX
  8
0
 62
7
  6
CONTINUOUS
 10
-75.0507823977
 20
-50.7169057176
  0
VERTEX
  8
0
 62
7
  6
CONTINUOUS
 10
-74.8907613117
 20
-50.6057386079
  0
VERTEX
  8
0
 62
7
  6
CONTINUOUS
 10
-74.7411774567
 20
-50.4935511798
  0
VERTEX
  8
0
 62
7
  6
CONTINUOUS
 10
-74.6017742426
 20
-50.3804928595
  0
VERTEX
  8
0
 62
7
  6
CONTINUOUS
 10
-74.4722369236
 20
-50.2666737245
  0
VERTEX
  8
0
 62
7
  6
CONTINUOUS
 10
-74.3523595873
 20
-50.1523113922
  0
VERTEX
  8
0
 62
7
  6
CONTINUOUS
 10
-74.241869467
 20
-50.0375887215
  0
VERTEX
  8
0
 62
7
  6
CONTINUOUS
 10
-74.1405703651
 20
-49.9228020814
  0
VERTEX
  8
0
 62
7
  6
CONTINUOUS
 10
-74.0482056995
 20
-49.8082346195
  0
VERTEX
  8
0
 62
7
  6
CONTINUOUS
 10
-73.9645385084
 20
-49.6942542074
  0
VERTEX
  8
0
 62
7
  6
CONTINUOUS
 10
-73.8892906136
 20
-49.5812527571
  0
VERTEX
  8
0
 62
7
  6
CONTINUOUS
 10
-73.8221363777
 20
-49.4696340005
  0
VERTEX
  8
0
 62
7
  6
CONTINUOUS
 10
-73.7627311155
 20
-49.3598594135
  0
VERTEX
  8
0
 62
7
  6
CONTINUOUS
 10
-73.7106562185
 20
-49.25234525
  0
VERTEX
  8
0
 62
7
  6
CONTINUOUS
 10
-73.6655171576
 20
-49.1476521663
  0
VERTEX
  8
0
 62
7
  6
CONTINUOUS
 10
-73.6267327738
 20
-49.045972666
  0
VERTEX
  8
0
 62
7
  6
CONTINUOUS
 10
-73.5937615818
 20
-48.9475543712
  0
VERTEX
  8
0
 62
7
  6
CONTINUOUS
 10
-73.5661093
 20
-48.8527733132
  0
VERTEX
  8
0
 62
7
  6
CONTINUOUS
 10
-73.5433499014
 20
-48.7623271095
  0
VERTEX
  8
0
 62
7
  6
CONTINUOUS
 10
-73.5247324269
 20
-48.6755033345
  0
VERTEX
  8
0
 62
7
  6
CONTINUOUS
 10
-73.5098164331
 20
-48.5925573477
  0
VERTEX
  8
0
 62
7
  6
CONTINUOUS
 10
-73.4977767783
 20
-48.5107509806
  0
VERTEX
  8
0
 62
7
  6
CONTINUOUS
 10
-73.4881654385
 20
-48.4273972323
  0
VERTEX
  8
0
 62
7
  6
CONTINUOUS
 10
-73.4809609397
 20
-48.3410476363
  0
VERTEX
  8
0
 62
7
  6
CONTINUOUS
 10
-73.4762736124
 20
-48.2487625451
  0
VERTEX
  8
0
 62
7
  6
CONTINUOUS
 10
-73.474607958
 20
-48.1509805629
  0
SEQEND
  0
POLYLINE
  8
0
 62
7
  6
CONTINUOUS
 66
1
 70
0
  0
VERTEX
  8
0
 62
7
  6
CONTINUOUS
 10
-103.224607958
 20
-24.2806470673
  0
VERTEX
  8
0
 62
7
  6
CONTINUOUS
 10
-103.5191103756
 20
-24.3602080195
  0
VERTEX
  8
0
 62
7
  6
CONTINUOUS
 10
-103.8373866696
 20
-24.4528399938
  0
VERTEX
  8
0
 62
7
  6
CONTINUOUS
 10
-104.1394023273
 20
-24.5474380718
  0
VERTEX
  8
0
 62
7
  6
CONTINUOUS
 10
-104.4259622276
 20
-24.6439523683
  0
VERTEX
  8
0
 62
7
  6
CONTINUOUS
 10
-104.6976782075
 20
-24.7422955468
  0
VERTEX
  8
0
 62
7
  6
CONTINUOUS
 10
-104.9550876723
 20
-24.8423700152
  0
VERTEX
  8
0
 62
7
  6
CONTINUOUS
 10
-105.1987480797
 20
-24.9441014265
  0
VERTEX
  8
0
 62
7
  6
CONTINUOUS
 10
-105.4291428108
 20
-25.0474010077
  0
VERTEX
  8
0
 62
7
  6
CONTINUOUS
 10
-105.6467775568
 20
-25.1522049282
  0
VERTEX
  8
0
 62
7
  6
CONTINUOUS
 10
-105.8520795347
 20
-25.2584273231
  0
VERTEX
  8
0
 62
7
  6
CONTINUOUS
 10
-106.0455033062
 20
-25.366009849
  0
VERTEX
  8
0
 62
7
  6
CONTINUOUS
 10
-106.2274181454
 20
-25.4748604929
  0
VERTEX
  8
0
 62
7
  6
CONTINUOUS
 10
-106.3982273649
 20
-25.5849174887
  0
VERTEX
  8
0
 62
7
  6
CONTINUOUS
 10
-106.5582443755
 20
-25.6960707885
  0
VERTEX
  8
0
 62
7
  6
CONTINUOUS
 10
-106.7078266024
 20
-25.8082447406
  0
VERTEX
  8
0
 62
7
  6
CONTINUOUS
 10
-106.8472300498
 20
-25.921289654
  0
VERTEX
  8
0
 62
7
  6
CONTINUOUS
 10
-106.9767690693
 20
-26.035095244
  0
VERTEX
  8
0
 62
7
  6
CONTINUOUS
 10
-107.0966496258
 20
-26.1494440581
  0
VERTEX
  8
0
 62
7
  6
CONTINUOUS
 10
-107.2071442908
 20
-26.2641531789
  0
VERTEX
  8
0
 62
7
  6
CONTINUOUS
 10
-107.3084495615
 20
-26.3789267508
  0
VERTEX
  8
0
 62
7
  6
CONTINUOUS
 10
-107.4008222094
 20
-26.4934821805
  0
VERTEX
  8
0
 62
7
  6
CONTINUOUS
 10
-107.4844989739
 20
-26.6074517746
  0
VERTEX
  8
0
 62
7
  6
CONTINUOUS
 10
-107.5597579916
 20
-26.7204441142
  0
VERTEX
  8
0
 62
7
  6
CONTINUOUS
 10
-107.6269243664
 20
-26.8320552589
  0
VERTEX
  8
0
 62
7
  6
CONTINUOUS
 10
-107.6863422813
 20
-26.9418234225
  0
VERTEX
  8
0
 62
7
  6
CONTINUOUS
 10
-107.7384303821
 20
-27.049332978
  0
VERTEX
  8
0
 62
7
  6
CONTINUOUS
 10
-107.7835831659
 20
-27.1540240257
  0
VERTEX
  8
0
 62
7
  6
CONTINUOUS
 10
-107.8223812658
 20
-27.2557035935
  0
VERTEX
  8
0
 62
7
  6
CONTINUOUS
 10
-107.8553659382
 20
-27.354124147
  0
VERTEX
  8
0
 62
7
  6
CONTINUOUS
 10
-107.8830308781
 20
-27.4489084058
  0
VERTEX
  8
0
 62
7
  6
CONTINUOUS
 10
-107.9058010264
 20
-27.5393545234
  0
VERTEX
  8
0
 62
7
  6
CONTINUOUS
 10
-107.9244294761
 20
-27.6261830898
  0
VERTEX
  8
0
 62
7
  6
CONTINUOUS
 10
-107.9393575865
 20
-27.7091472017
  0
VERTEX
  8
0
 62
7
  6
CONTINUOUS
 10
-107.951409394
 20
-27.7909835967
  0
VERTEX
  8
0
 62
7
  6
CONTINUOUS
 10
-107.9610324444
 20
-27.874382734
  0
VERTEX
  8
0
 62
7
  6
CONTINUOUS
 10
-107.9682464779
 20
-27.9607876361
  0
VERTEX
  8
0
 62
7
  6
CONTINUOUS
 10
-107.9729400278
 20
-28.0531321293
  0
VERTEX
  8
0
 62
7
  6
CONTINUOUS
 10
-107.974607958
 20
-28.1509805629
  0
SEQEND
  0
POLYLINE
  8
0
 62
9
  6
CONTINUOUS
 66
1
 70
0
  0
VERTEX
  8
0
 62
9
  6
CONTINUOUS
 10
446.775392042
 20
267.183781762
  0
VERTEX
  8
0
 62
9
  6
CONTINUOUS
 10
446.4823294497
 20
267.0989095559
  0
VERTEX
  8
0
 62
9
  6
CONTINUOUS
 10
446.2048556058
 20
267.0129044002
  0
VERTEX
  8
0
 62
9
  6
CONTINUOUS
 10
445.9432288026
 20
266.9256830397
  0
VERTEX
  8
0
 62
9
  6
CONTINUOUS
 10
445.6966741631
 20
266.8374952397
  0
VERTEX
  8
0
 62
9
  6
CONTINUOUS
 10
445.4646556091
 20
266.7485056543
  0
VERTEX
  8
0
 62
9
  6
CONTINUOUS
 10
445.2467150369
 20
266.6588863614
  0
VERTEX
  8
0
 62
9
  6
CONTINUOUS
 10
445.0423591467
 20
266.5688038712
  0
VERTEX
  8
0
 62
9
  6
CONTINUOUS
 10
444.851157448
 20
266.4784395401
  0
VERTEX
  8
0
 62
9
  6
CONTINUOUS
 10
444.6726526163
 20
266.3879661192
  0
VERTEX
  8
0
 62
9
  6
CONTINUOUS
 10
444.5064318544
 20
266.2975759338
  0
VERTEX
  8
0
 62
9
  6
CONTINUOUS
 10
444.352066421
 20
266.2074516565
  0
VERTEX
  8
0
 62
9
  6
CONTINUOUS
 10
444.2091468251
 20
266.1177949961
  0
VERTEX
  8
0
 62
9
  6
CONTINUOUS
 10
444.0772613637
 20
266.0288003058
  0
VERTEX
  8
0
 62
9
  6
CONTINUOUS
 10
443.9559879319
 20
265.9406723254
  0
VERTEX
  8
0
 62
9
  6
CONTINUOUS
 10
443.8449159529
 20
265.8536143587
  0
VERTEX
  8
0
 62
9
  6
CONTINUOUS
 10
443.7435991391
 20
265.7678250675
  0
VERTEX
  8
0
 62
9
  6
CONTINUOUS
 10
443.6516146951
 20
265.6835122827
  0
VERTEX
  8
0
 62
9
  6
CONTINUOUS
 10
443.5684815667
 20
265.6008518008
  0
VERTEX
  8
0
 62
9
  6
CONTINUOUS
 10
443.4937512734
 20
265.520046692
  0
VERTEX
  8
0
 62
9
  6
CONTINUOUS
 10
443.4269032978
 20
265.4412229658
  0
VERTEX
  8
0
 62
9
  6
CONTINUOUS
 10
443.3674477238
 20
265.3645544316
  0
VERTEX
  8
0
 62
9
  6
CONTINUOUS
 10
443.3148442662
 20
265.2901007603
  0
VERTEX
  8
0
 62
9
  6
CONTINUOUS
 10
443.2685633263
 20
265.2179788219
  0
VERTEX
  8
0
 62
9
  6
CONTINUOUS
 10
443.2280829279
 20
265.1481908283
  0
VERTEX
  8
0
 62
9
  6
CONTINUOUS
 10
443.1928608982
 20
265.0807867361
  0
VERTEX
  8
0
 62
9
  6
CONTINUOUS
 10
443.1624282288
 20
265.0157401819
  0
VERTEX
  8
0
 62
9
  6
CONTINUOUS
 10
443.1362752035
 20
264.95307498
  0
VERTEX
  8
0
 62
9
  6
CONTINUOUS
 10
443.1139817739
 20
264.8926905531
  0
VERTEX
  8
0
 62
9
  6
CONTINUOUS
 10
443.0950590983
 20
264.8344760643
  0
VERTEX
  8
0
 62
9
  6
CONTINUOUS
 10
443.0792038413
 20
264.7784861067
  0
VERTEX
  8
0
 62
9
  6
CONTINUOUS
 10
443.0660689371
 20
264.7249395144
  0
VERTEX
  8
0
 62
9
  6
CONTINUOUS
 10
443.0552967347
 20
264.6732327278
  0
VERTEX
  8
0
 62
9
  6
CONTINUOUS
 10
443.046497295
 20
264.6234562376
  0
VERTEX
  8
0
 62
9
  6
CONTINUOUS
 10
443.0394204167
 20
264.5737467281
  0
VERTEX
  8
0
 62
9
  6
CONTINUOUS
 10
443.033608699
 20
264.5226706958
  0
VERTEX
  8
0
 62
9
  6
CONTINUOUS
 10
443.0292938012
 20
264.4690291938
  0
VERTEX
  8
0
 62
9
  6
CONTINUOUS
 10
443.0265648145
 20
264.4109358433
  0
VERTEX
  8
0
 62
9
  6
CONTINUOUS
 10
443.025392042
 20
264.3490194371
  0
SEQEND
  0
LINE
  8
0
 62
9
  6
CONTINUOUS
 10
-103.224607958
 20
123.0990194371
 11
-78.224607958
 21
123.0990194371
  0
LINE
  8
0
 62
9
  6
CONTINUOUS
 10
425.6343284964
 20
266.7805188789
 11
424.7040794088
 21
266.4135902277
  0
LINE
  8
0
 62
9
  6
CONTINUOUS
 10
430.0312638485
 20
255.6332697162
 11
429.1010147609
 21
255.266341065
  0
POLYLINE
  8
0
 62
9
  6
CONTINUOUS
 66
1
 70
0
  0
VERTEX
  8
0
 62
9
  6
CONTINUOUS
 10
471.775392042
 20
241.5142547652
  0
VERTEX
  8
0
 62
9
  6
CONTINUOUS
 10
472.0684793227
 20
241.5991358649
  0
VERTEX
  8
0
 62
9
  6
CONTINUOUS
 10
472.3459756899
 20
241.6851496751
  0
VERTEX
  8
0
 62
9
  6
CONTINUOUS
 10
472.6076228288
 20
241.7723793255
  0
VERTEX
  8
0
 62
9
  6
CONTINUOUS
 10
472.854195684
 20
241.8605754273
  0
VERTEX
  8
0
 62
9
  6
CONTINUOUS
 10
473.0862303744
 20
241.9495737241
  0
VERTEX
  8
0
 62
9
  6
CONTINUOUS
 10
473.304185062
 20
242.0392019484
  0
VERTEX
  8
0
 62
9
  6
CONTINUOUS
 10
473.5085530749
 20
242.1292935359
  0
VERTEX
  8
0
 62
9
  6
CONTINUOUS
 10
473.6997650329
 20
242.219667121
  0
VERTEX
  8
0
 62
9
  6
CONTINUOUS
 10
473.8782783866
 20
242.3101499421
  0
VERTEX
  8
0
 62
9
  6
CONTINUOUS
 10
474.0445059714
 20
242.4005496233
  0
VERTEX
  8
0
 62
9
  6
CONTINUOUS
 10
474.1988766829
 20
242.4906835256
  0
VERTEX
  8
0
 62
9
  6
CONTINUOUS
 10
474.3417997902
 20
242.5803496765
  0
VERTEX
  8
0
 62
9
  6
CONTINUOUS
 10
474.4736867953
 20
242.6693535222
  0
VERTEX
  8
0
 62
9
  6
CONTINUOUS
 10
474.5949598956
 20
242.7574901669
  0
VERTEX
  8
0
 62
9
  6
CONTINUOUS
 10
474.706029528
 20
242.8445560156
  0
VERTEX
  8
0
 62
9
  6
CONTINUOUS
 10
474.8073424767
 20
242.930352612
  0
VERTEX
  8
0
 62
9
  6
CONTINUOUS
 10
474.8993219799
 20
243.0146722807
  0
VERTEX
  8
0
 62
9
  6
CONTINUOUS
 10
474.9824491126
 20
243.0973390841
  0
VERTEX
  8
0
 62
9
  6
CONTINUOUS
 10
475.0571725066
 20
243.1781499324
  0
VERTEX
  8
0
 62
9
  6
CONTINUOUS
 10
475.1240127294
 20
243.2569786072
  0
VERTEX
  8
0
 62
9
  6
CONTINUOUS
 10
475.1834596939
 20
243.3336510426
  0
VERTEX
  8
0
 62
9
  6
CONTINUOUS
 10
475.2360539968
 20
243.4081076908
  0
VERTEX
  8
0
 62
9
  6
CONTINUOUS
 10
475.2823254494
 20
243.4802316041
  0
VERTEX
  8
0
 62
9
  6
CONTINUOUS
 10
475.3227963214
 20
243.550020915
  0
VERTEX
  8
0
 62
9
  6
CONTINUOUS
 10
475.3580092101
 20
243.617426154
  0
VERTEX
  8
0
 62
9
  6
CONTINUOUS
 10
475.3884329442
 20
243.6824731793
  0
VERTEX
  8
0
 62
9
  6
CONTINUOUS
 10
475.4145770937
 20
243.7451375825
  0
VERTEX
  8
0
 62
9
  6
CONTINUOUS
 10
475.436862033
 20
243.8055206937
  0
VERTEX
  8
0
 62
9
  6
CONTINUOUS
 10
475.4557769089
 20
243.8637338938
  0
VERTEX
  8
0
 62
9
  6
CONTINUOUS
 10
475.4716249744
 20
243.9197226219
  0
VERTEX
  8
0
 62
9
  6
CONTINUOUS
 10
475.4847535934
 20
243.9732700721
  0
VERTEX
  8
0
 62
9
  6
CONTINUOUS
 10
475.49551958
 20
244.0249743594
  0
VERTEX
  8
0
 62
9
  6
CONTINUOUS
 10
475.5043118115
 20
244.0747398636
  0
VERTEX
  8
0
 62
9
  6
CONTINUOUS
 10
475.5113814625
 20
244.124430984
  0
VERTEX
  8
0
 62
9
  6
CONTINUOUS
 10
475.5171862722
 20
244.1754796204
  0
VERTEX
  8
0
 62
9
  6
CONTINUOUS
 10
475.5214954238
 20
244.2290876518
  0
VERTEX
  8
0
 62
9
  6
CONTINUOUS
 10
475.5242209008
 20
244.2871441548
  0
VERTEX
  8
0
 62
9
  6
CONTINUOUS
 10
475.525392042
 20
244.3490194371
  0
SEQEND
  0
LINE
  8
0
 62
7
  6
CONTINUOUS
 10
-59.474607958
 20
141.8490194371
 11
428.025392042
 21
141.8490194371
  0
POLYLINE
  8
0
 62
7
  6
CONTINUOUS
 66
1
 70
0
  0
VERTEX
  8
0
 62
7
  6
CONTINUOUS
 10
471.775392042
 20
240.4786859746
  0
VERTEX
  8
0
 62
7
  6
CONTINUOUS
 10
472.0699213374
 20
240.5582544323
  0
VERTEX
  8
0
 62
7
  6
CONTINUOUS
 10
472.3882224841
 20
240.6508944911
  0
VERTEX
  8
0
 62
7
  6
CONTINUOUS
 10
472.6902609913
 20
240.7455011751
  0
VERTEX
  8
0
 62
7
  6
CONTINUOUS
 10
472.9768417993
 20
240.842024588
  0
VERTEX
  8
0
 62
7
  6
CONTINUOUS
 10
473.2485767909
 20
240.940377379
  0
VERTEX
  8
0
 62
7
  6
CONTINUOUS
 10
473.5060034241
 20
241.040461945
  0
VERTEX
  8
0
 62
7
  6
CONTINUOUS
 10
473.749679191
 20
241.1422039223
  0
VERTEX
  8
0
 62
7
  6
CONTINUOUS
 10
473.9800875664
 20
241.2455145481
  0
VERTEX
  8
0
 62
7
  6
CONTINUOUS
 10
474.1977342841
 20
241.3503299861
  0
VERTEX
  8
0
 62
7
  6
CONTINUOUS
 10
474.4030467231
 20
241.4565644298
  0
VERTEX
  8
0
 62
7
  6
CONTINUOUS
 10
474.5964796981
 20
241.5641596702
  0
VERTEX
  8
0
 62
7
  6
CONTINUOUS
 10
474.7784021873
 20
241.6730235277
  0
VERTEX
  8
0
 62
7
  6
CONTINUOUS
 10
474.9492174436
 20
241.7830941761
  0
VERTEX
  8
0
 62
7
  6
CONTINUOUS
 10
475.1092385277
 20
241.8942612761
  0
VERTEX
  8
0
 62
7
  6
CONTINUOUS
 10
475.258822382
 20
242.0064486945
  0
VERTEX
  8
0
 62
7
  6
CONTINUOUS
 10
475.3982255967
 20
242.1195070049
  0
VERTEX
  8
0
 62
7
  6
CONTINUOUS
 10
475.5277629175
 20
242.2333261301
  0
VERTEX
  8
0
 62
7
  6
CONTINUOUS
 10
475.6476402568
 20
242.3476884526
  0
VERTEX
  8
0
 62
7
  6
CONTINUOUS
 10
475.7581303812
 20
242.4624111139
  0
VERTEX
  8
0
 62
7
  6
CONTINUOUS
 10
475.8594294884
 20
242.577197745
  0
VERTEX
  8
0
 62
7
  6
CONTINUOUS
 10
475.9517941604
 20
242.6917651985
  0
VERTEX
  8
0
 62
7
  6
CONTINUOUS
 10
476.0354613588
 20
242.8057456028
  0
VERTEX
  8
0
 62
7
  6
CONTINUOUS
 10
476.1107092619
 20
242.9187470462
  0
VERTEX
  8
0
 62
7
  6
CONTINUOUS
 10
476.1778635067
 20
243.0303657969
  0
VERTEX
  8
0
 62
7
  6
CONTINUOUS
 10
476.2372687783
 20
243.140140379
  0
VERTEX
  8
0
 62
7
  6
CONTINUOUS
 10
476.2893436852
 20
243.2476545391
  0
VERTEX
  8
0
 62
7
  6
CONTINUOUS
 10
476.3344827562
 20
243.3523476212
  0
VERTEX
  8
0
 62
7
  6
CONTINUOUS
 10
476.3732671501
 20
243.454027121
  0
VERTEX
  8
0
 62
7
  6
CONTINUOUS
 10
476.4062383515
 20
243.5524454154
  0
VERTEX
  8
0
 62
7
  6
CONTINUOUS
 10
476.4338906424
 20
243.6472264742
  0
VERTEX
  8
0
 62
7
  6
CONTINUOUS
 10
476.4566500496
 20
243.7376726797
  0
VERTEX
  8
0
 62
7
  6
CONTINUOUS
 10
476.4752675329
 20
243.8244964609
  0
VERTEX
  8
0
 62
7
  6
CONTINUOUS
 10
476.4901835359
 20
243.9074424628
  0
VERTEX
  8
0
 62
7
  6
CONTINUOUS
 10
476.5022232
 20
243.9892488534
  0
VERTEX
  8
0
 62
7
  6
CONTINUOUS
 10
476.5118345485
 20
244.0726026368
  0
VERTEX
  8
0
 62
7
  6
CONTINUOUS
 10
476.5190390543
 20
244.1589522743
  0
VERTEX
  8
0
 62
7
  6
CONTINUOUS
 10
476.523726386
 20
244.2512374083
  0
VERTEX
  8
0
 62
7
  6
CONTINUOUS
 10
476.525392042
 20
244.3490194371
  0
SEQEND
  0
LINE
  8
0
 62
7
  6
CONTINUOUS
 10
-59.474607958
 20
166.8490194371
 11
428.025392042
 21
166.8490194371
  0
POLYLINE
  8
0
 62
7
  6
CONTINUOUS
 66
1
 70
0
  0
VERTEX
  8
0
 62
7
  6
CONTINUOUS
 10
446.775392042
 20
268.2193529327
  0
VERTEX
  8
0
 62
7
  6
CONTINUOUS
 10
446.4808896308
 20
268.1397919823
  0
VERTEX
  8
0
 62
7
  6
CONTINUOUS
 10
446.1626133427
 20
268.0471600099
  0
VERTEX
  8
0
 62
7
  6
CONTINUOUS
 10
445.8605976902
 20
267.9525619338
  0
VERTEX
  8
0
 62
7
  6
CONTINUOUS
 10
445.5740377946
 20
267.8560476395
  0
VERTEX
  8
0
 62
7
  6
CONTINUOUS
 10
445.3023218189
 20
267.7577044632
  0
VERTEX
  8
0
 62
7
  6
CONTINUOUS
 10
445.0449123579
 20
267.657629997
  0
VERTEX
  8
0
 62
7
  6
CONTINUOUS
 10
444.8012519538
 20
267.5558985879
  0
VERTEX
  8
0
 62
7
  6
CONTINUOUS
 10
444.5708572255
 20
267.4525990092
  0
VERTEX
  8
0
 62
7
  6
CONTINUOUS
 10
444.3532224819
 20
267.3477950911
  0
VERTEX
  8
0
 62
7
  6
CONTINUOUS
 10
444.147920506
 20
267.2415726987
  0
VERTEX
  8
0
 62
7
  6
CONTINUOUS
 10
443.9544967361
 20
267.1339901754
  0
VERTEX
  8
0
 62
7
  6
CONTINUOUS
 10
443.7725818981
 20
267.0251395342
  0
VERTEX
  8
0
 62
7
  6
CONTINUOUS
 10
443.6017726795
 20
266.915082541
  0
VERTEX
  8
0
 62
7
  6
CONTINUOUS
 10
443.4417556695
 20
266.8039292439
  0
VERTEX
  8
0
 62
7
  6
CONTINUOUS
 10
443.2921734427
 20
266.6917552946
  0
VERTEX
  8
0
 62
7
  6
CONTINUOUS
 10
443.1527699951
 20
266.5787103839
  0
VERTEX
  8
0
 62
7
  6
CONTINUOUS
 10
443.0232309751
 20
266.4649047967
  0
VERTEX
  8
0
 62
7
  6
CONTINUOUS
 10
442.9033504178
 20
266.3505559853
  0
VERTEX
  8
0
 62
7
  6
CONTINUOUS
 10
442.7928557517
 20
266.2358468672
  0
VERTEX
  8
0
 62
7
  6
CONTINUOUS
 10
442.6915504794
 20
266.1210732977
  0
VERTEX
  8
0
 62
7
  6
CONTINUOUS
 10
442.5991778298
 20
266.0065178704
  0
VERTEX
  8
0
 62
7
  6
CONTINUOUS
 10
442.5155010632
 20
265.8925482785
  0
VERTEX
  8
0
 62
7
  6
CONTINUOUS
 10
442.4402420433
 20
265.7795559409
  0
VERTEX
  8
0
 62
7
  6
CONTINUOUS
 10
442.373075666
 20
265.6679447978
  0
VERTEX
  8
0
 62
7
  6
CONTINUOUS
 10
442.3136577485
 20
265.5581766356
  0
VERTEX
  8
0
 62
7
  6
CONTINUOUS
 10
442.2615696449
 20
265.4506670811
  0
VERTEX
  8
0
 62
7
  6
CONTINUOUS
 10
442.2164168582
 20
265.3459760338
  0
VERTEX
  8
0
 62
7
  6
CONTINUOUS
 10
442.1776187555
 20
265.2442964661
  0
VERTEX
  8
0
 62
7
  6
CONTINUOUS
 10
442.1446340805
 20
265.1458759129
  0
VERTEX
  8
0
 62
7
  6
CONTINUOUS
 10
442.1169691381
 20
265.0510916539
  0
VERTEX
  8
0
 62
7
  6
CONTINUOUS
 10
442.0941989873
 20
264.9606455356
  0
VERTEX
  8
0
 62
7
  6
CONTINUOUS
 10
442.0755705351
 20
264.8738169672
  0
VERTEX
  8
0
 62
7
  6
CONTINUOUS
 10
442.0606424222
 20
264.7908528511
  0
VERTEX
  8
0
 62
7
  6
CONTINUOUS
 10
442.0485906121
 20
264.7090164495
  0
VERTEX
  8
0
 62
7
  6
CONTINUOUS
 10
442.0389675592
 20
264.6256173025
  0
VERTEX
  8
0
 62
7
  6
CONTINUOUS
 10
442.0317535238
 20
264.5392123888
  0
VERTEX
  8
0
 62
7
  6
CONTINUOUS
 10
442.0270599727
 20
264.4468678837
  0
VERTEX
  8
0
 62
7
  6
CONTINUOUS
 10
442.025392042
 20
264.3490194371
  0
SEQEND
  0
LINE
  8
0
 62
9
  6
CONTINUOUS
 10
446.775392042
 20
185.5990194371
 11
471.775392042
 21
185.5990194371
  0
LINE
  8
0
 62
9
  6
CONTINUOUS
 10
-61.4804797646
 20
-39.435230842
 11
-60.550230677
 21
-39.0683021908
  0
LINE
  8
0
 62
9
  6
CONTINUOUS
 10
360.559642321
 20
-108.9068523695
 11
360.1927136699
 21
-107.9766032819
  0
LINE
  8
0
 62
9
  6
CONTINUOUS
 10
371.7068914838
 20
-104.5099170173
 11
371.3399628326
 21
-103.5796679297
  0
POLYLINE
  8
0
 62
9
  6
CONTINUOUS
 66
1
 70
0
  0
VERTEX
  8
0
 62
9
  6
CONTINUOUS
 10
346.4406273676
 20
-150.6509805629
  0
VERTEX
  8
0
 62
9
  6
CONTINUOUS
 10
346.5255077962
 20
-150.9440657016
  0
VERTEX
  8
0
 62
9
  6
CONTINUOUS
 10
346.6115212124
 20
-151.2215608938
  0
VERTEX
  8
0
 62
9
  6
CONTINUOUS
 10
346.6987508143
 20
-151.4832080705
  0
VERTEX
  8
0
 62
9
  6
CONTINUOUS
 10
346.7869470074
 20
-151.7297814387
  0
VERTEX
  8
0
 62
9
  6
CONTINUOUS
 10
346.8759453295
 20
-151.9618163792
  0
VERTEX
  8
0
 62
9
  6
CONTINUOUS
 10
346.9655735816
 20
-152.1797713009
  0
VERTEX
  8
0
 62
9
  6
CONTINUOUS
 10
347.055665199
 20
-152.3841395329
  0
VERTEX
  8
0
 62
9
  6
CONTINUOUS
 10
347.1460388162
 20
-152.5753516953
  0
VERTEX
  8
0
 62
9
  6
CONTINUOUS
 10
347.2365216713
 20
-152.7538652397
  0
VERTEX
  8
0
 62
9
  6
CONTINUOUS
 10
347.3269213883
 20
-152.9200930018
  0
VERTEX
  8
0
 62
9
  6
CONTINUOUS
 10
347.417055328
 20
-153.0744638778
  0
VERTEX
  8
0
 62
9
  6
CONTINUOUS
 10
347.5067215176
 20
-153.2173871375
  0
VERTEX
  8
0
 62
9
  6
CONTINUOUS
 10
347.5957254034
 20
-153.3492742829
  0
VERTEX
  8
0
 62
9
  6
CONTINUOUS
 10
347.6838620892
 20
-153.4705475122
  0
VERTEX
  8
0
 62
9
  6
CONTINUOUS
 10
347.7709279798
 20
-153.5816172626
  0
VERTEX
  8
0
 62
9
  6
CONTINUOUS
 10
347.8567246186
 20
-153.6829303187
  0
VERTEX
  8
0
 62
9
  6
CONTINUOUS
 10
347.9410443301
 20
-153.7749099191
  0
VERTEX
  8
0
 62
9
  6
CONTINUOUS
 10
348.0237111762
 20
-153.8580371392
  0
VERTEX
  8
0
 62
9
  6
CONTINUOUS
 10
348.1045220668
 20
-153.932760611
  0
VERTEX
  8
0
 62
9
  6
CONTINUOUS
 10
348.1833507832
 20
-153.9996009028
  0
VERTEX
  8
0
 62
9
  6
CONTINUOUS
 10
348.2600232593
 20
-154.0590479276
  0
VERTEX
  8
0
 62
9
  6
CONTINUOUS
 10
348.3344799468
 20
-154.111642283
  0
VERTEX
  8
0
 62
9
  6
CONTINUOUS
 10
348.4066038979
 20
-154.1579137807
  0
VERTEX
  8
0
 62
9
  6
CONTINUOUS
 10
348.4763932449
 20
-154.1983846911
  0
VERTEX
  8
0
 62
9
  6
CONTINUOUS
 10
348.5437985186
 20
-154.2335976123
  0
VERTEX
  8
0
 62
9
  6
CONTINUOUS
 10
348.6088455767
 20
-154.2640213735
  0
VERTEX
  8
0
 62
9
  6
CONTINUOUS
 10
348.67151001
 20
-154.2901655451
  0
VERTEX
  8
0
 62
9
  6
CONTINUOUS
 10
348.7318931497
 20
-154.3124505024
  0
VERTEX
  8
0
 62
9
  6
CONTINUOUS
 10
348.7901063778
 20
-154.3313653932
  0
VERTEX
  8
0
 62
9
  6
CONTINUOUS
 10
348.8460951322
 20
-154.3472134705
  0
VERTEX
  8
0
 62
9
  6
CONTINUOUS
 10
348.8996426067
 20
-154.3603420984
  0
VERTEX
  8
0
 62
9
  6
CONTINUOUS
 10
348.9513469145
 20
-154.3711080915
  0
VERTEX
  8
0
 62
9
  6
CONTINUOUS
 10
349.0011124328
 20
-154.3799003269
  0
VERTEX
  8
0
 62
9
  6
CONTINUOUS
 10
349.0508035631
 20
-154.3869699801
  0
VERTEX
  8
0
 62
9
  6
CONTINUOUS
 10
349.1018522055
 20
-154.3927747913
  0
VERTEX
  8
0
 62
9
  6
CONTINUOUS
 10
349.1554602418
 20
-154.3970839438
  0
VERTEX
  8
0
 62
9
  6
CONTINUOUS
 10
349.2135167517
 20
-154.3998094214
  0
VERTEX
  8
0
 62
9
  6
CONTINUOUS
 10
349.275392042
 20
-154.4009805629
  0
SEQEND
  0
POLYLINE
  8
0
 62
7
  6
CONTINUOUS
 66
1
 70
0
  0
VERTEX
  8
0
 62
7
  6
CONTINUOUS
 10
345.4050585794
 20
-150.6509805629
  0
VERTEX
  8
0
 62
7
  6
CONTINUOUS
 10
345.48462704
 20
-150.9455098683
  0
VERTEX
  8
0
 62
7
  6
CONTINUOUS
 10
345.5772671017
 20
-151.263811024
  0
VERTEX
  8
0
 62
7
  6
CONTINUOUS
 10
345.6718737887
 20
-151.5658495394
  0
VERTEX
  8
0
 62
7
  6
CONTINUOUS
 10
345.7683972049
 20
-151.8524303547
  0
VERTEX
  8
0
 62
7
  6
CONTINUOUS
 10
345.8667499992
 20
-152.1241653528
  0
VERTEX
  8
0
 62
7
  6
CONTINUOUS
 10
345.9668345687
 20
-152.3815919918
  0
VERTEX
  8
0
 62
7
  6
CONTINUOUS
 10
346.0685765495
 20
-152.6252677637
  0
VERTEX
  8
0
 62
7
  6
CONTINUOUS
 10
346.1718871791
 20
-152.8556761435
  0
VERTEX
  8
0
 62
7
  6
CONTINUOUS
 10
346.2767026209
 20
-153.0733228649
  0
VERTEX
  8
0
 62
7
  6
CONTINUOUS
 10
346.3829370685
 20
-153.278635307
  0
VERTEX
  8
0
 62
7
  6
CONTINUOUS
 10
346.4905323128
 20
-153.4720682846
  0
VERTEX
  8
0
 62
7
  6
CONTINUOUS
 10
346.5993961745
 20
-153.6539907757
  0
VERTEX
  8
0
 62
7
  6
CONTINUOUS
 10
346.709466827
 20
-153.8248060332
  0
VERTEX
  8
0
 62
7
  6
CONTINUOUS
 10
346.8206339312
 20
-153.9848271181
  0
VERTEX
  8
0
 62
7
  6
CONTINUOUS
 10
346.9328213538
 20
-154.1344109728
  0
VERTEX
  8
0
 62
7
  6
CONTINUOUS
 10
347.0458796685
 20
-154.2738141872
  0
VERTEX
  8
0
 62
7
  6
CONTINUOUS
 10
347.1596987979
 20
-154.4033515073
  0
VERTEX
  8
0
 62
7
  6
CONTINUOUS
 10
347.2740611246
 20
-154.5232288452
  0
VERTEX
  8
0
 62
7
  6
CONTINUOUS
 10
347.38878379
 20
-154.6337189679
  0
VERTEX
  8
0
 62
7
  6
CONTINUOUS
 10
347.503570425
 20
-154.7350180728
  0
VERTEX
  8
0
 62
7
  6
CONTINUOUS
 10
347.6181378821
 20
-154.827382742
  0
VERTEX
  8
0
 62
7
  6
CONTINUOUS
 10
347.7321182898
 20
-154.9110499372
  0
VERTEX
  8
0
 62
7
  6
CONTINUOUS
 10
347.8451197362
 20
-154.9862978367
  0
VERTEX
  8
0
 62
7
  6
CONTINUOUS
 10
347.9567384894
 20
-155.0534520777
  0
VERTEX
  8
0
 62
7
  6
CONTINUOUS
 10
348.0665130736
 20
-155.1128573452
  0
VERTEX
  8
0
 62
7
  6
CONTINUOUS
 10
348.1740272352
 20
-155.1649322478
  0
VERTEX
  8
0
 62
7
  6
CONTINUOUS
 10
348.278720318
 20
-155.2100713145
  0
VERTEX
  8
0
 62
7
  6
CONTINUOUS
 10
348.3803998181
 20
-155.248855704
  0
VERTEX
  8
0
 62
7
  6
CONTINUOUS
 10
348.4788181126
 20
-155.2818269013
  0
VERTEX
  8
0
 62
7
  6
CONTINUOUS
 10
348.573599171
 20
-155.3094791883
  0
VERTEX
  8
0
 62
7
  6
CONTINUOUS
 10
348.6640453758
 20
-155.3322385918
  0
VERTEX
  8
0
 62
7
  6
CONTINUOUS
 10
348.7508691544
 20
-155.3508560713
  0
VERTEX
  8
0
 62
7
  6
CONTINUOUS
 10
348.8338151498
 20
-155.3657720703
  0
VERTEX
  8
0
 62
7
  6
CONTINUOUS
 10
348.9156215302
 20
-155.3778117304
  0
VERTEX
  8
0
 62
7
  6
CONTINUOUS
 10
348.9989752984
 20
-155.3874230751
  0
VERTEX
  8
0
 62
7
  6
CONTINUOUS
 10
349.0853249179
 20
-155.3946275779
  0
VERTEX
  8
0
 62
7
  6
CONTINUOUS
 10
349.1776100334
 20
-155.3993149077
  0
VERTEX
  8
0
 62
7
  6
CONTINUOUS
 10
349.275392042
 20
-155.4009805629
  0
SEQEND
  0
LINE
  8
0
 62
9
  6
CONTINUOUS
 10
-57.0835444125
 20
-50.5824800048
 11
-56.1532953249
 21
-50.2155513536
  0
POLYLINE
  8
0
 62
9
  6
CONTINUOUS
 66
1
 70
0
  0
VERTEX
  8
0
 62
9
  6
CONTINUOUS
 10
-103.224607958
 20
-25.3162182361
  0
VERTEX
  8
0
 62
9
  6
CONTINUOUS
 10
-103.5176705561
 20
-25.4010904451
  0
VERTEX
  8
0
 62
9
  6
CONTINUOUS
 10
-103.7951444053
 20
-25.4870956034
  0
VERTEX
  8
0
 62
9
  6
CONTINUOUS
 10
-104.0567712132
 20
-25.5743169659
  0
VERTEX
  8
0
 62
9
  6
CONTINUOUS
 10
-104.3033258568
 20
-25.6625047677
  0
VERTEX
  8
0
 62
9
  6
CONTINUOUS
 10
-104.5353444143
 20
-25.751494355
  0
VERTEX
  8
0
 62
9
  6
CONTINUOUS
 10
-104.7532849895
 20
-25.8411136499
  0
VERTEX
  8
0
 62
9
  6
CONTINUOUS
 10
-104.9576408823
 20
-25.931196142
  0
VERTEX
  8
0
 62
9
  6
CONTINUOUS
 10
-105.148842583
 20
-26.0215604751
  0
VERTEX
  8
0
 62
9
  6
CONTINUOUS
 10
-105.3273474164
 20
-26.112033898
  0
VERTEX
  8
0
 62
9
  6
CONTINUOUS
 10
-105.4935681795
 20
-26.2024240854
  0
VERTEX
  8
0
 62
9
  6
CONTINUOUS
 10
-105.6479336137
 20
-26.2925483646
  0
VERTEX
  8
0
 62
9
  6
CONTINUOUS
 10
-105.7908532101
 20
-26.3822050268
  0
VERTEX
  8
0
 62
9
  6
CONTINUOUS
 10
-105.9227386715
 20
-26.4711997189
  0
VERTEX
  8
0
 62
9
  6
CONTINUOUS
 10
-106.0440121031
 20
-26.559327701
  0
VERTEX
  8
0
 62
9
  6
CONTINUOUS
 10
-106.1550840815
 20
-26.6463856693
  0
VERTEX
  8
0
 62
9
  6
CONTINUOUS
 10
-106.2564008945
 20
-26.732174962
  0
VERTEX
  8
0
 62
9
  6
CONTINUOUS
 10
-106.3483853373
 20
-26.8164877482
  0
VERTEX
  8
0
 62
9
  6
CONTINUOUS
 10
-106.4315184643
 20
-26.8991482314
  0
VERTEX
  8
0
 62
9
  6
CONTINUOUS
 10
-106.506248756
 20
-26.9799533413
  0
VERTEX
  8
0
 62
9
  6
CONTINUOUS
 10
-106.5730967299
 20
-27.0587770683
  0
VERTEX
  8
0
 62
9
  6
CONTINUOUS
 10
-106.632552302
 20
-27.1354456032
  0
VERTEX
  8
0
 62
9
  6
CONTINUOUS
 10
-106.6851557577
 20
-27.2098992751
  0
VERTEX
  8
0
 62
9
  6
CONTINUOUS
 10
-106.7314366956
 20
-27.2820212139
  0
VERTEX
  8
0
 62
9
  6
CONTINUOUS
 10
-106.7719170919
 20
-27.3518092077
  0
VERTEX
  8
0
 62
9
  6
CONTINUOUS
 10
-106.8071391198
 20
-27.4192133001
  0
VERTEX
  8
0
 62
9
  6
CONTINUOUS
 10
-106.8375717872
 20
-27.4842598545
  0
VERTEX
  8
0
 62
9
  6
CONTINUOUS
 10
-106.8637248107
 20
-27.5469250561
  0
VERTEX
  8
0
 62
9
  6
CONTINUOUS
 10
-106.8860182385
 20
-27.6073094827
  0
VERTEX
  8
0
 62
9
  6
CONTINUOUS
 10
-106.9049409127
 20
-27.6655239718
  0
VERTEX
  8
0
 62
9
  6
CONTINUOUS
 10
-106.9207961683
 20
-27.7215139297
  0
VERTEX
  8
0
 62
9
  6
CONTINUOUS
 10
-106.9339310712
 20
-27.7750605221
  0
VERTEX
  8
0
 62
9
  6
CONTINUOUS
 10
-106.9447032721
 20
-27.8267673077
  0
VERTEX
  8
0
 62
9
  6
CONTINUOUS
 10
-106.9535027103
 20
-27.8765437951
  0
VERTEX
  8
0
 62
9
  6
CONTINUOUS
 10
-106.960579587
 20
-27.9262533004
  0
VERTEX
  8
0
 62
9
  6
CONTINUOUS
 10
-106.9663913032
 20
-27.9773293266
  0
VERTEX
  8
0
 62
9
  6
CONTINUOUS
 10
-106.9707061998
 20
-28.0309708215
  0
VERTEX
  8
0
 62
9
  6
CONTINUOUS
 10
-106.9734351858
 20
-28.0890641647
  0
VERTEX
  8
0
 62
9
  6
CONTINUOUS
 10
-106.974607958
 20
-28.1509805629
  0
SEQEND
  0
LINE
  8
0
 62
9
  6
CONTINUOUS
 10
443.025392042
 20
244.3490194371
 11
442.025392042
 21
244.3490194371
  0
LINE
  8
0
 62
9
  6
CONTINUOUS
 10
475.525392042
 20
244.3490194371
 11
476.525392042
 21
244.3490194371
  0
LINE
  8
0
 62
7
  6
CONTINUOUS
 10
445.525392042
 20
245.8490194371
 11
473.025392042
 21
245.8490194371
  0
LINE
  8
0
 62
7
  6
CONTINUOUS
 10
445.525392042
 20
262.8490194371
 11
473.025392042
 21
262.8490194371
  0
LINE
  8
0
 62
9
  6
CONTINUOUS
 10
443.025392042
 20
264.3490194371
 11
442.025392042
 21
264.3490194371
  0
LINE
  8
0
 62
9
  6
CONTINUOUS
 10
475.525392042
 20
264.3490194371
 11
476.525392042
 21
264.3490194371
  0
POLYLINE
  8
0
 62
9
  6
CONTINUOUS
 66
1
 70
0
  0
VERTEX
  8
0
 62
9
  6
CONTINUOUS
 10
372.1101543798
 20
-125.6509805629
  0
VERTEX
  8
0
 62
9
  6
CONTINUOUS
 10
372.0252830079
 20
-125.3579206515
  0
VERTEX
  8
0
 62
9
  6
CONTINUOUS
 10
371.9392783374
 20
-125.0804482666
  0
VERTEX
  8
0
 62
9
  6
CONTINUOUS
 10
371.8520570271
 20
-124.8188213888
  0
VERTEX
  8
0
 62
9
  6
CONTINUOUS
 10
371.763869101
 20
-124.572266076
  0
VERTEX
  8
0
 62
9
  6
CONTINUOUS
 10
371.6748794725
 20
-124.3402471849
  0
VERTEX
  8
0
 62
9
  6
CONTINUOUS
 10
371.5852601331
 20
-124.1223062986
  0
VERTEX
  8
0
 62
9
  6
CONTINUOUS
 10
371.4951775937
 20
-123.9179501163
  0
VERTEX
  8
0
 62
9
  6
CONTINUOUS
 10
371.4048132106
 20
-123.7267481466
  0
VERTEX
  8
0
 62
9
  6
CONTINUOUS
 10
371.3143397354
 20
-123.5482430639
  0
VERTEX
  8
0
 62
9
  6
CONTINUOUS
 10
371.2239494935
 20
-123.3820220704
  0
VERTEX
  8
0
 62
9
  6
CONTINUOUS
 10
371.1338251579
 20
-123.2276564237
  0
VERTEX
  8
0
 62
9
  6
CONTINUOUS
 10
371.0441684377
 20
-123.0847366324
  0
VERTEX
  8
0
 62
9
  6
CONTINUOUS
 10
370.9551736863
 20
-122.9528509926
  0
VERTEX
  8
0
 62
9
  6
CONTINUOUS
 10
370.8670456441
 20
-122.8315773988
  0
VERTEX
  8
0
 62
9
  6
CONTINUOUS
 10
370.7799876151
 20
-122.7205052737
  0
VERTEX
  8
0
 62
9
  6
CONTINUOUS
 10
370.6941982615
 20
-122.6191883287
  0
VERTEX
  8
0
 62
9
  6
CONTINUOUS
 10
370.6098854147
 20
-122.5272037682
  0
VERTEX
  8
0
 62
9
  6
CONTINUOUS
 10
370.5272248716
 20
-122.4440705369
  0
VERTEX
  8
0
 62
9
  6
CONTINUOUS
 10
370.4464197031
 20
-122.3693401541
  0
VERTEX
  8
0
 62
9
  6
CONTINUOUS
 10
370.367595919
 20
-122.3024921011
  0
VERTEX
  8
0
 62
9
  6
CONTINUOUS
 10
370.2909273292
 20
-122.2430364613
  0
VERTEX
  8
0
 62
9
  6
CONTINUOUS
 10
370.2164736049
 20
-122.1904329484
  0
VERTEX
  8
0
 62
9
  6
CONTINUOUS
 10
370.1443516166
 20
-122.1441519629
  0
VERTEX
  8
0
 62
9
  6
CONTINUOUS
 10
370.0745635759
 20
-122.1036715274
  0
VERTEX
  8
0
 62
9
  6
CONTINUOUS
 10
370.0071594382
 20
-122.0684494672
  0
VERTEX
  8
0
 62
9
  6
CONTINUOUS
 10
369.9421128417
 20
-122.0380167741
  0
VERTEX
  8
0
 62
9
  6
CONTINUOUS
 10
369.8794476031
 20
-122.0118637314
  0
VERTEX
  8
0
 62
9
  6
CONTINUOUS
 10
369.8190631415
 20
-121.9895702891
  0
VERTEX
  8
0
 62
9
  6
CONTINUOUS
 10
369.7608486159
 20
-121.9706476032
  0
VERTEX
  8
0
 62
9
  6
CONTINUOUS
 10
369.7048586239
 20
-121.9547923391
  0
VERTEX
  8
0
 62
9
  6
CONTINUOUS
 10
369.6513120001
 20
-121.9416574313
  0
VERTEX
  8
0
 62
9
  6
CONTINUOUS
 10
369.5996051923
 20
-121.9308852287
  0
VERTEX
  8
0
 62
9
  6
CONTINUOUS
 10
369.5498287
 20
-121.9220857931
  0
VERTEX
  8
0
 62
9
  6
CONTINUOUS
 10
369.5001192026
 20
-121.9150089209
  0
VERTEX
  8
0
 62
9
  6
CONTINUOUS
 10
369.4490431972
 20
-121.9091972097
  0
VERTEX
  8
0
 62
9
  6
CONTINUOUS
 10
369.3954017296
 20
-121.9048823176
  0
VERTEX
  8
0
 62
9
  6
CONTINUOUS
 10
369.3373084126
 20
-121.9021533342
  0
VERTEX
  8
0
 62
9
  6
CONTINUOUS
 10
369.275392042
 20
-121.9009805629
  0
SEQEND
  0
POLYLINE
  8
0
 62
7
  6
CONTINUOUS
 66
1
 70
0
  0
VERTEX
  8
0
 62
7
  6
CONTINUOUS
 10
373.1457495202
 20
-125.6510693371
  0
VERTEX
  8
0
 62
7
  6
CONTINUOUS
 10
373.0661645733
 20
-125.3564781026
  0
VERTEX
  8
0
 62
7
  6
CONTINUOUS
 10
372.9735325864
 20
-125.0382017696
  0
VERTEX
  8
0
 62
7
  6
CONTINUOUS
 10
372.878934495
 20
-124.7361860767
  0
VERTEX
  8
0
 62
7
  6
CONTINUOUS
 10
372.7824201847
 20
-124.4496261449
  0
VERTEX
  8
0
 62
7
  6
CONTINUOUS
 10
372.6840769918
 20
-124.1779101368
  0
VERTEX
  8
0
 62
7
  6
CONTINUOUS
 10
372.5840025085
 20
-123.9205006471
  0
VERTEX
  8
0
 62
7
  6
CONTINUOUS
 10
372.4822710817
 20
-123.6768402179
  0
VERTEX
  8
0
 62
7
  6
CONTINUOUS
 10
372.3789714846
 20
-123.446445468
  0
VERTEX
  8
0
 62
7
  6
CONTINUOUS
 10
372.2741675477
 20
-123.2288107058
  0
VERTEX
  8
0
 62
7
  6
CONTINUOUS
 10
372.167945136
 20
-123.0235087145
  0
VERTEX
  8
0
 62
7
  6
CONTINUOUS
 10
372.0603625929
 20
-122.8300849322
  0
VERTEX
  8
0
 62
7
  6
CONTINUOUS
 10
371.9515119315
 20
-122.6481700848
  0
VERTEX
  8
0
 62
7
  6
CONTINUOUS
 10
371.8414549177
 20
-122.4773608595
  0
VERTEX
  8
0
 62
7
  6
CONTINUOUS
 10
371.7303015999
 20
-122.3173438455
  0
VERTEX
  8
0
 62
7
  6
CONTINUOUS
 10
371.6181276295
 20
-122.1677616174
  0
VERTEX
  8
0
 62
7
  6
CONTINUOUS
 10
371.5050826975
 20
-122.0283581711
  0
VERTEX
  8
0
 62
7
  6
CONTINUOUS
 10
371.3912770891
 20
-121.8988191548
  0
VERTEX
  8
0
 62
7
  6
CONTINUOUS
 10
371.2769282569
 20
-121.7789386038
  0
VERTEX
  8
0
 62
7
  6
CONTINUOUS
 10
371.1622191185
 20
-121.6684439466
  0
VERTEX
  8
0
 62
7
  6
CONTINUOUS
 10
371.0474455297
 20
-121.5671386858
  0
VERTEX
  8
0
 62
7
  6
CONTINUOUS
 10
370.9328900842
 20
-121.4747660498
  0
VERTEX
  8
0
 62
7
  6
CONTINUOUS
 10
370.8189204756
 20
-121.391089299
  0
VERTEX
  8
0
 62
7
  6
CONTINUOUS
 10
370.7059281231
 20
-121.3158302967
  0
VERTEX
  8
0
 62
7
  6
CONTINUOUS
 10
370.5943169674
 20
-121.2486639385
  0
VERTEX
  8
0
 62
7
  6
CONTINUOUS
 10
370.4845487949
 20
-121.1892460412
  0
VERTEX
  8
0
 62
7
  6
CONTINUOUS
 10
370.3770392329
 20
-121.1371579587
  0
VERTEX
  8
0
 62
7
  6
CONTINUOUS
 10
370.2723481822
 20
-121.0920051939
  0
VERTEX
  8
0
 62
7
  6
CONTINUOUS
 10
370.1706686135
 20
-121.0532071128
  0
VERTEX
  8
0
 62
7
  6
CONTINUOUS
 10
370.0722480593
 20
-121.0202224581
  0
VERTEX
  8
0
 62
7
  6
CONTINUOUS
 10
369.977463802
 20
-120.9925575352
  0
VERTEX
  8
0
 62
7
  6
CONTINUOUS
 10
369.8870176873
 20
-120.9697874029
  0
VERTEX
  8
0
 62
7
  6
CONTINUOUS
 10
369.8001891323
 20
-120.9511589696
  0
VERTEX
  8
0
 62
7
  6
CONTINUOUS
 10
369.7172250487
 20
-120.9362308766
  0
VERTEX
  8
0
 62
7
  6
CONTINUOUS
 10
369.6353886979
 20
-120.9241790863
  0
VERTEX
  8
0
 62
7
  6
CONTINUOUS
 10
369.5519896261
 20
-120.9145560522
  0
VERTEX
  8
0
 62
7
  6
CONTINUOUS
 10
369.4655848016
 20
-120.9073420318
  0
VERTEX
  8
0
 62
7
  6
CONTINUOUS
 10
369.3732403887
 20
-120.9026484902
  0
VERTEX
  8
0
 62
7
  6
CONTINUOUS
 10
369.275392042
 20
-120.9009805629
  0
SEQEND
  0
POLYLINE
  8
0
 62
9
  6
CONTINUOUS
 66
1
 70
0
  0
VERTEX
  8
0
 62
9
  6
CONTINUOUS
 10
-78.224607958
 20
-50.9857452408
  0
VERTEX
  8
0
 62
9
  6
CONTINUOUS
 10
-77.9315206565
 20
-50.9008641311
  0
VERTEX
  8
0
 62
9
  6
CONTINUOUS
 10
-77.6540242705
 20
-50.8148503121
  0
VERTEX
  8
0
 62
9
  6
CONTINUOUS
 10
-77.392377115
 20
-50.7276206546
  0
VERTEX
  8
0
 62
9
  6
CONTINUOUS
 10
-77.1458042452
 20
-50.6394245464
  0
VERTEX
  8
0
 62
9
  6
CONTINUOUS
 10
-76.9137695421
 20
-50.5504262426
  0
VERTEX
  8
0
 62
9
  6
CONTINUOUS
 10
-76.6958148437
 20
-50.4607980113
  0
VERTEX
  8
0
 62
9
  6
CONTINUOUS
 10
-76.4914468216
 20
-50.3707064168
  0
VERTEX
  8
0
 62
9
  6
CONTINUOUS
 10
-76.3002348562
 20
-50.2803328246
  0
VERTEX
  8
0
 62
9
  6
CONTINUOUS
 10
-76.1217214966
 20
-50.1898499964
  0
VERTEX
  8
0
 62
9
  6
CONTINUOUS
 10
-75.9554939075
 20
-50.0994503083
  0
VERTEX
  8
0
 62
9
  6
CONTINUOUS
 10
-75.801123193
 20
-50.0093163991
  0
VERTEX
  8
0
 62
9
  6
CONTINUOUS
 10
-75.6582000841
 20
-49.9196502417
  0
VERTEX
  8
0
 62
9
  6
CONTINUOUS
 10
-75.5263130788
 20
-49.8306463896
  0
VERTEX
  8
0
 62
9
  6
CONTINUOUS
 10
-75.4050399795
 20
-49.7425097387
  0
VERTEX
  8
0
 62
9
  6
CONTINUOUS
 10
-75.2939703492
 20
-49.6554438843
  0
VERTEX
  8
0
 62
9
  6
CONTINUOUS
 10
-75.1926574036
 20
-49.5696472825
  0
VERTEX
  8
0
 62
9
  6
CONTINUOUS
 10
-75.1006779044
 20
-49.4853276089
  0
VERTEX
  8
0
 62
9
  6
CONTINUOUS
 10
-75.0175507766
 20
-49.4026608011
  0
VERTEX
  8
0
 62
9
  6
CONTINUOUS
 10
-74.9428273884
 20
-49.321849949
  0
VERTEX
  8
0
 62
9
  6
CONTINUOUS
 10
-74.8759871718
 20
-49.2430212711
  0
VERTEX
  8
0
 62
9
  6
CONTINUOUS
 10
-74.816540214
 20
-49.166348833
  0
VERTEX
  8
0
 62
9
  6
CONTINUOUS
 10
-74.7639459181
 20
-49.091892183
  0
VERTEX
  8
0
 62
9
  6
CONTINUOUS
 10
-74.7176744727
 20
-49.0197682684
  0
VERTEX
  8
0
 62
9
  6
CONTINUOUS
 10
-74.6772036078
 20
-48.9499789566
  0
VERTEX
  8
0
 62
9
  6
CONTINUOUS
 10
-74.641990726
 20
-48.8825737166
  0
VERTEX
  8
0
 62
9
  6
CONTINUOUS
 10
-74.6115669984
 20
-48.8175266909
  0
VERTEX
  8
0
 62
9
  6
CONTINUOUS
 10
-74.5854228557
 20
-48.7548622886
  0
VERTEX
  8
0
 62
9
  6
CONTINUOUS
 10
-74.5631379226
 20
-48.6944791782
  0
VERTEX
  8
0
 62
9
  6
CONTINUOUS
 10
-74.544223052
 20
-48.6362659772
  0
VERTEX
  8
0
 62
9
  6
CONTINUOUS
 10
-74.5283749914
 20
-48.5802772484
  0
VERTEX
  8
0
 62
9
  6
CONTINUOUS
 10
-74.5152463773
 20
-48.5267297978
  0
VERTEX
  8
0
 62
9
  6
CONTINUOUS
 10
-74.5044803956
 20
-48.4750255135
  0
VERTEX
  8
0
 62
9
  6
CONTINUOUS
 10
-74.4956881698
 20
-48.4252600191
  0
VERTEX
  8
0
 62
9
  6
CONTINUOUS
 10
-74.4886185245
 20
-48.375568914
  0
VERTEX
  8
0
 62
9
  6
CONTINUOUS
 10
-74.48281372
 20
-48.3245202993
  0
VERTEX
  8
0
 62
9
  6
CONTINUOUS
 10
-74.4785045726
 20
-48.2709122932
  0
VERTEX
  8
0
 62
9
  6
CONTINUOUS
 10
-74.4757790981
 20
-48.2128558167
  0
VERTEX
  8
0
 62
9
  6
CONTINUOUS
 10
-74.474607958
 20
-48.1509805629
  0
SEQEND
  0
LINE
  8
0
 62
9
  6
CONTINUOUS
 10
349.275392042
 20
-121.9009805629
 11
349.275392042
 21
-120.9009805629
  0
LINE
  8
0
 62
9
  6
CONTINUOUS
 10
349.275392042
 20
-154.4009805629
 11
349.275392042
 21
-155.4009805629
  0
LINE
  8
0
 62
7
  6
CONTINUOUS
 10
350.775392042
 20
-124.4009805629
 11
350.775392042
 21
-151.9009805629
  0
LINE
  8
0
 62
7
  6
CONTINUOUS
 10
-78.224607958
 20
319.3490194371
 11
-103.224607958
 21
319.3490194371
  0
LINE
  8
0
 62
9
  6
CONTINUOUS
 10
425.6343284964
 20
241.9175199952
 11
424.7040794088
 21
242.2844486464
  0
LINE
  8
0
 62
7
  6
CONTINUOUS
 10
367.775392042
 20
-124.4009805629
 11
367.775392042
 21
-151.9009805629
  0
LINE
  8
0
 62
9
  6
CONTINUOUS
 10
369.275392042
 20
-121.9009805629
 11
369.275392042
 21
-120.9009805629
  0
LINE
  8
0
 62
9
  6
CONTINUOUS
 10
369.275392042
 20
-154.4009805629
 11
369.275392042
 21
-155.4009805629
  0
LINE
  8
0
 62
7
  6
CONTINUOUS
 10
429.1010147609
 20
253.4316978092
 11
424.7040794088
 21
242.2844486464
  0
LINE
  8
0
 62
9
  6
CONTINUOUS
 10
430.0312638485
 20
253.064769158
 11
425.6343284964
 21
241.9175199952
  0
LINE
  8
0
 62
9
  6
CONTINUOUS
 10
430.0312638485
 20
253.064769158
 11
429.1010147609
 21
253.4316978092
  0
LINE
  8
0
 62
9
  6
CONTINUOUS
 10
428.025392042
 20
166.8490194371
 11
428.025392042
 21
141.8490194371
  0
LINE
  8
0
 62
9
  6
CONTINUOUS
 10
428.025392042
 20
-150.6509805629
 11
428.025392042
 21
-125.6509805629
  0
LINE
  8
0
 62
9
  6
CONTINUOUS
 10
428.025392042
 20
434.3490194371
 11
428.025392042
 21
459.3490194371
  0
LINE
  8
0
 62
9
  6
CONTINUOUS
 10
432.1460721095
 20
232.3490194371
 11
432.1460721094
 21
231.3490194373
  0
LINE
  8
0
 62
9
  6
CONTINUOUS
 10
432.1460721095
 20
276.3490194371
 11
432.1460721095
 21
277.3490194371
  0
LINE
  8
0
 62
7
  6
CONTINUOUS
 10
442.025392042
 20
264.3490194371
 11
442.025392042
 21
244.3490194371
  0
LINE
  8
0
 62
9
  6
CONTINUOUS
 10
346.8438926001
 20
-104.5099170173
 11
347.2108212513
 21
-103.5796679297
  0
LINE
  8
0
 62
9
  6
CONTINUOUS
 10
357.9911417629
 20
-108.9068523695
 11
358.358070414
 21
-107.9766032819
  0
POLYLINE
  8
0
 62
7
  6
CONTINUOUS
 66
1
 70
0
  0
VERTEX
  8
0
 62
7
  6
CONTINUOUS
 10
442.025392042
 20
244.3490194371
  0
VERTEX
  8
0
 62
7
  6
CONTINUOUS
 10
442.0263950266
 20
244.2730579212
  0
VERTEX
  8
0
 62
7
  6
CONTINUOUS
 10
442.0296701872
 20
244.1927766491
  0
VERTEX
  8
0
 62
7
  6
CONTINUOUS
 10
442.0355469656
 20
244.1093332932
  0
VERTEX
  8
0
 62
7
  6
CONTINUOUS
 10
442.0446081918
 20
244.0208259912
  0
VERTEX
  8
0
 62
7
  6
CONTINUOUS
 10
442.0576404128
 20
243.9259930207
  0
VERTEX
  8
0
 62
7
  6
CONTINUOUS
 10
442.0753967239
 20
243.8251064397
  0
VERTEX
  8
0
 62
7
  6
CONTINUOUS
 10
442.0987404333
 20
243.7182000401
  0
VERTEX
  8
0
 62
7
  6
CONTINUOUS
 10
442.1286521127
 20
243.6052515625
  0
VERTEX
  8
0
 62
7
  6
CONTINUOUS
 10
442.1662395488
 20
243.4862368741
  0
VERTEX
  8
0
 62
7
  6
CONTINUOUS
 10
442.2125174906
 20
243.3617284726
  0
VERTEX
  8
0
 62
7
  6
CONTINUOUS
 10
442.2686346867
 20
243.2320472724
  0
VERTEX
  8
0
 62
7
  6
CONTINUOUS
 10
442.3354948829
 20
243.0981218496
  0
VERTEX
  8
0
 62
7
  6
CONTINUOUS
 10
442.4141010572
 20
242.9605606093
  0
VERTEX
  8
0
 62
7
  6
CONTINUOUS
 10
442.5051068323
 20
242.8204475496
  0
VERTEX
  8
0
 62
7
  6
CONTINUOUS
 10
442.6091704485
 20
242.6786048883
  0
VERTEX
  8
0
 62
7
  6
CONTINUOUS
 10
442.726760541
 20
242.5359058805
  0
VERTEX
  8
0
 62
7
  6
CONTINUOUS
 10
442.8582397152
 20
242.3931302114
  0
VERTEX
  8
0
 62
7
  6
CONTINUOUS
 10
443.004027275
 20
242.2508237824
  0
VERTEX
  8
0
 62
7
  6
CONTINUOUS
 10
443.1643800299
 20
242.1095638491
  0
VERTEX
  8
0
 62
7
  6
CONTINUOUS
 10
443.339759484
 20
241.9696474489
  0
VERTEX
  8
0
 62
7
  6
CONTINUOUS
 10
443.5304661381
 20
241.8314503215
  0
VERTEX
  8
0
 62
7
  6
CONTINUOUS
 10
443.7370523303
 20
241.6951261338
  0
VERTEX
  8
0
 62
7
  6
CONTINUOUS
 10
443.9599417641
 20
241.560910775
  0
VERTEX
  8
0
 62
7
  6
CONTINUOUS
 10
444.1997875094
 20
241.4288999827
  0
VERTEX
  8
0
 62
7
  6
CONTINUOUS
 10
444.4571518136
 20
241.2992591061
  0
VERTEX
  8
0
 62
7
  6
CONTINUOUS
 10
444.7327892417
 20
241.1720735939
  0
VERTEX
  8
0
 62
7
  6
CONTINUOUS
 10
445.0273910845
 20
241.0474866067
  0
VERTEX
  8
0
 62
7
  6
CONTINUOUS
 10
445.3418151718
 20
240.9255961165
  0
VERTEX
  8
0
 62
7
  6
CONTINUOUS
 10
445.6768714062
 20
240.8065501703
  0
VERTEX
  8
0
 62
7
  6
CONTINUOUS
 10
446.0335235974
 20
240.6904704399
  0
VERTEX
  8
0
 62
7
  6
CONTINUOUS
 10
446.4130368771
 20
240.5774264566
  0
VERTEX
  8
0
 62
7
  6
CONTINUOUS
 10
446.7755028373
 20
240.4787402949
  0
SEQEND
  0
POLYLINE
  8
0
 62
9
  6
CONTINUOUS
 66
1
 70
0
  0
VERTEX
  8
0
 62
9
  6
CONTINUOUS
 10
443.025392042
 20
244.3490194371
  0
VERTEX
  8
0
 62
9
  6
CONTINUOUS
 10
443.0259142149
 20
244.3006030388
  0
VERTEX
  8
0
 62
9
  6
CONTINUOUS
 10
443.0280141384
 20
244.2503884862
  0
VERTEX
  8
0
 62
9
  6
CONTINUOUS
 10
443.0315221504
 20
244.1986692895
  0
VERTEX
  8
0
 62
9
  6
CONTINUOUS
 10
443.036947237
 20
244.1445649179
  0
VERTEX
  8
0
 62
9
  6
CONTINUOUS
 10
443.0445768298
 20
244.0872353102
  0
VERTEX
  8
0
 62
9
  6
CONTINUOUS
 10
443.0549059308
 20
244.0268525679
  0
VERTEX
  8
0
 62
9
  6
CONTINUOUS
 10
443.0682998682
 20
243.9633729137
  0
VERTEX
  8
0
 62
9
  6
CONTINUOUS
 10
443.0854350949
 20
243.8966039236
  0
VERTEX
  8
0
 62
9
  6
CONTINUOUS
 10
443.106827455
 20
243.8263724186
  0
VERTEX
  8
0
 62
9
  6
CONTINUOUS
 10
443.1333241019
 20
243.7525768866
  0
VERTEX
  8
0
 62
9
  6
CONTINUOUS
 10
443.1656100979
 20
243.6750695563
  0
VERTEX
  8
0
 62
9
  6
CONTINUOUS
 10
443.2046875606
 20
243.5938160253
  0
VERTEX
  8
0
 62
9
  6
CONTINUOUS
 10
443.2514398683
 20
243.5086850283
  0
VERTEX
  8
0
 62
9
  6
CONTINUOUS
 10
443.3069083023
 20
243.4198193826
  0
VERTEX
  8
0
 62
9
  6
CONTINUOUS
 10
443.3721071988
 20
243.3272145531
  0
VERTEX
  8
0
 62
9
  6
CONTINUOUS
 10
443.4480007723
 20
243.2311813315
  0
VERTEX
  8
0
 62
9
  6
CONTINUOUS
 10
443.535614269
 20
243.1318919716
  0
VERTEX
  8
0
 62
9
  6
CONTINUOUS
 10
443.6357789308
 20
243.0297575515
  0
VERTEX
  8
0
 62
9
  6
CONTINUOUS
 10
443.7494307804
 20
242.9251010119
  0
VERTEX
  8
0
 62
9
  6
CONTINUOUS
 10
443.8772807208
 20
242.8183590197
  0
VERTEX
  8
0
 62
9
  6
CONTINUOUS
 10
444.02013499
 20
242.709939993
  0
VERTEX
  8
0
 62
9
  6
CONTINUOUS
 10
444.1786436058
 20
242.6002516197
  0
VERTEX
  8
0
 62
9
  6
CONTINUOUS
 10
444.3535093743
 20
242.4897170599
  0
VERTEX
  8
0
 62
9
  6
CONTINUOUS
 10
444.5453801691
 20
242.3786983154
  0
VERTEX
  8
0
 62
9
  6
CONTINUOUS
 10
444.7549093461
 20
242.2675912203
  0
VERTEX
  8
0
 62
9
  6
CONTINUOUS
 10
444.9827832651
 20
242.1567174382
  0
VERTEX
  8
0
 62
9
  6
CONTINUOUS
 10
445.2296553803
 20
242.0464329362
  0
VERTEX
  8
0
 62
9
  6
CONTINUOUS
 10
445.4962777649
 20
241.9370306387
  0
VERTEX
  8
0
 62
9
  6
CONTINUOUS
 10
445.7833419829
 20
241.8288283253
  0
VERTEX
  8
0
 62
9
  6
CONTINUOUS
 10
446.0916830167
 20
241.7221073974
  0
VERTEX
  8
0
 62
9
  6
CONTINUOUS
 10
446.4224995576
 20
241.6173035991
  0
VERTEX
  8
0
 62
9
  6
CONTINUOUS
 10
446.775392042
 20
241.5142716825
  0
SEQEND
  0
LINE
  8
0
 62
9
  6
CONTINUOUS
 10
443.025392042
 20
264.3490194371
 11
443.025392042
 21
244.3490194371
  0
LINE
  8
0
 62
7
  6
CONTINUOUS
 10
445.525392042
 20
245.8490194371
 11
445.525392042
 21
262.8490194371
  0
LINE
  8
0
 62
7
  6
CONTINUOUS
 10
446.775392042
 20
-10.6509805629
 11
446.775392042
 21
-106.9009805629
  0
LINE
  8
0
 62
7
  6
CONTINUOUS
 10
446.775392042
 20
185.5990194371
 11
446.775392042
 21
245.8490194371
  0
LINE
  8
0
 62
7
  6
CONTINUOUS
 10
446.775392042
 20
262.8490194371
 11
446.775392042
 21
415.5990194371
  0
LINE
  8
0
 62
9
  6
CONTINUOUS
 10
-78.224607958
 20
415.5990194371
 11
-103.224607958
 21
415.5990194371
  0
LINE
  8
0
 62
9
  6
CONTINUOUS
 10
446.775392042
 20
415.5990194371
 11
471.775392042
 21
415.5990194371
  0
LINE
  8
0
 62
7
  6
CONTINUOUS
 10
428.025392042
 20
434.3490194371
 11
-59.474607958
 21
434.3490194371
  0
LINE
  8
0
 62
7
  6
CONTINUOUS
 10
424.7040794088
 20
266.4135902277
 11
429.1010147609
 21
255.266341065
  0
LINE
  8
0
 62
9
  6
CONTINUOUS
 10
425.6343284964
 20
266.7805188789
 11
430.0312638485
 21
255.6332697162
  0
POLYLINE
  8
0
 62
7
  6
CONTINUOUS
 66
1
 70
0
  0
VERTEX
  8
0
 62
7
  6
CONTINUOUS
 10
476.525392042
 20
264.3490194371
  0
VERTEX
  8
0
 62
7
  6
CONTINUOUS
 10
476.5243887714
 20
264.4249917373
  0
VERTEX
  8
0
 62
7
  6
CONTINUOUS
 10
476.5211129861
 20
264.5052787208
  0
VERTEX
  8
0
 62
7
  6
CONTINUOUS
 10
476.5152357225
 20
264.5887218497
  0
VERTEX
  8
0
 62
7
  6
CONTINUOUS
 10
476.5061742022
 20
264.6772270687
  0
VERTEX
  8
0
 62
7
  6
CONTINUOUS
 10
476.493141502
 20
264.7720597658
  0
VERTEX
  8
0
 62
7
  6
CONTINUOUS
 10
476.4753845856
 20
264.8729465662
  0
VERTEX
  8
0
 62
7
  6
CONTINUOUS
 10
476.4520400918
 20
264.9798536215
  0
VERTEX
  8
0
 62
7
  6
CONTINUOUS
 10
476.4221274098
 20
265.0928030782
  0
VERTEX
  8
0
 62
7
  6
CONTINUOUS
 10
476.3845387325
 20
265.2118189311
  0
VERTEX
  8
0
 62
7
  6
CONTINUOUS
 10
476.3382592388
 20
265.336328737
  0
VERTEX
  8
0
 62
7
  6
CONTINUOUS
 10
476.2821400708
 20
265.4660116633
  0
VERTEX
  8
0
 62
7
  6
CONTINUOUS
 10
476.2152775302
 20
265.5999388717
  0
VERTEX
  8
0
 62
7
  6
CONTINUOUS
 10
476.1366687398
 20
265.7375017104
  0
VERTEX
  8
0
 62
7
  6
CONTINUOUS
 10
476.04565996
 20
265.8776163673
  0
VERTEX
  8
0
 62
7
  6
CONTINUOUS
 10
475.9415926727
 20
266.0194609387
  0
VERTEX
  8
0
 62
7
  6
CONTINUOUS
 10
475.8239987431
 20
266.1621614542
  0
VERTEX
  8
0
 62
7
  6
CONTINUOUS
 10
475.6925161668
 20
266.3049376904
  0
VERTEX
  8
0
 62
7
  6
CONTINUOUS
 10
475.5467255773
 20
266.4472440455
  0
VERTEX
  8
0
 62
7
  6
CONTINUOUS
 10
475.3863703678
 20
266.5885032592
  0
VERTEX
  8
0
 62
7
  6
CONTINUOUS
 10
475.2109888064
 20
266.7284186356
  0
VERTEX
  8
0
 62
7
  6
CONTINUOUS
 10
475.0202800211
 20
266.8666147748
  0
VERTEX
  8
0
 62
7
  6
CONTINUOUS
 10
474.8136920582
 20
267.0029377607
  0
VERTEX
  8
0
 62
7
  6
CONTINUOUS
 10
474.5908014795
 20
267.13715161
  0
VERTEX
  8
0
 62
7
  6
CONTINUOUS
 10
474.350955343
 20
267.2691606017
  0
VERTEX
  8
0
 62
7
  6
CONTINUOUS
 10
474.0935916092
 20
267.3987993723
  0
VERTEX
  8
0
 62
7
  6
CONTINUOUS
 10
473.8179557959
 20
267.5259825303
  0
VERTEX
  8
0
 62
7
  6
CONTINUOUS
 10
473.5233567196
 20
267.6505669593
  0
VERTEX
  8
0
 62
7
  6
CONTINUOUS
 10
473.2089366919
 20
267.7724547179
  0
VERTEX
  8
0
 62
7
  6
CONTINUOUS
 10
472.873885931
 20
267.8914978016
  0
VERTEX
  8
0
 62
7
  6
CONTINUOUS
 10
472.5172408123
 20
268.007574562
  0
VERTEX
  8
0
 62
7
  6
CONTINUOUS
 10
472.1377364339
 20
268.1206154864
  0
VERTEX
  8
0
 62
7
  6
CONTINUOUS
 10
471.7752812501
 20
268.2192985915
  0
SEQEND
  0
POLYLINE
  8
0
 62
9
  6
CONTINUOUS
 66
1
 70
0
  0
VERTEX
  8
0
 62
9
  6
CONTINUOUS
 10
475.525392042
 20
264.3490194371
  0
VERTEX
  8
0
 62
9
  6
CONTINUOUS
 10
475.5248695815
 20
264.3974424732
  0
VERTEX
  8
0
 62
9
  6
CONTINUOUS
 10
475.5227693888
 20
264.4476607356
  0
VERTEX
  8
0
 62
9
  6
CONTINUOUS
 10
475.519261135
 20
264.4993799339
  0
VERTEX
  8
0
 62
9
  6
CONTINUOUS
 10
475.5138358064
 20
264.5534829393
  0
VERTEX
  8
0
 62
9
  6
CONTINUOUS
 10
475.506205966
 20
264.6108121139
  0
VERTEX
  8
0
 62
9
  6
CONTINUOUS
 10
475.4958765556
 20
264.6711946952
  0
VERTEX
  8
0
 62
9
  6
CONTINUOUS
 10
475.4824821912
 20
264.7346746277
  0
VERTEX
  8
0
 62
9
  6
CONTINUOUS
 10
475.4653464138
 20
264.8014441518
  0
VERTEX
  8
0
 62
9
  6
CONTINUOUS
 10
475.4439533862
 20
264.8716762728
  0
VERTEX
  8
0
 62
9
  6
CONTINUOUS
 10
475.4174558587
 20
264.9454726403
  0
VERTEX
  8
0
 62
9
  6
CONTINUOUS
 10
475.3851686679
 20
265.0229811662
  0
VERTEX
  8
0
 62
9
  6
CONTINUOUS
 10
475.3460897181
 20
265.1042360695
  0
VERTEX
  8
0
 62
9
  6
CONTINUOUS
 10
475.2993356492
 20
265.1893684484
  0
VERTEX
  8
0
 62
9
  6
CONTINUOUS
 10
475.2438650906
 20
265.2782355765
  0
VERTEX
  8
0
 62
9
  6
CONTINUOUS
 10
475.1786635098
 20
265.3708421592
  0
VERTEX
  8
0
 62
9
  6
CONTINUOUS
 10
475.102767033
 20
265.4668769986
  0
VERTEX
  8
0
 62
9
  6
CONTINUOUS
 10
475.0151506494
 20
265.5661674705
  0
VERTEX
  8
0
 62
9
  6
CONTINUOUS
 10
474.9149832382
 20
265.6683025589
  0
VERTEX
  8
0
 62
9
  6
CONTINUOUS
 10
474.8013290378
 20
265.7729591792
  0
VERTEX
  8
0
 62
9
  6
CONTINUOUS
 10
474.67347696
 20
265.8797009126
  0
VERTEX
  8
0
 62
9
  6
CONTINUOUS
 10
474.5306206014
 20
265.9881195779
  0
VERTEX
  8
0
 62
9
  6
CONTINUOUS
 10
474.372110145
 20
266.0978073773
  0
VERTEX
  8
0
 62
9
  6
CONTINUOUS
 10
474.1972428474
 20
266.2083411369
  0
VERTEX
  8
0
 62
9
  6
CONTINUOUS
 10
474.0053710843
 20
266.3193588037
  0
VERTEX
  8
0
 62
9
  6
CONTINUOUS
 10
473.7958417317
 20
266.4304644695
  0
VERTEX
  8
0
 62
9
  6
CONTINUOUS
 10
473.5679685443
 20
266.5413365253
  0
VERTEX
  8
0
 62
9
  6
CONTINUOUS
 10
473.3210982133
 20
266.6516190207
  0
VERTEX
  8
0
 62
9
  6
CONTINUOUS
 10
473.0544788056
 20
266.7610190716
  0
VERTEX
  8
0
 62
9
  6
CONTINUOUS
 10
472.7674188454
 20
266.8692190934
  0
VERTEX
  8
0
 62
9
  6
CONTINUOUS
 10
472.4590836514
 20
266.9759372364
  0
VERTEX
  8
0
 62
9
  6
CONTINUOUS
 10
472.1282749036
 20
267.0807373257
  0
VERTEX
  8
0
 62
9
  6
CONTINUOUS
 10
471.775392042
 20
267.1837647529
  0
SEQEND
  0
LINE
  8
0
 62
7
  6
CONTINUOUS
 10
471.775392042
 20
-10.6509805629
 11
471.775392042
 21
-106.9009805629
  0
LINE
  8
0
 62
7
  6
CONTINUOUS
 10
471.775392042
 20
185.5990194371
 11
471.775392042
 21
245.8490194371
  0
LINE
  8
0
 62
7
  6
CONTINUOUS
 10
471.775392042
 20
262.8490194371
 11
471.775392042
 21
415.5990194371
  0
LINE
  8
0
 62
7
  6
CONTINUOUS
 10
473.025392042
 20
245.8490194371
 11
473.025392042
 21
262.8490194371
  0
LINE
  8
0
 62
9
  6
CONTINUOUS
 10
475.525392042
 20
244.3490194371
 11
475.525392042
 21
264.3490194371
  0
LINE
  8
0
 62
7
  6
CONTINUOUS
 10
476.525392042
 20
244.3490194371
 11
476.525392042
 21
264.3490194371
  0
LINE
  8
0
 62
7
  6
CONTINUOUS
 10
371.3399628326
 20
-103.5796679297
 11
360.1927136699
 21
-107.9766032819
  0
LINE
  8
0
 62
9
  6
CONTINUOUS
 10
371.7068914838
 20
-104.5099170173
 11
360.559642321
 21
-108.9068523695
  0
LINE
  8
0
 62
7
  6
CONTINUOUS
 10
428.025392042
 20
459.3490194371
 11
-59.474607958
 21
459.3490194371
  0
ARC
  8
0
 62
7
  6
CONTINUOUS
 10
-63.5952880255
 20
-65.1509805629
 40
50.0
 50
90.0
 51
107.0145981661
  0
ARC
  8
0
 62
7
  6
CONTINUOUS
 10
-63.5952880255
 20
-11.1509805629
 40
50.0
 50
252.9855426815
 51
270.0
  0
ARC
  8
0
 62
9
  6
CONTINUOUS
 10
-63.5952880255
 20
-11.1509805629
 40
48.9999999999
 50
252.6279179495
 51
270.0
  0
ARC
  8
0
 62
9
  6
CONTINUOUS
 10
-63.5952880255
 20
-65.1509805629
 40
48.9999999998
 50
90.0
 51
107.3718825006
  0
ARC
  8
0
 62
7
  6
CONTINUOUS
 10
-59.474607958
 20
-106.9009805629
 40
43.75
 50
180.0
 51
270.0
  0
ARC
  8
0
 62
7
  6
CONTINUOUS
 10
-59.474607958
 20
123.0990194371
 40
43.75
 50
90.0
 51
180.0
  0
ARC
  8
0
 62
7
  6
CONTINUOUS
 10
-59.474607958
 20
-106.9009805629
 40
18.75
 50
180.0
 51
270.0
  0
ARC
  8
0
 62
7
  6
CONTINUOUS
 10
-59.474607958
 20
123.0990194371
 40
18.75
 50
90.0
 51
180.0
  0
ARC
  8
0
 62
7
  6
CONTINUOUS
 10
-63.5952880255
 20
-23.1509805629
 40
8.0
 50
338.4736765142
 51
90.0
  0
ARC
  8
0
 62
7
  6
CONTINUOUS
 10
-63.5952880255
 20
-53.1509805629
 40
8.0
 50
270.0
 51
21.5263234858
  0
ARC
  8
0
 62
9
  6
CONTINUOUS
 10
-63.5952880255
 20
-23.1509805629
 40
7.0
 50
338.4736765142
 51
90.0
  0
ARC
  8
0
 62
9
  6
CONTINUOUS
 10
-63.5952880255
 20
-53.1509805629
 40
7.0
 50
270.0
 51
21.5263234858
  0
ARC
  8
0
 62
9
  6
CONTINUOUS
 10
-58.224607958
 20
-38.1509805629
 40
3.5
 50
158.4736765142
 51
201.5263234858
  0
ARC
  8
0
 62
7
  6
CONTINUOUS
 10
-58.224607958
 20
-38.1509805629
 40
2.5
 50
158.4736765142
 51
201.5263234858
  0
ARC
  8
0
 62
7
  6
CONTINUOUS
 10
-59.474607958
 20
415.5990194371
 40
43.75
 50
90.0
 51
180.0
  0
ARC
  8
0
 62
7
  6
CONTINUOUS
 10
-59.474607958
 20
415.5990194371
 40
18.75
 50
90.0
 51
180.0
  0
ARC
  8
0
 62
7
  6
CONTINUOUS
 10
386.275392042
 20
-111.0216606304
 40
50.0
 50
180.0
 51
197.0145981661
  0
ARC
  8
0
 62
7
  6
CONTINUOUS
 10
332.275392042
 20
-111.0216606304
 40
50.0
 50
342.9855426815
 51
360.0
  0
ARC
  8
0
 62
9
  6
CONTINUOUS
 10
332.275392042
 20
-111.0216606304
 40
48.9999999999
 50
342.6279179495
 51
360.0
  0
ARC
  8
0
 62
9
  6
CONTINUOUS
 10
386.275392042
 20
-111.0216606304
 40
48.9999999998
 50
180.0
 51
197.3718825006
  0
ARC
  8
0
 62
7
  6
CONTINUOUS
 10
428.025392042
 20
-106.9009805629
 40
43.75
 50
270.0
 51
360.0
  0
ARC
  8
0
 62
7
  6
CONTINUOUS
 10
428.025392042
 20
-106.9009805629
 40
18.75
 50
270.0
 51
360.0
  0
ARC
  8
0
 62
7
  6
CONTINUOUS
 10
344.275392042
 20
-111.0216606304
 40
8.0
 50
68.4736765142
 51
180.0
  0
ARC
  8
0
 62
7
  6
CONTINUOUS
 10
374.275392042
 20
-111.0216606304
 40
8.0
 50
0.0
 51
111.5263234858
  0
ARC
  8
0
 62
9
  6
CONTINUOUS
 10
344.275392042
 20
-111.0216606304
 40
7.0
 50
68.4736765142
 51
180.0
  0
ARC
  8
0
 62
9
  6
CONTINUOUS
 10
374.275392042
 20
-111.0216606304
 40
7.0
 50
0.0
 51
111.5263234858
  0
ARC
  8
0
 62
9
  6
CONTINUOUS
 10
359.275392042
 20
-105.6509805629
 40
3.5
 50
248.4736765142
 51
291.5263234858
  0
ARC
  8
0
 62
7
  6
CONTINUOUS
 10
359.275392042
 20
-105.6509805629
 40
2.5
 50
248.4736765142
 51
291.5263234858
  0
ARC
  8
0
 62
7
  6
CONTINUOUS
 10
432.1460721095
 20
281.3490194371
 40
50.0
 50
270.0
 51
287.0145981661
  0
ARC
  8
0
 62
7
  6
CONTINUOUS
 10
432.1460721095
 20
227.3490194371
 40
50.0
 50
72.9855426815
 51
90.0
  0
ARC
  8
0
 62
9
  6
CONTINUOUS
 10
432.1460721095
 20
227.3490194371
 40
48.9999999999
 50
72.6279179495
 51
90.0
  0
ARC
  8
0
 62
9
  6
CONTINUOUS
 10
432.1460721095
 20
281.3490194371
 40
48.9999999998
 50
270.0
 51
287.3718825006
  0
ARC
  8
0
 62
7
  6
CONTINUOUS
 10
428.025392042
 20
185.5990194371
 40
43.75
 50
270.0
 51
360.0
  0
ARC
  8
0
 62
7
  6
CONTINUOUS
 10
428.025392042
 20
415.5990194371
 40
43.75
 50
0.0
 51
90.0
  0
ARC
  8
0
 62
7
  6
CONTINUOUS
 10
428.025392042
 20
185.5990194371
 40
18.75
 50
270.0
 51
360.0
  0
ARC
  8
0
 62
7
  6
CONTINUOUS
 10
428.025392042
 20
415.5990194371
 40
18.75
 50
0.0
 51
90.0
  0
ARC
  8
0
 62
7
  6
CONTINUOUS
 10
432.1460721095
 20
239.3490194371
 40
8.0
 50
158.4736765142
 51
270.0
  0
ARC
  8
0
 62
7
  6
CONTINUOUS
 10
432.1460721095
 20
269.3490194371
 40
8.0
 50
90.0
 51
201.5263234858
  0
ARC
  8
0
 62
9
  6
CONTINUOUS
 10
432.1460721095
 20
239.3490194371
 40
7.0
 50
158.4736765142
 51
270.0
  0
ARC
  8
0
 62
9
  6
CONTINUOUS
 10
432.1460721095
 20
269.3490194371
 40
7.0
 50
90.0
 51
201.5263234858
  0
ARC
  8
0
 62
9
  6
CONTINUOUS
 10
426.775392042
 20
254.3490194371
 40
3.5
 50
338.4736765142
 51
21.5263234858
  0
ARC
  8
0
 62
7
  6
CONTINUOUS
 10
426.775392042
 20
254.3490194371
 40
2.5
 50
338.4736765142
 51
21.5263234858
  0
ENDSEC
  0
EOF
