999
DXF file: K:\Client\125_Heirloom\001\00\Final_Data\Drawings\LADDER TOWEL WARMERS\we575_2.dxf
999
Pro/ENGINEER 2017110 by Parametric Technology Corporation
  0
SECTION
  2
HEADER
  9
$EXTMAX
 10
420.0
 20
297.0
 30
0.0
  9
$EXTMIN
 10
0.0
 20
0.0
 30
0.0
  9
$LIMMIN
 10
0.0
 20
0.0
  9
$LIMMAX
 10
420.0
 20
297.0
  9
$VIEWCTR
 10
210.0
 20
148.5
  9
$VIEWSIZE
 40
297.0
  9
$CLAYER
  8
0
  9
$LTSCALE
 40
23.1
  9
$CELTYPE
  6
BYLAYER
  9
$DIMSCALE
 40
1.0
  9
$DIMASZ
 40
3.0
  9
$DIMEXO
 40
1.0
  9
$DIMDLI
 40
15.96
  9
$DIMEXE
 40
1.0
  9
$DIMCEN
 40
3.78
  9
$DIMLFAC
 40
1.0
  9
$DIMBLK
  1
_FILLED
  9
$DIMALT
 70
0
  9
$DIMALTF
 40
0.0393700787
  9
$DIMTXT
 40
3.0
  9
$AUNITS
 70
0
  9
$PDMODE
 70
3
  9
$PDSIZE
 40
5.0
  9
$TILEMODE
 70
1
  0
ENDSEC
  0
SECTION
  2
TABLES
  0
TABLE
  2
LTYPE
 70
6
  0
LTYPE
  2
BYBLOCK
 70
0
  3

 72
65
 73
0
 40
0.0
  0
LTYPE
  2
BYLAYER
 70
0
  3

 72
65
 73
0
 40
0.0
  0
LTYPE
  2
CONTINUOUS
 70
64
  3
Solid line
 72
65
 73
0
 40
0.0
  0
LTYPE
  2
CENTER
 70
64
  3
____ _ ____ _ ____ _ ____ _ ____ _ ____ _ ____
 72
65
 73
4
 40
0.6
 49
0.375
 49
-0.075
 49
0.075
 49
-0.075
  0
LTYPE
  2
HIDDEN
 70
64
  3
- - - - - - - - - - - - - - - - - - - -
 72
65
 73
2
 40
0.2
 49
0.1
 49
-0.1
  0
LTYPE
  2
PHANTOM
 70
64
  3
_____ _ _ _____ _ _ _____ _ _ _____
 72
65
 73
6
 40
0.8
 49
0.45
 49
-0.05
 49
0.1
 49
-0.05
 49
0.1
 49
-0.05
  0
LTYPE
  2
DOT
 70
64
  3
. . . . . . . . . . . . . . . . . . . .
 72
65
 73
2
 40
0.2
 49
0.1
 49
-0.1
  0
LTYPE
  2
DASHED
 70
64
  3
- - - - - - - - - - - - - - - - - - - -
 72
65
 73
2
 40
0.2
 49
0.1
 49
-0.1
  0
ENDTAB
  0
TABLE
  2
LAYER
 70
36
  0
LAYER
  2
0
 70
0
 62
7
  6
CONTINUOUS
  0
LAYER
  2
DEFAULT_1
 70
0
 62
7
  6
CENTER
  0
LAYER
  2
DEFAULT_2
 70
0
 62
8
  6
HIDDEN
  0
LAYER
  2
DEFAULT_3
 70
0
 62
7
  6
PHANTOM
  0
LAYER
  2
0000_BOM
 70
0
 62
7
  6
CONTINUOUS
  0
LAYER
  2
0000_REV_TABLE
 70
0
 62
7
  6
CONTINUOUS
  0
LAYER
  2
0000_STEVENS_NOTE
 70
0
 62
7
  6
CONTINUOUS
  0
LAYER
  2
01_DATUM_PLANES
 70
0
 62
7
  6
CONTINUOUS
  0
LAYER
  2
01_DEF_PLANES
 70
0
 62
7
  6
CONTINUOUS
  0
LAYER
  2
02_DATUM_COS
 70
0
 62
7
  6
CONTINUOUS
  0
LAYER
  2
99_SOLID
 70
0
 62
7
  6
CONTINUOUS
  0
LAYER
  2
CAD-MASTER_ZINC-PL
 70
0
 62
7
  6
CONTINUOUS
  0
LAYER
  2
CURVE
 70
0
 62
7
  6
CONTINUOUS
  0
LAYER
  2
SKEL
 70
0
 62
7
  6
CONTINUOUS
  0
LAYER
  2
SKETCH
 70
0
 62
7
  6
CONTINUOUS
  0
LAYER
  2
SURFACE
 70
0
 62
7
  6
CONTINUOUS
  0
ENDTAB
  0
TABLE
  2
STYLE
 70
1
  0
STYLE
  2
STANDARD
 70
0
 40
0.0
 41
0.75
 50
0.0
 71
0
 42
0.2
  3
txt
  4

  0
STYLE
  2
TEXTSTYLE_1
 70
0
 40
0.0
 41
0.8
 50
0.0
 71
0
 42
0.2
  3
gdt
  4

  0
ENDTAB
  0
ENDSEC
  0
SECTION
  2
BLOCKS
  0
ENDSEC
  0
SECTION
  2
ENTITIES
  0
LINE
  8
0
 62
7
  6
CONTINUOUS
 10
220.0823269735
 20
-154.7941740561
 11
151.0823269735
 21
-154.7941740561
  0
LINE
  8
0
 62
7
  6
CONTINUOUS
 10
220.0823269735
 20
-137.8355618243
 11
211.0823269735
 21
-137.8355618243
  0
LINE
  8
0
 62
7
  6
CONTINUOUS
 10
210.3053218236
 20
-137.5441740561
 11
162.5823269735
 21
-137.5441740561
  0
LINE
  8
0
 62
7
  6
CONTINUOUS
 10
220.0823269735
 20
-137.3003318432
 11
211.0823269735
 21
-137.3003318431
  0
POLYLINE
  8
0
 62
7
  6
CONTINUOUS
 66
1
 70
0
  0
VERTEX
  8
0
 62
7
  6
CONTINUOUS
 10
211.0823246398
 20
-137.8355635675
  0
VERTEX
  8
0
 62
7
  6
CONTINUOUS
 10
211.0343875379
 20
-137.8345664821
  0
VERTEX
  8
0
 62
7
  6
CONTINUOUS
 10
210.9855037079
 20
-137.83121931
  0
VERTEX
  8
0
 62
7
  6
CONTINUOUS
 10
210.9357519361
 20
-137.8256177681
  0
VERTEX
  8
0
 62
7
  6
CONTINUOUS
 10
210.8848958639
 20
-137.8174737525
  0
VERTEX
  8
0
 62
7
  6
CONTINUOUS
 10
210.8327520987
 20
-137.8066284516
  0
VERTEX
  8
0
 62
7
  6
CONTINUOUS
 10
210.7792405287
 20
-137.7927884316
  0
VERTEX
  8
0
 62
7
  6
CONTINUOUS
 10
210.7241872731
 20
-137.7757010917
  0
VERTEX
  8
0
 62
7
  6
CONTINUOUS
 10
210.6676902464
 20
-137.7550830792
  0
VERTEX
  8
0
 62
7
  6
CONTINUOUS
 10
210.6097070928
 20
-137.7306311806
  0
VERTEX
  8
0
 62
7
  6
CONTINUOUS
 10
210.5504847423
 20
-137.7021494145
  0
VERTEX
  8
0
 62
7
  6
CONTINUOUS
 10
210.4901586609
 20
-137.6693685801
  0
VERTEX
  8
0
 62
7
  6
CONTINUOUS
 10
210.4290208848
 20
-137.6322014923
  0
VERTEX
  8
0
 62
7
  6
CONTINUOUS
 10
210.3674507547
 20
-137.5904500166
  0
VERTEX
  8
0
 62
7
  6
CONTINUOUS
 10
210.3053218236
 20
-137.5441740561
  0
SEQEND
  0
POLYLINE
  8
0
 62
7
  6
CONTINUOUS
 66
1
 70
0
  0
VERTEX
  8
0
 62
7
  6
CONTINUOUS
 10
211.0823269735
 20
-137.3003343035
  0
VERTEX
  8
0
 62
7
  6
CONTINUOUS
 10
211.05836204
 20
-137.2994765078
  0
VERTEX
  8
0
 62
7
  6
CONTINUOUS
 10
211.0339096764
 20
-137.2966425456
  0
VERTEX
  8
0
 62
7
  6
CONTINUOUS
 10
211.0090358124
 20
-137.2918829969
  0
VERTEX
  8
0
 62
7
  6
CONTINUOUS
 10
210.9836084422
 20
-137.2849679658
  0
VERTEX
  8
0
 62
7
  6
CONTINUOUS
 10
210.9575392522
 20
-137.2757543665
  0
VERTEX
  8
0
 62
7
  6
CONTINUOUS
 10
210.9307817578
 20
-137.2639981699
  0
VERTEX
  8
0
 62
7
  6
CONTINUOUS
 10
210.9032543749
 20
-137.2494770186
  0
VERTEX
  8
0
 62
7
  6
CONTINUOUS
 10
210.8750015729
 20
-137.2319522885
  0
VERTEX
  8
0
 62
7
  6
CONTINUOUS
 10
210.8460114909
 20
-137.2111647576
  0
VERTEX
  8
0
 62
7
  6
CONTINUOUS
 10
210.8164009907
 20
-137.1869439039
  0
VERTEX
  8
0
 62
7
  6
CONTINUOUS
 10
210.7862440965
 20
-137.1590688354
  0
VERTEX
  8
0
 62
7
  6
CONTINUOUS
 10
210.7556792191
 20
-137.1274471592
  0
VERTEX
  8
0
 62
7
  6
CONTINUOUS
 10
210.7248661781
 20
-137.0919172705
  0
VERTEX
  8
0
 62
7
  6
CONTINUOUS
 10
210.6938243985
 20
-137.0524977337
  0
SEQEND
  0
LINE
  8
0
 62
7
  6
CONTINUOUS
 10
210.0823269735
 20
-120.2941740561
 11
162.5823269735
 21
-120.2941740561
  0
LINE
  8
0
 62
7
  6
CONTINUOUS
 10
210.0823269735
 20
-110.4148541236
 11
220.0823269735
 21
-110.4148541236
  0
LINE
  8
0
 62
7
  6
CONTINUOUS
 10
162.5823269735
 20
-106.2941740561
 11
137.5823269735
 21
-106.2941740561
  0
LINE
  8
0
 62
7
  6
CONTINUOUS
 10
211.0823269735
 20
-102.4148541236
 11
220.0823269735
 21
-102.4148541236
  0
LINE
  8
0
 62
7
  6
CONTINUOUS
 10
211.0823269735
 20
-60.5441740561
 11
220.0823269735
 21
-60.5441740561
  0
LINE
  8
0
 62
7
  6
CONTINUOUS
 10
209.3818234709
 20
-52.5441740561
 11
162.5823269735
 21
-52.5441740561
  0
POLYLINE
  8
0
 62
7
  6
CONTINUOUS
 66
1
 70
0
  0
VERTEX
  8
0
 62
7
  6
CONTINUOUS
 10
210.3053218238
 20
-137.5441740562
  0
VERTEX
  8
0
 62
7
  6
CONTINUOUS
 10
210.265040262
 20
-137.5116550341
  0
VERTEX
  8
0
 62
7
  6
CONTINUOUS
 10
210.2260882402
 20
-137.4782620875
  0
VERTEX
  8
0
 62
7
  6
CONTINUOUS
 10
210.1884082428
 20
-137.4441479644
  0
VERTEX
  8
0
 62
7
  6
CONTINUOUS
 10
210.1519287194
 20
-137.4093519004
  0
VERTEX
  8
0
 62
7
  6
CONTINUOUS
 10
210.1165850841
 20
-137.3739023265
  0
VERTEX
  8
0
 62
7
  6
CONTINUOUS
 10
210.0823269733
 20
-137.3379061451
  0
SEQEND
  0
LINE
  8
0
 62
7
  6
CONTINUOUS
 10
211.0823269735
 20
-49.6087448467
 11
220.0823269735
 21
-49.6087448467
  0
LINE
  8
0
 62
7
  6
CONTINUOUS
 10
210.0823269735
 20
-47.5441740561
 11
162.5823269735
 21
-47.5441740561
  0
LINE
  8
0
 62
7
  6
CONTINUOUS
 10
136.3323269735
 20
-46.0441740561
 11
137.5823269735
 21
-46.0441740561
  0
LINE
  8
0
 62
7
  6
CONTINUOUS
 10
211.0823269735
 20
-38.461495684
 11
220.0823269735
 21
-38.461495684
  0
LINE
  8
0
 62
7
  6
CONTINUOUS
 10
211.0823269735
 20
-36.6268524282
 11
220.0823269735
 21
-36.6268524282
  0
POLYLINE
  8
0
 62
7
  6
CONTINUOUS
 66
1
 70
0
  0
VERTEX
  8
0
 62
7
  6
CONTINUOUS
 10
209.3319384277
 20
-52.532247847
  0
VERTEX
  8
0
 62
7
  6
CONTINUOUS
 10
209.2716882811
 20
-52.5286787685
  0
VERTEX
  8
0
 62
7
  6
CONTINUOUS
 10
209.2161783026
 20
-52.5241444541
  0
VERTEX
  8
0
 62
7
  6
CONTINUOUS
 10
209.168523086
 20
-52.5186054481
  0
VERTEX
  8
0
 62
7
  6
CONTINUOUS
 10
209.1298826282
 20
-52.5118243231
  0
VERTEX
  8
0
 62
7
  6
CONTINUOUS
 10
209.1017452314
 20
-52.5038555068
  0
VERTEX
  8
0
 62
7
  6
CONTINUOUS
 10
209.0864564791
 20
-52.4947018515
  0
VERTEX
  8
0
 62
7
  6
CONTINUOUS
 10
209.0826045253
 20
-52.4846549244
  0
VERTEX
  8
0
 62
7
  6
CONTINUOUS
 10
209.0903147598
 20
-52.4742296265
  0
VERTEX
  8
0
 62
7
  6
CONTINUOUS
 10
209.1073210584
 20
-52.4634906407
  0
VERTEX
  8
0
 62
7
  6
CONTINUOUS
 10
209.1316320348
 20
-52.4527274406
  0
VERTEX
  8
0
 62
7
  6
CONTINUOUS
 10
209.1625488647
 20
-52.4419107788
  0
VERTEX
  8
0
 62
7
  6
CONTINUOUS
 10
209.1989053924
 20
-52.4310245489
  0
VERTEX
  8
0
 62
7
  6
CONTINUOUS
 10
209.2401122257
 20
-52.4201664123
  0
VERTEX
  8
0
 62
7
  6
CONTINUOUS
 10
209.2852944661
 20
-52.4094011179
  0
VERTEX
  8
0
 62
7
  6
CONTINUOUS
 10
209.3341424772
 20
-52.3987627403
  0
VERTEX
  8
0
 62
7
  6
CONTINUOUS
 10
209.3861840202
 20
-52.388267807
  0
VERTEX
  8
0
 62
7
  6
CONTINUOUS
 10
209.4410320045
 20
-52.3779765598
  0
VERTEX
  8
0
 62
7
  6
CONTINUOUS
 10
209.4982168727
 20
-52.3679350667
  0
VERTEX
  8
0
 62
7
  6
CONTINUOUS
 10
209.557513786
 20
-52.3581737286
  0
VERTEX
  8
0
 62
7
  6
CONTINUOUS
 10
209.618566348
 20
-52.3487229305
  0
VERTEX
  8
0
 62
7
  6
CONTINUOUS
 10
209.6812996745
 20
-52.3395972907
  0
VERTEX
  8
0
 62
7
  6
CONTINUOUS
 10
209.7456034976
 20
-52.3307981394
  0
VERTEX
  8
0
 62
7
  6
CONTINUOUS
 10
209.8112275724
 20
-52.3223634325
  0
VERTEX
  8
0
 62
7
  6
CONTINUOUS
 10
209.8779750482
 20
-52.3143157687
  0
VERTEX
  8
0
 62
7
  6
CONTINUOUS
 10
209.9455754743
 20
-52.3066847468
  0
VERTEX
  8
0
 62
7
  6
CONTINUOUS
 10
210.0136507742
 20
-52.2994913017
  0
VERTEX
  8
0
 62
7
  6
CONTINUOUS
 10
210.0823269734
 20
-52.2927689621
  0
SEQEND
  0
POLYLINE
  8
0
 62
7
  6
CONTINUOUS
 66
1
 70
0
  0
VERTEX
  8
0
 62
7
  6
CONTINUOUS
 10
209.3075280245
 20
-52.5280668971
  0
VERTEX
  8
0
 62
7
  6
CONTINUOUS
 10
209.3081530668
 20
-52.5281516704
  0
VERTEX
  8
0
 62
7
  6
CONTINUOUS
 10
209.3126174082
 20
-52.5288040861
  0
VERTEX
  8
0
 62
7
  6
CONTINUOUS
 10
209.3207011694
 20
-52.5301436291
  0
VERTEX
  8
0
 62
7
  6
CONTINUOUS
 10
209.3318235227
 20
-52.5322236868
  0
VERTEX
  8
0
 62
7
  6
CONTINUOUS
 10
209.3463265277
 20
-52.5352731287
  0
VERTEX
  8
0
 62
7
  6
CONTINUOUS
 10
209.364449035
 20
-52.5395560178
  0
VERTEX
  8
0
 62
7
  6
CONTINUOUS
 10
209.3863394717
 20
-52.5453743866
  0
VERTEX
  8
0
 62
7
  6
CONTINUOUS
 10
209.412307333
 20
-52.5531476554
  0
VERTEX
  8
0
 62
7
  6
CONTINUOUS
 10
209.4420193799
 20
-52.5631743997
  0
VERTEX
  8
0
 62
7
  6
CONTINUOUS
 10
209.4753057633
 20
-52.5758405014
  0
VERTEX
  8
0
 62
7
  6
CONTINUOUS
 10
209.5117824483
 20
-52.5914884578
  0
VERTEX
  8
0
 62
7
  6
CONTINUOUS
 10
209.5510590159
 20
-52.6104756046
  0
VERTEX
  8
0
 62
7
  6
CONTINUOUS
 10
209.5927553168
 20
-52.6331864113
  0
VERTEX
  8
0
 62
7
  6
CONTINUOUS
 10
209.6364286411
 20
-52.6599975171
  0
VERTEX
  8
0
 62
7
  6
CONTINUOUS
 10
209.6816143399
 20
-52.691297556
  0
VERTEX
  8
0
 62
7
  6
CONTINUOUS
 10
209.7278131474
 20
-52.7274849267
  0
VERTEX
  8
0
 62
7
  6
CONTINUOUS
 10
209.7743442958
 20
-52.7688379035
  0
VERTEX
  8
0
 62
7
  6
CONTINUOUS
 10
209.8205847692
 20
-52.8156932229
  0
VERTEX
  8
0
 62
7
  6
CONTINUOUS
 10
209.8655420257
 20
-52.8679831663
  0
VERTEX
  8
0
 62
7
  6
CONTINUOUS
 10
209.9083363634
 20
-52.9256251589
  0
VERTEX
  8
0
 62
7
  6
CONTINUOUS
 10
209.9480408626
 20
-52.9883118071
  0
VERTEX
  8
0
 62
7
  6
CONTINUOUS
 10
209.9837915671
 20
-53.0555862581
  0
VERTEX
  8
0
 62
7
  6
CONTINUOUS
 10
210.0148880336
 20
-53.1270293278
  0
VERTEX
  8
0
 62
7
  6
CONTINUOUS
 10
210.040680826
 20
-53.202071262
  0
VERTEX
  8
0
 62
7
  6
CONTINUOUS
 10
210.0606276402
 20
-53.2800841856
  0
VERTEX
  8
0
 62
7
  6
CONTINUOUS
 10
210.0742887017
 20
-53.3603588195
  0
VERTEX
  8
0
 62
7
  6
CONTINUOUS
 10
210.0813402848
 20
-53.4421068491
  0
VERTEX
  8
0
 62
7
  6
CONTINUOUS
 10
210.0823269735
 20
-53.4860915712
  0
SEQEND
  0
LINE
  8
0
 62
7
  6
CONTINUOUS
 10
136.3323269735
 20
-29.0441740561
 11
137.5823269735
 21
-29.0441740561
  0
LINE
  8
0
 62
7
  6
CONTINUOUS
 10
162.5823269735
 20
-27.5441740561
 11
210.0823269735
 21
-27.5441740561
  0
LINE
  8
0
 62
7
  6
CONTINUOUS
 10
211.0823269735
 20
-25.4796032654
 11
220.0823269735
 21
-25.4796032654
  0
LINE
  8
0
 62
7
  6
CONTINUOUS
 10
162.5823269735
 20
-22.5441740561
 11
209.3819040746
 21
-22.5441740561
  0
LINE
  8
0
 62
7
  6
CONTINUOUS
 10
211.0823269735
 20
-14.5441740561
 11
220.0823269735
 21
-14.5441740561
  0
POLYLINE
  8
0
 62
7
  6
CONTINUOUS
 66
1
 70
0
  0
VERTEX
  8
0
 62
7
  6
CONTINUOUS
 10
210.0823269734
 20
-22.7955791501
  0
VERTEX
  8
0
 62
7
  6
CONTINUOUS
 10
210.0025715697
 20
-22.7877259764
  0
VERTEX
  8
0
 62
7
  6
CONTINUOUS
 10
209.924077686
 20
-22.7792917926
  0
VERTEX
  8
0
 62
7
  6
CONTINUOUS
 10
209.8467523266
 20
-22.7703351617
  0
VERTEX
  8
0
 62
7
  6
CONTINUOUS
 10
209.7708744784
 20
-22.7608606329
  0
VERTEX
  8
0
 62
7
  6
CONTINUOUS
 10
209.696644821
 20
-22.7509060851
  0
VERTEX
  8
0
 62
7
  6
CONTINUOUS
 10
209.6242052805
 20
-22.7404654525
  0
VERTEX
  8
0
 62
7
  6
CONTINUOUS
 10
209.5535748039
 20
-22.7295487868
  0
VERTEX
  8
0
 62
7
  6
CONTINUOUS
 10
209.4853230082
 20
-22.7182030326
  0
VERTEX
  8
0
 62
7
  6
CONTINUOUS
 10
209.4198076763
 20
-22.7064783308
  0
VERTEX
  8
0
 62
7
  6
CONTINUOUS
 10
209.357683256
 20
-22.6944285652
  0
VERTEX
  8
0
 62
7
  6
CONTINUOUS
 10
209.2994663482
 20
-22.6821375048
  0
VERTEX
  8
0
 62
7
  6
CONTINUOUS
 10
209.2459282756
 20
-22.6696261183
  0
VERTEX
  8
0
 62
7
  6
CONTINUOUS
 10
209.1975086031
 20
-22.6569451934
  0
VERTEX
  8
0
 62
7
  6
CONTINUOUS
 10
209.1557192043
 20
-22.644201441
  0
VERTEX
  8
0
 62
7
  6
CONTINUOUS
 10
209.1215475376
 20
-22.6314050599
  0
VERTEX
  8
0
 62
7
  6
CONTINUOUS
 10
209.0970064122
 20
-22.6189932995
  0
VERTEX
  8
0
 62
7
  6
CONTINUOUS
 10
209.0844822855
 20
-22.607144973
  0
VERTEX
  8
0
 62
7
  6
CONTINUOUS
 10
209.0838416713
 20
-22.5963383251
  0
VERTEX
  8
0
 62
7
  6
CONTINUOUS
 10
209.0964821277
 20
-22.5868738083
  0
VERTEX
  8
0
 62
7
  6
CONTINUOUS
 10
209.12019698
 20
-22.5787353486
  0
VERTEX
  8
0
 62
7
  6
CONTINUOUS
 10
209.1536830105
 20
-22.5719768566
  0
VERTEX
  8
0
 62
7
  6
CONTINUOUS
 10
209.1956274071
 20
-22.5663460149
  0
VERTEX
  8
0
 62
7
  6
CONTINUOUS
 10
209.2444700267
 20
-22.5616982387
  0
VERTEX
  8
0
 62
7
  6
CONTINUOUS
 10
209.2996496446
 20
-22.5578717926
  0
VERTEX
  8
0
 62
7
  6
CONTINUOUS
 10
209.3310264661
 20
-22.5562474443
  0
SEQEND
  0
POLYLINE
  8
0
 62
7
  6
CONTINUOUS
 66
1
 70
0
  0
VERTEX
  8
0
 62
7
  6
CONTINUOUS
 10
210.0823269735
 20
-137.3379061452
  0
VERTEX
  8
0
 62
7
  6
CONTINUOUS
 10
209.9873861606
 20
-137.2293590528
  0
VERTEX
  8
0
 62
7
  6
CONTINUOUS
 10
209.8951233106
 20
-137.109341078
  0
VERTEX
  8
0
 62
7
  6
CONTINUOUS
 10
209.8054575842
 20
-136.9781928075
  0
VERTEX
  8
0
 62
7
  6
CONTINUOUS
 10
209.7186314989
 20
-136.8350447429
  0
VERTEX
  8
0
 62
7
  6
CONTINUOUS
 10
209.6346655372
 20
-136.6792924565
  0
VERTEX
  8
0
 62
7
  6
CONTINUOUS
 10
209.5541449648
 20
-136.5105271954
  0
VERTEX
  8
0
 62
7
  6
CONTINUOUS
 10
209.4774891419
 20
-136.3284910558
  0
VERTEX
  8
0
 62
7
  6
CONTINUOUS
 10
209.4052162671
 20
-136.132181231
  0
VERTEX
  8
0
 62
7
  6
CONTINUOUS
 10
209.3376692625
 20
-135.9208059172
  0
VERTEX
  8
0
 62
7
  6
CONTINUOUS
 10
209.2757933171
 20
-135.6935595942
  0
VERTEX
  8
0
 62
7
  6
CONTINUOUS
 10
209.2201984319
 20
-135.4494978204
  0
VERTEX
  8
0
 62
7
  6
CONTINUOUS
 10
209.1722330921
 20
-135.1883569438
  0
VERTEX
  8
0
 62
7
  6
CONTINUOUS
 10
209.1329059501
 20
-134.9068355865
  0
VERTEX
  8
0
 62
7
  6
CONTINUOUS
 10
209.1038465049
 20
-134.6132239322
  0
VERTEX
  8
0
 62
7
  6
CONTINUOUS
 10
209.0874069938
 20
-134.3105660032
  0
VERTEX
  8
0
 62
7
  6
CONTINUOUS
 10
209.0824278552
 20
-134.0109871125
  0
VERTEX
  8
0
 62
7
  6
CONTINUOUS
 10
209.0893272779
 20
-133.7277954731
  0
VERTEX
  8
0
 62
7
  6
CONTINUOUS
 10
209.105724248
 20
-133.4597190707
  0
VERTEX
  8
0
 62
7
  6
CONTINUOUS
 10
209.1296223576
 20
-133.2112977582
  0
VERTEX
  8
0
 62
7
  6
CONTINUOUS
 10
209.1602859773
 20
-132.9782256732
  0
VERTEX
  8
0
 62
7
  6
CONTINUOUS
 10
209.1965079191
 20
-132.7577459871
  0
VERTEX
  8
0
 62
7
  6
CONTINUOUS
 10
209.2377064513
 20
-132.5499123436
  0
VERTEX
  8
0
 62
7
  6
CONTINUOUS
 10
209.2830223287
 20
-132.3541063568
  0
VERTEX
  8
0
 62
7
  6
CONTINUOUS
 10
209.3320809035
 20
-132.1696389225
  0
VERTEX
  8
0
 62
7
  6
CONTINUOUS
 10
209.3843580179
 20
-131.9956894701
  0
VERTEX
  8
0
 62
7
  6
CONTINUOUS
 10
209.4394429559
 20
-131.832084494
  0
VERTEX
  8
0
 62
7
  6
CONTINUOUS
 10
209.4968364972
 20
-131.6785397959
  0
VERTEX
  8
0
 62
7
  6
CONTINUOUS
 10
209.5562799973
 20
-131.5345957763
  0
VERTEX
  8
0
 62
7
  6
CONTINUOUS
 10
209.6173462317
 20
-131.3999492701
  0
VERTEX
  8
0
 62
7
  6
CONTINUOUS
 10
209.6800417206
 20
-131.2738791413
  0
VERTEX
  8
0
 62
7
  6
CONTINUOUS
 10
209.744287398
 20
-131.1556221819
  0
VERTEX
  8
0
 62
7
  6
CONTINUOUS
 10
209.8099127984
 20
-131.0450406185
  0
VERTEX
  8
0
 62
7
  6
CONTINUOUS
 10
209.8768285779
 20
-130.9417375508
  0
VERTEX
  8
0
 62
7
  6
CONTINUOUS
 10
209.944712306
 20
-130.8457489214
  0
VERTEX
  8
0
 62
7
  6
CONTINUOUS
 10
210.0131677448
 20
-130.7569861909
  0
VERTEX
  8
0
 62
7
  6
CONTINUOUS
 10
210.0823269734
 20
-130.6754384728
  0
SEQEND
  0
LINE
  8
0
 62
7
  6
CONTINUOUS
 10
162.5823269735
 20
-10.0441740561
 11
137.5823269735
 21
-10.0441740561
  0
POLYLINE
  8
0
 62
7
  6
CONTINUOUS
 66
1
 70
0
  0
VERTEX
  8
0
 62
7
  6
CONTINUOUS
 10
210.6938243985
 20
-137.0524977337
  0
VERTEX
  8
0
 62
7
  6
CONTINUOUS
 10
210.673696853
 20
-137.0247496623
  0
VERTEX
  8
0
 62
7
  6
CONTINUOUS
 10
210.6542078403
 20
-136.9963342437
  0
VERTEX
  8
0
 62
7
  6
CONTINUOUS
 10
210.6353668862
 20
-136.9672525336
  0
VERTEX
  8
0
 62
7
  6
CONTINUOUS
 10
210.6171277052
 20
-136.9375706202
  0
VERTEX
  8
0
 62
7
  6
CONTINUOUS
 10
210.5994448553
 20
-136.9073523098
  0
VERTEX
  8
0
 62
7
  6
CONTINUOUS
 10
210.5823269735
 20
-136.8765952755
  0
SEQEND
  0
POLYLINE
  8
0
 62
7
  6
CONTINUOUS
 66
1
 70
0
  0
VERTEX
  8
0
 62
7
  6
CONTINUOUS
 10
210.5823269735
 20
-136.8765952755
  0
VERTEX
  8
0
 62
7
  6
CONTINUOUS
 10
210.5412566606
 20
-136.7968585075
  0
VERTEX
  8
0
 62
7
  6
CONTINUOUS
 10
210.5008422122
 20
-136.709253438
  0
VERTEX
  8
0
 62
7
  6
CONTINUOUS
 10
210.4612612763
 20
-136.6138748595
  0
VERTEX
  8
0
 62
7
  6
CONTINUOUS
 10
210.4226137022
 20
-136.5103960605
  0
VERTEX
  8
0
 62
7
  6
CONTINUOUS
 10
210.3850318008
 20
-136.3985796203
  0
VERTEX
  8
0
 62
7
  6
CONTINUOUS
 10
210.3486746672
 20
-136.2782604433
  0
VERTEX
  8
0
 62
7
  6
CONTINUOUS
 10
210.3137474152
 20
-136.1494053445
  0
VERTEX
  8
0
 62
7
  6
CONTINUOUS
 10
210.2803235664
 20
-136.0114028835
  0
VERTEX
  8
0
 62
7
  6
CONTINUOUS
 10
210.2485551248
 20
-135.8638088156
  0
VERTEX
  8
0
 62
7
  6
CONTINUOUS
 10
210.218617895
 20
-135.7060765514
  0
VERTEX
  8
0
 62
7
  6
CONTINUOUS
 10
210.1907368639
 20
-135.5376882316
  0
VERTEX
  8
0
 62
7
  6
CONTINUOUS
 10
210.1651764039
 20
-135.3581260434
  0
VERTEX
  8
0
 62
7
  6
CONTINUOUS
 10
210.1422693876
 20
-135.166965998
  0
VERTEX
  8
0
 62
7
  6
CONTINUOUS
 10
210.1223458947
 20
-134.9634589582
  0
VERTEX
  8
0
 62
7
  6
CONTINUOUS
 10
210.1058339892
 20
-134.7468410388
  0
VERTEX
  8
0
 62
7
  6
CONTINUOUS
 10
210.0932465074
 20
-134.5168211097
  0
VERTEX
  8
0
 62
7
  6
CONTINUOUS
 10
210.0851722572
 20
-134.272780158
  0
VERTEX
  8
0
 62
7
  6
CONTINUOUS
 10
210.0823269735
 20
-134.0151197764
  0
SEQEND
  0
POLYLINE
  8
0
 62
7
  6
CONTINUOUS
 66
1
 70
0
  0
VERTEX
  8
0
 62
7
  6
CONTINUOUS
 10
210.5823269735
 20
239.6900390145
  0
VERTEX
  8
0
 62
7
  6
CONTINUOUS
 10
210.5993836645
 20
239.6978829676
  0
VERTEX
  8
0
 62
7
  6
CONTINUOUS
 10
210.6170287632
 20
239.7055850051
  0
VERTEX
  8
0
 62
7
  6
CONTINUOUS
 10
210.6352544772
 20
239.7131874802
  0
VERTEX
  8
0
 62
7
  6
CONTINUOUS
 10
210.654106965
 20
239.7206545611
  0
VERTEX
  8
0
 62
7
  6
CONTINUOUS
 10
210.6736331962
 20
239.7279539934
  0
VERTEX
  8
0
 62
7
  6
CONTINUOUS
 10
210.6938243986
 20
239.7351334207
  0
SEQEND
  0
POLYLINE
  8
0
 62
7
  6
CONTINUOUS
 66
1
 70
0
  0
VERTEX
  8
0
 62
7
  6
CONTINUOUS
 10
210.6938243986
 20
239.7351334207
  0
VERTEX
  8
0
 62
7
  6
CONTINUOUS
 10
210.7242082437
 20
239.7450530871
  0
VERTEX
  8
0
 62
7
  6
CONTINUOUS
 10
210.7542605541
 20
239.7540623708
  0
VERTEX
  8
0
 62
7
  6
CONTINUOUS
 10
210.7839239482
 20
239.7620526875
  0
VERTEX
  8
0
 62
7
  6
CONTINUOUS
 10
210.8131521751
 20
239.7691207784
  0
VERTEX
  8
0
 62
7
  6
CONTINUOUS
 10
210.8418924101
 20
239.7753145047
  0
VERTEX
  8
0
 62
7
  6
CONTINUOUS
 10
210.8701338481
 20
239.780679812
  0
VERTEX
  8
0
 62
7
  6
CONTINUOUS
 10
210.8978333163
 20
239.7852715296
  0
VERTEX
  8
0
 62
7
  6
CONTINUOUS
 10
210.9250621455
 20
239.7891303498
  0
VERTEX
  8
0
 62
7
  6
CONTINUOUS
 10
210.951870481
 20
239.792325481
  0
VERTEX
  8
0
 62
7
  6
CONTINUOUS
 10
210.9783065539
 20
239.7948753169
  0
VERTEX
  8
0
 62
7
  6
CONTINUOUS
 10
211.0043664641
 20
239.7968371427
  0
VERTEX
  8
0
 62
7
  6
CONTINUOUS
 10
211.0302754807
 20
239.7982073312
  0
VERTEX
  8
0
 62
7
  6
CONTINUOUS
 10
211.0562997594
 20
239.7990414216
  0
VERTEX
  8
0
 62
7
  6
CONTINUOUS
 10
211.0823269735
 20
239.7993197812
  0
SEQEND
  0
LINE
  8
0
 62
7
  6
CONTINUOUS
 10
136.3323269735
 20
-46.0441740561
 11
136.3323269735
 21
-29.0441740561
  0
LINE
  8
0
 62
7
  6
CONTINUOUS
 10
136.3323269735
 20
246.4558259439
 11
136.3323269735
 21
263.4558259439
  0
LINE
  8
0
 62
7
  6
CONTINUOUS
 10
137.5823269735
 20
-137.5441740561
 11
137.5823269735
 21
246.4558259439
  0
LINE
  8
0
 62
7
  6
CONTINUOUS
 10
137.5823269735
 20
263.4558259439
 11
137.5823269735
 21
447.4558259439
  0
POLYLINE
  8
0
 62
7
  6
CONTINUOUS
 66
1
 70
0
  0
VERTEX
  8
0
 62
7
  6
CONTINUOUS
 10
210.6938243985
 20
270.1765184672
  0
VERTEX
  8
0
 62
7
  6
CONTINUOUS
 10
210.6515810333
 20
270.1263244027
  0
VERTEX
  8
0
 62
7
  6
CONTINUOUS
 10
210.6068577046
 20
270.0820713545
  0
VERTEX
  8
0
 62
7
  6
CONTINUOUS
 10
210.5599747186
 20
270.0440762612
  0
VERTEX
  8
0
 62
7
  6
CONTINUOUS
 10
210.5112678688
 20
270.0126112477
  0
VERTEX
  8
0
 62
7
  6
CONTINUOUS
 10
210.4610860081
 20
269.987901664
  0
VERTEX
  8
0
 62
7
  6
CONTINUOUS
 10
210.4097885507
 20
269.9701244734
  0
VERTEX
  8
0
 62
7
  6
CONTINUOUS
 10
210.3577429066
 20
269.9594069856
  0
VERTEX
  8
0
 62
7
  6
CONTINUOUS
 10
210.3053218238
 20
269.9558259439
  0
SEQEND
  0
LINE
  8
0
 62
7
  6
CONTINUOUS
 10
150.0823269735
 20
-153.7941740561
 11
150.0823269735
 21
-150.0441740561
  0
LINE
  8
0
 62
7
  6
CONTINUOUS
 10
150.0823269735
 20
242.1210612721
 11
150.0823269735
 21
267.7905712598
  0
LINE
  8
0
 62
7
  6
CONTINUOUS
 10
151.0823269735
 20
-154.7941740561
 11
151.0823269735
 21
-150.0041092784
  0
LINE
  8
0
 62
7
  6
CONTINUOUS
 10
151.0823269735
 20
241.0746689398
 11
151.0823269735
 21
268.836983087
  0
POLYLINE
  8
0
 62
7
  6
CONTINUOUS
 66
1
 70
0
  0
VERTEX
  8
0
 62
7
  6
CONTINUOUS
 10
150.0823269735
 20
267.7906170597
  0
VERTEX
  8
0
 62
7
  6
CONTINUOUS
 10
150.0854774751
 20
267.8729085301
  0
VERTEX
  8
0
 62
7
  6
CONTINUOUS
 10
150.0948417644
 20
267.9542682804
  0
VERTEX
  8
0
 62
7
  6
CONTINUOUS
 10
150.1105176569
 20
268.0350521261
  0
VERTEX
  8
0
 62
7
  6
CONTINUOUS
 10
150.1322115856
 20
268.1141926208
  0
VERTEX
  8
0
 62
7
  6
CONTINUOUS
 10
150.1597072118
 20
268.1907569149
  0
VERTEX
  8
0
 62
7
  6
CONTINUOUS
 10
150.1928700537
 20
268.2646970339
  0
VERTEX
  8
0
 62
7
  6
CONTINUOUS
 10
150.2315492251
 20
268.3357717972
  0
VERTEX
  8
0
 62
7
  6
CONTINUOUS
 10
150.2755761516
 20
268.4036279736
  0
VERTEX
  8
0
 62
7
  6
CONTINUOUS
 10
150.3249272589
 20
268.4680490161
  0
VERTEX
  8
0
 62
7
  6
CONTINUOUS
 10
150.3790142112
 20
268.5283836923
  0
VERTEX
  8
0
 62
7
  6
CONTINUOUS
 10
150.437438429
 20
268.5839999772
  0
VERTEX
  8
0
 62
7
  6
CONTINUOUS
 10
150.4996044285
 20
268.6346237016
  0
VERTEX
  8
0
 62
7
  6
CONTINUOUS
 10
150.5648396609
 20
268.6797528051
  0
VERTEX
  8
0
 62
7
  6
CONTINUOUS
 10
150.6329748766
 20
268.719438936
  0
VERTEX
  8
0
 62
7
  6
CONTINUOUS
 10
150.7037261386
 20
268.7536148876
  0
VERTEX
  8
0
 62
7
  6
CONTINUOUS
 10
150.7767629736
 20
268.7821351654
  0
VERTEX
  8
0
 62
7
  6
CONTINUOUS
 10
150.8519576834
 20
268.8048837311
  0
VERTEX
  8
0
 62
7
  6
CONTINUOUS
 10
150.9284170671
 20
268.8217050092
  0
VERTEX
  8
0
 62
7
  6
CONTINUOUS
 10
151.0050918659
 20
268.832380463
  0
VERTEX
  8
0
 62
7
  6
CONTINUOUS
 10
151.0823269735
 20
268.8369829381
  0
SEQEND
  0
LINE
  8
0
 62
7
  6
CONTINUOUS
 10
137.5823269735
 20
123.7058259439
 11
162.5823269735
 21
123.7058259439
  0
LINE
  8
0
 62
7
  6
CONTINUOUS
 10
162.5823269735
 20
-137.5441740561
 11
162.5823269735
 21
239.9558259439
  0
LINE
  8
0
 62
7
  6
CONTINUOUS
 10
162.5823269735
 20
269.9558259439
 11
162.5823269735
 21
447.4558259439
  0
POLYLINE
  8
0
 62
7
  6
CONTINUOUS
 66
1
 70
0
  0
VERTEX
  8
0
 62
7
  6
CONTINUOUS
 10
210.0823269735
 20
-36.259923777
  0
VERTEX
  8
0
 62
7
  6
CONTINUOUS
 10
210.0854096397
 20
-36.2887126672
  0
VERTEX
  8
0
 62
7
  6
CONTINUOUS
 10
210.0946386329
 20
-36.3173240642
  0
VERTEX
  8
0
 62
7
  6
CONTINUOUS
 10
210.1099570531
 20
-36.3455815695
  0
VERTEX
  8
0
 62
7
  6
CONTINUOUS
 10
210.1312704572
 20
-36.3733109659
  0
VERTEX
  8
0
 62
7
  6
CONTINUOUS
 10
210.1584474409
 20
-36.4003412927
  0
VERTEX
  8
0
 62
7
  6
CONTINUOUS
 10
210.1913204493
 20
-36.4265058987
  0
VERTEX
  8
0
 62
7
  6
CONTINUOUS
 10
210.2296868091
 20
-36.4516434706
  0
VERTEX
  8
0
 62
7
  6
CONTINUOUS
 10
210.2733099791
 20
-36.4755990268
  0
VERTEX
  8
0
 62
7
  6
CONTINUOUS
 10
210.3219210079
 20
-36.4982248734
  0
VERTEX
  8
0
 62
7
  6
CONTINUOUS
 10
210.3752201923
 20
-36.5193815144
  0
VERTEX
  8
0
 62
7
  6
CONTINUOUS
 10
210.4328789251
 20
-36.5389385123
  0
VERTEX
  8
0
 62
7
  6
CONTINUOUS
 10
210.4945417212
 20
-36.5567752915
  0
VERTEX
  8
0
 62
7
  6
CONTINUOUS
 10
210.5598284087
 20
-36.5727818824
  0
VERTEX
  8
0
 62
7
  6
CONTINUOUS
 10
210.6283364737
 20
-36.5868595991
  0
VERTEX
  8
0
 62
7
  6
CONTINUOUS
 10
210.6996435411
 20
-36.5989216477
  0
VERTEX
  8
0
 62
7
  6
CONTINUOUS
 10
210.7733099791
 20
-36.6088936617
  0
VERTEX
  8
0
 62
7
  6
CONTINUOUS
 10
210.8488816096
 20
-36.6167141603
  0
VERTEX
  8
0
 62
7
  6
CONTINUOUS
 10
210.9258925084
 20
-36.6223349276
  0
VERTEX
  8
0
 62
7
  6
CONTINUOUS
 10
211.0038678777
 20
-36.6257213096
  0
VERTEX
  8
0
 62
7
  6
CONTINUOUS
 10
211.0823269735
 20
-36.6268524282
  0
SEQEND
  0
POLYLINE
  8
0
 62
7
  6
CONTINUOUS
 66
1
 70
0
  0
VERTEX
  8
0
 62
7
  6
CONTINUOUS
 10
210.0823269735
 20
-25.1126746142
  0
VERTEX
  8
0
 62
7
  6
CONTINUOUS
 10
210.0854096397
 20
-25.1414635044
  0
VERTEX
  8
0
 62
7
  6
CONTINUOUS
 10
210.0946386329
 20
-25.1700749015
  0
VERTEX
  8
0
 62
7
  6
CONTINUOUS
 10
210.1099570531
 20
-25.1983324067
  0
VERTEX
  8
0
 62
7
  6
CONTINUOUS
 10
210.1312704572
 20
-25.2260618032
  0
VERTEX
  8
0
 62
7
  6
CONTINUOUS
 10
210.1584474409
 20
-25.2530921299
  0
VERTEX
  8
0
 62
7
  6
CONTINUOUS
 10
210.1913204493
 20
-25.279256736
  0
VERTEX
  8
0
 62
7
  6
CONTINUOUS
 10
210.2296868091
 20
-25.3043943078
  0
VERTEX
  8
0
 62
7
  6
CONTINUOUS
 10
210.2733099791
 20
-25.328349864
  0
VERTEX
  8
0
 62
7
  6
CONTINUOUS
 10
210.3219210079
 20
-25.3509757106
  0
VERTEX
  8
0
 62
7
  6
CONTINUOUS
 10
210.3752201923
 20
-25.3721323517
  0
VERTEX
  8
0
 62
7
  6
CONTINUOUS
 10
210.4328789251
 20
-25.3916893495
  0
VERTEX
  8
0
 62
7
  6
CONTINUOUS
 10
210.4945417212
 20
-25.4095261288
  0
VERTEX
  8
0
 62
7
  6
CONTINUOUS
 10
210.5598284087
 20
-25.4255327197
  0
VERTEX
  8
0
 62
7
  6
CONTINUOUS
 10
210.6283364737
 20
-25.4396104363
  0
VERTEX
  8
0
 62
7
  6
CONTINUOUS
 10
210.6996435411
 20
-25.4516724849
  0
VERTEX
  8
0
 62
7
  6
CONTINUOUS
 10
210.7733099791
 20
-25.461644499
  0
VERTEX
  8
0
 62
7
  6
CONTINUOUS
 10
210.8488816096
 20
-25.4694649976
  0
VERTEX
  8
0
 62
7
  6
CONTINUOUS
 10
210.9258925084
 20
-25.4750857648
  0
VERTEX
  8
0
 62
7
  6
CONTINUOUS
 10
211.0038678777
 20
-25.4784721468
  0
VERTEX
  8
0
 62
7
  6
CONTINUOUS
 10
211.0823269735
 20
-25.4796032654
  0
SEQEND
  0
LINE
  8
0
 62
7
  6
CONTINUOUS
 10
210.0823269735
 20
-134.0151474811
 11
210.0823269735
 21
-103.4148578309
  0
LINE
  8
0
 62
7
  6
CONTINUOUS
 10
210.0823269735
 20
-59.5441740561
 11
210.0823269735
 21
-15.5441740561
  0
LINE
  8
0
 62
7
  6
CONTINUOUS
 10
210.0823269735
 20
232.9558259439
 11
210.0823269735
 21
239.0136766714
  0
LINE
  8
0
 62
7
  6
CONTINUOUS
 10
210.0823269735
 20
270.8979272028
 11
210.0823269735
 21
276.9558259439
  0
LINE
  8
0
 62
7
  6
CONTINUOUS
 10
211.0823269735
 20
-137.8355618243
 11
211.0823269735
 21
-102.4148541236
  0
LINE
  8
0
 62
7
  6
CONTINUOUS
 10
211.0823269735
 20
-60.5441740561
 11
211.0823269735
 21
-14.5441740561
  0
LINE
  8
0
 62
7
  6
CONTINUOUS
 10
211.0823269735
 20
231.9558259439
 11
211.0823269735
 21
239.9561856651
  0
LINE
  8
0
 62
7
  6
CONTINUOUS
 10
211.0823269735
 20
269.9554662228
 11
211.0823269735
 21
277.9558259439
  0
LINE
  8
0
 62
7
  6
CONTINUOUS
 10
220.0823269735
 20
-60.5441740561
 11
220.0823269735
 21
-14.5441740561
  0
LINE
  8
0
 62
7
  6
CONTINUOUS
 10
220.0823269735
 20
-102.4148704025
 11
220.0823269735
 21
-154.7941740561
  0
LINE
  8
0
 62
7
  6
CONTINUOUS
 10
220.0823269735
 20
231.9558259439
 11
220.0823269735
 21
277.9558259439
  0
POLYLINE
  8
0
 62
7
  6
CONTINUOUS
 66
1
 70
0
  0
VERTEX
  8
0
 62
7
  6
CONTINUOUS
 10
210.0823269735
 20
270.8977434546
  0
VERTEX
  8
0
 62
7
  6
CONTINUOUS
 10
210.0815300039
 20
270.8582337632
  0
VERTEX
  8
0
 62
7
  6
CONTINUOUS
 10
210.0748208192
 20
270.7762349811
  0
VERTEX
  8
0
 62
7
  6
CONTINUOUS
 10
210.0612146952
 20
270.694514615
  0
VERTEX
  8
0
 62
7
  6
CONTINUOUS
 10
210.0408369226
 20
270.6142450943
  0
VERTEX
  8
0
 62
7
  6
CONTINUOUS
 10
210.0140724168
 20
270.5365926946
  0
VERTEX
  8
0
 62
7
  6
CONTINUOUS
 10
209.981550382
 20
270.4626283157
  0
VERTEX
  8
0
 62
7
  6
CONTINUOUS
 10
209.9440835477
 20
270.3932248078
  0
VERTEX
  8
0
 62
7
  6
CONTINUOUS
 10
209.9027234337
 20
270.329198058
  0
VERTEX
  8
0
 62
7
  6
CONTINUOUS
 10
209.8584026306
 20
270.2708215503
  0
VERTEX
  8
0
 62
7
  6
CONTINUOUS
 10
209.8121930806
 20
270.2183641118
  0
VERTEX
  8
0
 62
7
  6
CONTINUOUS
 10
209.7650138048
 20
270.1717648048
  0
VERTEX
  8
0
 62
7
  6
CONTINUOUS
 10
209.7178521877
 20
270.1309486036
  0
VERTEX
  8
0
 62
7
  6
CONTINUOUS
 10
209.6714390675
 20
270.0955653485
  0
VERTEX
  8
0
 62
7
  6
CONTINUOUS
 10
209.626632826
 20
270.0653532204
  0
VERTEX
  8
0
 62
7
  6
CONTINUOUS
 10
209.5836577263
 20
270.0396501279
  0
VERTEX
  8
0
 62
7
  6
CONTINUOUS
 10
209.5427367685
 20
270.0179140348
  0
VERTEX
  8
0
 62
7
  6
CONTINUOUS
 10
209.5042047308
 20
269.9997347708
  0
VERTEX
  8
0
 62
7
  6
CONTINUOUS
 10
209.4682011223
 20
269.9846608708
  0
VERTEX
  8
0
 62
7
  6
CONTINUOUS
 10
209.4352525022
 20
269.9724368098
  0
VERTEX
  8
0
 62
7
  6
CONTINUOUS
 10
209.405785728
 20
269.9627600441
  0
VERTEX
  8
0
 62
7
  6
CONTINUOUS
 10
209.38191526
 20
269.9558259439
  0
SEQEND
  0
POLYLINE
  8
0
 62
7
  6
CONTINUOUS
 66
1
 70
0
  0
VERTEX
  8
0
 62
7
  6
CONTINUOUS
 10
210.082326641
 20
-21.6020355645
  0
VERTEX
  8
0
 62
7
  6
CONTINUOUS
 10
210.0815229736
 20
-21.6419290848
  0
VERTEX
  8
0
 62
7
  6
CONTINUOUS
 10
210.0747971089
 20
-21.7239510082
  0
VERTEX
  8
0
 62
7
  6
CONTINUOUS
 10
210.0611733679
 20
-21.8056786418
  0
VERTEX
  8
0
 62
7
  6
CONTINUOUS
 10
210.0407782819
 20
-21.8859484729
  0
VERTEX
  8
0
 62
7
  6
CONTINUOUS
 10
210.0139940641
 20
-21.9636054645
  0
VERTEX
  8
0
 62
7
  6
CONTINUOUS
 10
209.9814435937
 20
-22.0375887012
  0
VERTEX
  8
0
 62
7
  6
CONTINUOUS
 10
209.9439317022
 20
-22.1070307125
  0
VERTEX
  8
0
 62
7
  6
CONTINUOUS
 10
209.9024961877
 20
-22.1711251409
  0
VERTEX
  8
0
 62
7
  6
CONTINUOUS
 10
209.8580696464
 20
-22.2295844006
  0
VERTEX
  8
0
 62
7
  6
CONTINUOUS
 10
209.8117206351
 20
-22.28213484
  0
VERTEX
  8
0
 62
7
  6
CONTINUOUS
 10
209.7643775004
 20
-22.3288218533
  0
VERTEX
  8
0
 62
7
  6
CONTINUOUS
 10
209.7170368409
 20
-22.3697116143
  0
VERTEX
  8
0
 62
7
  6
CONTINUOUS
 10
209.6704440008
 20
-22.4051453804
  0
VERTEX
  8
0
 62
7
  6
CONTINUOUS
 10
209.6254687904
 20
-22.4353828551
  0
VERTEX
  8
0
 62
7
  6
CONTINUOUS
 10
209.5823637688
 20
-22.4610756571
  0
VERTEX
  8
0
 62
7
  6
CONTINUOUS
 10
209.5413884151
 20
-22.4827571804
  0
VERTEX
  8
0
 62
7
  6
CONTINUOUS
 10
209.5028692226
 20
-22.5008552093
  0
VERTEX
  8
0
 62
7
  6
CONTINUOUS
 10
209.46692846
 20
-22.5158376677
  0
VERTEX
  8
0
 62
7
  6
CONTINUOUS
 10
209.4341397379
 20
-22.5279500571
  0
VERTEX
  8
0
 62
7
  6
CONTINUOUS
 10
209.4050305241
 20
-22.5374737839
  0
VERTEX
  8
0
 62
7
  6
CONTINUOUS
 10
209.379718655
 20
-22.5448072231
  0
VERTEX
  8
0
 62
7
  6
CONTINUOUS
 10
209.3584983976
 20
-22.5502539737
  0
VERTEX
  8
0
 62
7
  6
CONTINUOUS
 10
209.3411678863
 20
-22.5541987052
  0
VERTEX
  8
0
 62
7
  6
CONTINUOUS
 10
209.3276340669
 20
-22.5569327665
  0
VERTEX
  8
0
 62
7
  6
CONTINUOUS
 10
209.3176658979
 20
-22.558721683
  0
VERTEX
  8
0
 62
7
  6
CONTINUOUS
 10
209.3111145207
 20
-22.5597679491
  0
SEQEND
  0
POLYLINE
  8
0
 62
7
  6
CONTINUOUS
 66
1
 70
0
  0
VERTEX
  8
0
 62
7
  6
CONTINUOUS
 10
210.0823269735
 20
239.0136894395
  0
VERTEX
  8
0
 62
7
  6
CONTINUOUS
 10
210.0859221063
 20
239.0770798345
  0
VERTEX
  8
0
 62
7
  6
CONTINUOUS
 10
210.0960546067
 20
239.1375252588
  0
VERTEX
  8
0
 62
7
  6
CONTINUOUS
 10
210.111708629
 20
239.1950479154
  0
VERTEX
  8
0
 62
7
  6
CONTINUOUS
 10
210.1320747946
 20
239.2496270922
  0
VERTEX
  8
0
 62
7
  6
CONTINUOUS
 10
210.1564674254
 20
239.3011144975
  0
VERTEX
  8
0
 62
7
  6
CONTINUOUS
 10
210.1843303292
 20
239.3496727682
  0
VERTEX
  8
0
 62
7
  6
CONTINUOUS
 10
210.2152694269
 20
239.3954212903
  0
VERTEX
  8
0
 62
7
  6
CONTINUOUS
 10
210.248843676
 20
239.4383790566
  0
VERTEX
  8
0
 62
7
  6
CONTINUOUS
 10
210.284697591
 20
239.4785814861
  0
VERTEX
  8
0
 62
7
  6
CONTINUOUS
 10
210.3225943462
 20
239.5161346643
  0
VERTEX
  8
0
 62
7
  6
CONTINUOUS
 10
210.3623907917
 20
239.5512078882
  0
VERTEX
  8
0
 62
7
  6
CONTINUOUS
 10
210.4038495671
 20
239.5838034566
  0
VERTEX
  8
0
 62
7
  6
CONTINUOUS
 10
210.4468635217
 20
239.6140280705
  0
VERTEX
  8
0
 62
7
  6
CONTINUOUS
 10
210.4911150654
 20
239.6418267094
  0
VERTEX
  8
0
 62
7
  6
CONTINUOUS
 10
210.5363464447
 20
239.6672133955
  0
VERTEX
  8
0
 62
7
  6
CONTINUOUS
 10
210.5823269735
 20
239.6900390145
  0
SEQEND
  0
LINE
  8
0
 62
7
  6
CONTINUOUS
 10
137.5823269735
 20
186.2058259439
 11
162.5823269735
 21
186.2058259439
  0
POLYLINE
  8
0
 62
7
  6
CONTINUOUS
 66
1
 70
0
  0
VERTEX
  8
0
 62
7
  6
CONTINUOUS
 10
210.0823269735
 20
-38.8284243352
  0
VERTEX
  8
0
 62
7
  6
CONTINUOUS
 10
210.0854096397
 20
-38.799635445
  0
VERTEX
  8
0
 62
7
  6
CONTINUOUS
 10
210.0946386329
 20
-38.7710240479
  0
VERTEX
  8
0
 62
7
  6
CONTINUOUS
 10
210.1099570531
 20
-38.7427665427
  0
VERTEX
  8
0
 62
7
  6
CONTINUOUS
 10
210.1312704572
 20
-38.7150371462
  0
VERTEX
  8
0
 62
7
  6
CONTINUOUS
 10
210.1584474409
 20
-38.6880068195
  0
VERTEX
  8
0
 62
7
  6
CONTINUOUS
 10
210.1913204493
 20
-38.6618422134
  0
VERTEX
  8
0
 62
7
  6
CONTINUOUS
 10
210.2296868091
 20
-38.6367046416
  0
VERTEX
  8
0
 62
7
  6
CONTINUOUS
 10
210.2733099791
 20
-38.6127490854
  0
VERTEX
  8
0
 62
7
  6
CONTINUOUS
 10
210.3219210079
 20
-38.5901232388
  0
VERTEX
  8
0
 62
7
  6
CONTINUOUS
 10
210.3752201923
 20
-38.5689665977
  0
VERTEX
  8
0
 62
7
  6
CONTINUOUS
 10
210.4328789251
 20
-38.5494095999
  0
VERTEX
  8
0
 62
7
  6
CONTINUOUS
 10
210.4945417212
 20
-38.5315728206
  0
VERTEX
  8
0
 62
7
  6
CONTINUOUS
 10
210.5598284087
 20
-38.5155662297
  0
VERTEX
  8
0
 62
7
  6
CONTINUOUS
 10
210.6283364737
 20
-38.5014885131
  0
VERTEX
  8
0
 62
7
  6
CONTINUOUS
 10
210.6996435411
 20
-38.4894264645
  0
VERTEX
  8
0
 62
7
  6
CONTINUOUS
 10
210.7733099791
 20
-38.4794544505
  0
VERTEX
  8
0
 62
7
  6
CONTINUOUS
 10
210.8488816096
 20
-38.4716339518
  0
VERTEX
  8
0
 62
7
  6
CONTINUOUS
 10
210.9258925084
 20
-38.4660131846
  0
VERTEX
  8
0
 62
7
  6
CONTINUOUS
 10
211.0038678777
 20
-38.4626268026
  0
VERTEX
  8
0
 62
7
  6
CONTINUOUS
 10
211.0823269735
 20
-38.461495684
  0
SEQEND
  0
POLYLINE
  8
0
 62
7
  6
CONTINUOUS
 66
1
 70
0
  0
VERTEX
  8
0
 62
7
  6
CONTINUOUS
 10
210.0823269735
 20
-49.9756734979
  0
VERTEX
  8
0
 62
7
  6
CONTINUOUS
 10
210.0854096397
 20
-49.9468846077
  0
VERTEX
  8
0
 62
7
  6
CONTINUOUS
 10
210.0946386329
 20
-49.9182732107
  0
VERTEX
  8
0
 62
7
  6
CONTINUOUS
 10
210.1099570531
 20
-49.8900157054
  0
VERTEX
  8
0
 62
7
  6
CONTINUOUS
 10
210.1312704572
 20
-49.862286309
  0
VERTEX
  8
0
 62
7
  6
CONTINUOUS
 10
210.1584474409
 20
-49.8352559823
  0
VERTEX
  8
0
 62
7
  6
CONTINUOUS
 10
210.1913204493
 20
-49.8090913762
  0
VERTEX
  8
0
 62
7
  6
CONTINUOUS
 10
210.2296868091
 20
-49.7839538043
  0
VERTEX
  8
0
 62
7
  6
CONTINUOUS
 10
210.2733099791
 20
-49.7599982481
  0
VERTEX
  8
0
 62
7
  6
CONTINUOUS
 10
210.3219210079
 20
-49.7373724015
  0
VERTEX
  8
0
 62
7
  6
CONTINUOUS
 10
210.3752201923
 20
-49.7162157605
  0
VERTEX
  8
0
 62
7
  6
CONTINUOUS
 10
210.4328789251
 20
-49.6966587626
  0
VERTEX
  8
0
 62
7
  6
CONTINUOUS
 10
210.4945417212
 20
-49.6788219834
  0
VERTEX
  8
0
 62
7
  6
CONTINUOUS
 10
210.5598284087
 20
-49.6628153925
  0
VERTEX
  8
0
 62
7
  6
CONTINUOUS
 10
210.6283364737
 20
-49.6487376758
  0
VERTEX
  8
0
 62
7
  6
CONTINUOUS
 10
210.6996435411
 20
-49.6366756272
  0
VERTEX
  8
0
 62
7
  6
CONTINUOUS
 10
210.7733099791
 20
-49.6267036132
  0
VERTEX
  8
0
 62
7
  6
CONTINUOUS
 10
210.8488816096
 20
-49.6188831146
  0
VERTEX
  8
0
 62
7
  6
CONTINUOUS
 10
210.9258925084
 20
-49.6132623473
  0
VERTEX
  8
0
 62
7
  6
CONTINUOUS
 10
211.0038678777
 20
-49.6098759653
  0
VERTEX
  8
0
 62
7
  6
CONTINUOUS
 10
211.0823269735
 20
-49.6087448467
  0
SEQEND
  0
LINE
  8
0
 62
7
  6
CONTINUOUS
 10
211.0823269735
 20
231.9558259439
 11
220.0823269735
 21
231.9558259439
  0
LINE
  8
0
 62
7
  6
CONTINUOUS
 10
162.5823269735
 20
239.9558259439
 11
162.5714553231
 21
239.9569272457
  0
POLYLINE
  8
0
 62
7
  6
CONTINUOUS
 66
1
 70
0
  0
VERTEX
  8
0
 62
7
  6
CONTINUOUS
 10
156.2303522355
 20
240.7260609834
  0
VERTEX
  8
0
 62
7
  6
CONTINUOUS
 10
155.7694610573
 20
240.7736376626
  0
VERTEX
  8
0
 62
7
  6
CONTINUOUS
 10
155.3037484693
 20
240.8191229456
  0
VERTEX
  8
0
 62
7
  6
CONTINUOUS
 10
154.8344655203
 20
240.8621122725
  0
VERTEX
  8
0
 62
7
  6
CONTINUOUS
 10
154.3635241086
 20
240.9020735677
  0
VERTEX
  8
0
 62
7
  6
CONTINUOUS
 10
153.8917254244
 20
240.9387302946
  0
VERTEX
  8
0
 62
7
  6
CONTINUOUS
 10
153.4202548043
 20
240.9716849724
  0
VERTEX
  8
0
 62
7
  6
CONTINUOUS
 10
152.9495732503
 20
241.0007683582
  0
VERTEX
  8
0
 62
7
  6
CONTINUOUS
 10
152.4804170876
 20
241.0257037748
  0
VERTEX
  8
0
 62
7
  6
CONTINUOUS
 10
152.0127697448
 20
241.0464160449
  0
VERTEX
  8
0
 62
7
  6
CONTINUOUS
 10
151.5463843882
 20
241.0627168397
  0
VERTEX
  8
0
 62
7
  6
CONTINUOUS
 10
151.0823271151
 20
241.0746689356
  0
SEQEND
  0
LINE
  8
0
 62
7
  6
CONTINUOUS
 10
157.1266477394
 20
240.6272560856
 11
156.2303522355
 21
240.7260609834
  0
LINE
  8
0
 62
7
  6
CONTINUOUS
 10
162.5714553231
 20
239.9569272457
 11
162.4069039345
 21
239.9753175868
  0
LINE
  8
0
 62
7
  6
CONTINUOUS
 10
162.4069039345
 20
239.9753175868
 11
162.0441267807
 21
240.0178542705
  0
LINE
  8
0
 62
7
  6
CONTINUOUS
 10
157.9776190452
 20
240.5271566232
 11
157.1266477394
 21
240.6272560856
  0
LINE
  8
0
 62
7
  6
CONTINUOUS
 10
162.0441267807
 20
240.0178542705
 11
161.2644385602
 21
240.1137663992
  0
LINE
  8
0
 62
7
  6
CONTINUOUS
 10
159.1459859248
 20
240.382737347
 11
157.9776190452
 21
240.5271566232
  0
LINE
  8
0
 62
7
  6
CONTINUOUS
 10
161.2644385602
 20
240.1137663992
 11
159.1459859248
 21
240.382737347
  0
POLYLINE
  8
0
 62
7
  6
CONTINUOUS
 66
1
 70
0
  0
VERTEX
  8
0
 62
7
  6
CONTINUOUS
 10
210.6938243986
 20
239.7351334207
  0
VERTEX
  8
0
 62
7
  6
CONTINUOUS
 10
210.6515809968
 20
239.7853274667
  0
VERTEX
  8
0
 62
7
  6
CONTINUOUS
 10
210.6068576424
 20
239.8295805042
  0
VERTEX
  8
0
 62
7
  6
CONTINUOUS
 10
210.5599746462
 20
239.8675755931
  0
VERTEX
  8
0
 62
7
  6
CONTINUOUS
 10
210.5112677974
 20
239.8990406089
  0
VERTEX
  8
0
 62
7
  6
CONTINUOUS
 10
210.4610859464
 20
239.9237502
  0
VERTEX
  8
0
 62
7
  6
CONTINUOUS
 10
210.4097885056
 20
239.9415274008
  0
VERTEX
  8
0
 62
7
  6
CONTINUOUS
 10
210.3577428807
 20
239.9522448981
  0
VERTEX
  8
0
 62
7
  6
CONTINUOUS
 10
210.3053218237
 20
239.9558259439
  0
SEQEND
  0
LINE
  8
0
 62
7
  6
CONTINUOUS
 10
211.0823269735
 20
239.7993188804
 11
220.0823269735
 21
239.7993188805
  0
LINE
  8
0
 62
7
  6
CONTINUOUS
 10
162.5823269735
 20
239.9558259439
 11
220.0823269735
 21
239.9561856651
  0
LINE
  8
0
 62
7
  6
CONTINUOUS
 10
150.0823269735
 20
244.9558259439
 11
220.0823269735
 21
244.9558259439
  0
LINE
  8
0
 62
7
  6
CONTINUOUS
 10
136.3323269735
 20
246.4558259439
 11
150.0823269735
 21
246.4558259439
  0
POLYLINE
  8
0
 62
7
  6
CONTINUOUS
 66
1
 70
0
  0
VERTEX
  8
0
 62
7
  6
CONTINUOUS
 10
151.0823271151
 20
241.0746689356
  0
VERTEX
  8
0
 62
7
  6
CONTINUOUS
 10
151.005082493
 20
241.079275704
  0
VERTEX
  8
0
 62
7
  6
CONTINUOUS
 10
150.9284019465
 20
241.0899543263
  0
VERTEX
  8
0
 62
7
  6
CONTINUOUS
 10
150.8519414231
 20
241.1067774072
  0
VERTEX
  8
0
 62
7
  6
CONTINUOUS
 10
150.77674768
 20
241.1295271332
  0
VERTEX
  8
0
 62
7
  6
CONTINUOUS
 10
150.7037115095
 20
241.1580486382
  0
VERTEX
  8
0
 62
7
  6
CONTINUOUS
 10
150.6329611554
 20
241.1922256851
  0
VERTEX
  8
0
 62
7
  6
CONTINUOUS
 10
150.564826861
 20
241.2319127641
  0
VERTEX
  8
0
 62
7
  6
CONTINUOUS
 10
150.4995924787
 20
241.2770428273
  0
VERTEX
  8
0
 62
7
  6
CONTINUOUS
 10
150.4374270155
 20
241.3276677241
  0
VERTEX
  8
0
 62
7
  6
CONTINUOUS
 10
150.3790032635
 20
241.3832852531
  0
VERTEX
  8
0
 62
7
  6
CONTINUOUS
 10
150.3249168673
 20
241.4436211905
  0
VERTEX
  8
0
 62
7
  6
CONTINUOUS
 10
150.2755664103
 20
241.5080434533
  0
VERTEX
  8
0
 62
7
  6
CONTINUOUS
 10
150.2315402942
 20
241.5759007346
  0
VERTEX
  8
0
 62
7
  6
CONTINUOUS
 10
150.1928620675
 20
241.6469764822
  0
VERTEX
  8
0
 62
7
  6
CONTINUOUS
 10
150.1597003039
 20
241.7209174501
  0
VERTEX
  8
0
 62
7
  6
CONTINUOUS
 10
150.1322058803
 20
241.7974824126
  0
VERTEX
  8
0
 62
7
  6
CONTINUOUS
 10
150.1105132845
 20
241.8766231392
  0
VERTEX
  8
0
 62
7
  6
CONTINUOUS
 10
150.0948388092
 20
241.9574073993
  0
VERTEX
  8
0
 62
7
  6
CONTINUOUS
 10
150.0854759719
 20
242.038768347
  0
VERTEX
  8
0
 62
7
  6
CONTINUOUS
 10
150.0823269735
 20
242.1210615974
  0
SEQEND
  0
POLYLINE
  8
0
 62
7
  6
CONTINUOUS
 66
1
 70
0
  0
VERTEX
  8
0
 62
7
  6
CONTINUOUS
 10
209.3817627744
 20
239.9558259439
  0
VERTEX
  8
0
 62
7
  6
CONTINUOUS
 10
209.3885121251
 20
239.9540127072
  0
VERTEX
  8
0
 62
7
  6
CONTINUOUS
 10
209.4147118209
 20
239.9460866582
  0
VERTEX
  8
0
 62
7
  6
CONTINUOUS
 10
209.444628511
 20
239.9358871444
  0
VERTEX
  8
0
 62
7
  6
CONTINUOUS
 10
209.4781458916
 20
239.9230067459
  0
VERTEX
  8
0
 62
7
  6
CONTINUOUS
 10
209.5147913717
 20
239.9071350102
  0
VERTEX
  8
0
 62
7
  6
CONTINUOUS
 10
209.5540965504
 20
239.8879592562
  0
VERTEX
  8
0
 62
7
  6
CONTINUOUS
 10
209.5957428175
 20
239.8650798103
  0
VERTEX
  8
0
 62
7
  6
CONTINUOUS
 10
209.6393215438
 20
239.8381101897
  0
VERTEX
  8
0
 62
7
  6
CONTINUOUS
 10
209.6843670656
 20
239.8066695933
  0
VERTEX
  8
0
 62
7
  6
CONTINUOUS
 10
209.730393079
 20
239.7703578712
  0
VERTEX
  8
0
 62
7
  6
CONTINUOUS
 10
209.7767101245
 20
239.7289131814
  0
VERTEX
  8
0
 62
7
  6
CONTINUOUS
 10
209.8226920793
 20
239.6820156928
  0
VERTEX
  8
0
 62
7
  6
CONTINUOUS
 10
209.8673581872
 20
239.6297411314
  0
VERTEX
  8
0
 62
7
  6
CONTINUOUS
 10
209.9098358471
 20
239.5721866429
  0
VERTEX
  8
0
 62
7
  6
CONTINUOUS
 10
209.9492216647
 20
239.5096525961
  0
VERTEX
  8
0
 62
7
  6
CONTINUOUS
 10
209.9846686719
 20
239.4425914776
  0
VERTEX
  8
0
 62
7
  6
CONTINUOUS
 10
210.0154940484
 20
239.3714075489
  0
VERTEX
  8
0
 62
7
  6
CONTINUOUS
 10
210.0410614345
 20
239.2966518235
  0
VERTEX
  8
0
 62
7
  6
CONTINUOUS
 10
210.0608341143
 20
239.2189391077
  0
VERTEX
  8
0
 62
7
  6
CONTINUOUS
 10
210.0743747703
 20
239.1389619501
  0
VERTEX
  8
0
 62
7
  6
CONTINUOUS
 10
210.0813575491
 20
239.0574928726
  0
VERTEX
  8
0
 62
7
  6
CONTINUOUS
 10
210.0823266165
 20
239.0136854834
  0
SEQEND
  0
LINE
  8
0
 62
7
  6
CONTINUOUS
 10
158.3149256269
 20
269.4255190684
 11
161.2432319273
 21
269.7952247338
  0
LINE
  8
0
 62
7
  6
CONTINUOUS
 10
161.2432319273
 20
269.7952247338
 11
162.0342883335
 21
269.8926227173
  0
LINE
  8
0
 62
7
  6
CONTINUOUS
 10
157.4808618184
 20
269.3254246106
 11
158.3149256269
 21
269.4255190684
  0
LINE
  8
0
 62
7
  6
CONTINUOUS
 10
162.0342883335
 20
269.8926227173
 11
162.402496771
 21
269.9358316526
  0
POLYLINE
  8
0
 62
7
  6
CONTINUOUS
 66
1
 70
0
  0
VERTEX
  8
0
 62
7
  6
CONTINUOUS
 10
162.402496771
 20
269.9358316526
  0
VERTEX
  8
0
 62
7
  6
CONTINUOUS
 10
162.5710583502
 20
269.9546701178
  0
VERTEX
  8
0
 62
7
  6
CONTINUOUS
 10
162.5823269735
 20
269.9558259439
  0
SEQEND
  0
POLYLINE
  8
0
 62
7
  6
CONTINUOUS
 66
1
 70
0
  0
VERTEX
  8
0
 62
7
  6
CONTINUOUS
 10
151.0823166872
 20
268.8369827766
  0
VERTEX
  8
0
 62
7
  6
CONTINUOUS
 10
151.5357351336
 20
268.8486055281
  0
VERTEX
  8
0
 62
7
  6
CONTINUOUS
 10
151.9916047132
 20
268.8643999641
  0
VERTEX
  8
0
 62
7
  6
CONTINUOUS
 10
152.4488763278
 20
268.8844173498
  0
VERTEX
  8
0
 62
7
  6
CONTINUOUS
 10
152.9079305289
 20
268.9085038894
  0
VERTEX
  8
0
 62
7
  6
CONTINUOUS
 10
153.3687525116
 20
268.9365913801
  0
VERTEX
  8
0
 62
7
  6
CONTINUOUS
 10
153.8311171629
 20
268.9684743076
  0
VERTEX
  8
0
 62
7
  6
CONTINUOUS
 10
154.2949446829
 20
269.0040338629
  0
VERTEX
  8
0
 62
7
  6
CONTINUOUS
 10
154.7593111197
 20
269.0429417274
  0
VERTEX
  8
0
 62
7
  6
CONTINUOUS
 10
155.2237413692
 20
269.0849937678
  0
VERTEX
  8
0
 62
7
  6
CONTINUOUS
 10
155.6863583309
 20
269.1296986187
  0
VERTEX
  8
0
 62
7
  6
CONTINUOUS
 10
156.1460299894
 20
269.1767136211
  0
VERTEX
  8
0
 62
7
  6
CONTINUOUS
 10
156.5998819853
 20
269.2253885229
  0
VERTEX
  8
0
 62
7
  6
CONTINUOUS
 10
157.4808618184
 20
269.3254246106
  0
SEQEND
  0
LINE
  8
0
 62
7
  6
CONTINUOUS
 10
136.3323269735
 20
263.4558259439
 11
150.0823269735
 21
263.4558259439
  0
LINE
  8
0
 62
7
  6
CONTINUOUS
 10
150.0823269735
 20
264.9558259439
 11
220.0823269735
 21
264.9558259439
  0
LINE
  8
0
 62
7
  6
CONTINUOUS
 10
220.0823269735
 20
270.1123330074
 11
211.0823269735
 21
270.1123330074
  0
LINE
  8
0
 62
7
  6
CONTINUOUS
 10
211.0823269735
 20
277.9558259439
 11
220.0823269735
 21
277.9558259439
  0
LINE
  8
0
 62
7
  6
CONTINUOUS
 10
220.0823269735
 20
269.9554662228
 11
162.5823269735
 21
269.9558259439
  0
POLYLINE
  8
0
 62
7
  6
CONTINUOUS
 66
1
 70
0
  0
VERTEX
  8
0
 62
7
  6
CONTINUOUS
 10
211.0823269735
 20
270.1123314381
  0
VERTEX
  8
0
 62
7
  6
CONTINUOUS
 10
211.05836204
 20
270.1125378568
  0
VERTEX
  8
0
 62
7
  6
CONTINUOUS
 10
211.0339096764
 20
270.113294702
  0
VERTEX
  8
0
 62
7
  6
CONTINUOUS
 10
211.0090358124
 20
270.1145306774
  0
VERTEX
  8
0
 62
7
  6
CONTINUOUS
 10
210.9836084422
 20
270.1163352573
  0
VERTEX
  8
0
 62
7
  6
CONTINUOUS
 10
210.9575392522
 20
270.1187296099
  0
VERTEX
  8
0
 62
7
  6
CONTINUOUS
 10
210.9307817578
 20
270.1217912476
  0
VERTEX
  8
0
 62
7
  6
CONTINUOUS
 10
210.9032543749
 20
270.1255646389
  0
VERTEX
  8
0
 62
7
  6
CONTINUOUS
 10
210.8750015729
 20
270.1301181348
  0
VERTEX
  8
0
 62
7
  6
CONTINUOUS
 10
210.8460114909
 20
270.1355150951
  0
VERTEX
  8
0
 62
7
  6
CONTINUOUS
 10
210.8164009907
 20
270.1417934006
  0
VERTEX
  8
0
 62
7
  6
CONTINUOUS
 10
210.7862440965
 20
270.1490151476
  0
VERTEX
  8
0
 62
7
  6
CONTINUOUS
 10
210.7556792191
 20
270.1571884483
  0
VERTEX
  8
0
 62
7
  6
CONTINUOUS
 10
210.7248661781
 20
270.1663872032
  0
VERTEX
  8
0
 62
7
  6
CONTINUOUS
 10
210.6938243985
 20
270.1765184672
  0
SEQEND
  0
POLYLINE
  8
0
 62
7
  6
CONTINUOUS
 66
1
 70
0
  0
VERTEX
  8
0
 62
7
  6
CONTINUOUS
 10
210.6938243985
 20
270.1765184672
  0
VERTEX
  8
0
 62
7
  6
CONTINUOUS
 10
210.673696853
 20
270.1836732495
  0
VERTEX
  8
0
 62
7
  6
CONTINUOUS
 10
210.6542078403
 20
270.1909584131
  0
VERTEX
  8
0
 62
7
  6
CONTINUOUS
 10
210.6353668862
 20
270.1984187569
  0
VERTEX
  8
0
 62
7
  6
CONTINUOUS
 10
210.6171277052
 20
270.2060245952
  0
VERTEX
  8
0
 62
7
  6
CONTINUOUS
 10
210.5994448553
 20
270.2137427235
  0
VERTEX
  8
0
 62
7
  6
CONTINUOUS
 10
210.5823269735
 20
270.2216128734
  0
SEQEND
  0
POLYLINE
  8
0
 62
7
  6
CONTINUOUS
 66
1
 70
0
  0
VERTEX
  8
0
 62
7
  6
CONTINUOUS
 10
210.5823269735
 20
270.2216128734
  0
VERTEX
  8
0
 62
7
  6
CONTINUOUS
 10
210.53615871
 20
270.2445656682
  0
VERTEX
  8
0
 62
7
  6
CONTINUOUS
 10
210.4908415743
 20
270.2700088253
  0
VERTEX
  8
0
 62
7
  6
CONTINUOUS
 10
210.4466333286
 20
270.2977817408
  0
VERTEX
  8
0
 62
7
  6
CONTINUOUS
 10
210.4036717481
 20
270.3279890846
  0
VERTEX
  8
0
 62
7
  6
CONTINUOUS
 10
210.3621522065
 20
270.3606613574
  0
VERTEX
  8
0
 62
7
  6
CONTINUOUS
 10
210.3222950454
 20
270.3958128947
  0
VERTEX
  8
0
 62
7
  6
CONTINUOUS
 10
210.2844057966
 20
270.4333897932
  0
VERTEX
  8
0
 62
7
  6
CONTINUOUS
 10
210.2485773415
 20
270.473603488
  0
VERTEX
  8
0
 62
7
  6
CONTINUOUS
 10
210.2150240099
 20
270.5165796541
  0
VERTEX
  8
0
 62
7
  6
CONTINUOUS
 10
210.1841111639
 20
270.5623415254
  0
VERTEX
  8
0
 62
7
  6
CONTINUOUS
 10
210.156279254
 20
270.6109075983
  0
VERTEX
  8
0
 62
7
  6
CONTINUOUS
 10
210.1319255479
 20
270.6623856206
  0
VERTEX
  8
0
 62
7
  6
CONTINUOUS
 10
210.1116044917
 20
270.716932706
  0
VERTEX
  8
0
 62
7
  6
CONTINUOUS
 10
210.0959975435
 20
270.7743902162
  0
VERTEX
  8
0
 62
7
  6
CONTINUOUS
 10
210.0859052238
 20
270.8347239586
  0
VERTEX
  8
0
 62
7
  6
CONTINUOUS
 10
210.0823269735
 20
270.8979665566
  0
SEQEND
  0
LINE
  8
0
 62
7
  6
CONTINUOUS
 10
210.6938243985
 20
-137.0524977337
 11
210.3053218238
 21
-137.5441740562
  0
LINE
  8
0
 62
7
  6
CONTINUOUS
 10
137.5823269735
 20
416.2058259439
 11
162.5823269735
 21
416.2058259439
  0
ARC
  8
0
 62
7
  6
CONTINUOUS
 10
150.0823269735
 20
-137.5441740561
 40
13.75
 50
155.3956043119
 51
270.0
  0
ARC
  8
0
 62
7
  6
CONTINUOUS
 10
150.0823269735
 20
447.4558259439
 40
12.5
 50
0.0
 51
180.0
  0
ARC
  8
0
 62
7
  6
CONTINUOUS
 10
150.0823269735
 20
154.9558259439
 40
12.5
 50
180.0
 51
360.0
  0
ARC
  8
0
 62
7
  6
CONTINUOUS
 10
150.0823269735
 20
-137.5441740561
 40
12.5
 50
180.0
 51
360.0
  0
ARC
  8
0
 62
7
  6
CONTINUOUS
 10
211.0823269735
 20
-103.4148541236
 40
1.0
 50
90.0
 51
180.0
  0
ARC
  8
0
 62
7
  6
CONTINUOUS
 10
151.0823269735
 20
-153.7941740561
 40
1.0
 50
180.0
 51
270.0
  0
ARC
  8
0
 62
7
  6
CONTINUOUS
 10
211.0823269735
 20
-15.5441740563
 40
1.0
 50
90.0
 51
179.9999999896
  0
ARC
  8
0
 62
7
  6
CONTINUOUS
 10
211.0823269735
 20
-59.5441740561
 40
1.0
 50
180.0
 51
270.0
  0
ARC
  8
0
 62
7
  6
CONTINUOUS
 10
211.0823269735
 20
232.9558259441
 40
1.0
 50
180.0000000104
 51
270.0
  0
ARC
  8
0
 62
7
  6
CONTINUOUS
 10
211.0823269735
 20
276.9558259439
 40
1.0
 50
90.0
 51
180.0
  0
ENDSEC
  0
EOF
