999
DXF file: K:\Client\125_Heirloom\001\00\Final_Data\Drawings\LADDER TOWEL WARMERS\we575_3.dxf
999
Pro/ENGINEER 2017110 by Parametric Technology Corporation
  0
SECTION
  2
HEADER
  9
$EXTMAX
 10
420.0
 20
297.0
 30
0.0
  9
$EXTMIN
 10
0.0
 20
0.0
 30
0.0
  9
$LIMMIN
 10
0.0
 20
0.0
  9
$LIMMAX
 10
420.0
 20
297.0
  9
$VIEWCTR
 10
210.0
 20
148.5
  9
$VIEWSIZE
 40
297.0
  9
$CLAYER
  8
0
  9
$LTSCALE
 40
23.1
  9
$CELTYPE
  6
BYLAYER
  9
$DIMSCALE
 40
1.0
  9
$DIMASZ
 40
3.0
  9
$DIMEXO
 40
1.0
  9
$DIMDLI
 40
15.96
  9
$DIMEXE
 40
1.0
  9
$DIMCEN
 40
3.78
  9
$DIMLFAC
 40
1.0
  9
$DIMBLK
  1
_FILLED
  9
$DIMALT
 70
0
  9
$DIMALTF
 40
0.0393700787
  9
$DIMTXT
 40
3.0
  9
$AUNITS
 70
0
  9
$PDMODE
 70
3
  9
$PDSIZE
 40
5.0
  9
$TILEMODE
 70
1
  0
ENDSEC
  0
SECTION
  2
TABLES
  0
TABLE
  2
LTYPE
 70
6
  0
LTYPE
  2
BYBLOCK
 70
0
  3

 72
65
 73
0
 40
0.0
  0
LTYPE
  2
BYLAYER
 70
0
  3

 72
65
 73
0
 40
0.0
  0
LTYPE
  2
CONTINUOUS
 70
64
  3
Solid line
 72
65
 73
0
 40
0.0
  0
LTYPE
  2
CENTER
 70
64
  3
____ _ ____ _ ____ _ ____ _ ____ _ ____ _ ____
 72
65
 73
4
 40
0.6
 49
0.375
 49
-0.075
 49
0.075
 49
-0.075
  0
LTYPE
  2
HIDDEN
 70
64
  3
- - - - - - - - - - - - - - - - - - - -
 72
65
 73
2
 40
0.2
 49
0.1
 49
-0.1
  0
LTYPE
  2
PHANTOM
 70
64
  3
_____ _ _ _____ _ _ _____ _ _ _____
 72
65
 73
6
 40
0.8
 49
0.45
 49
-0.05
 49
0.1
 49
-0.05
 49
0.1
 49
-0.05
  0
LTYPE
  2
DOT
 70
64
  3
. . . . . . . . . . . . . . . . . . . .
 72
65
 73
2
 40
0.2
 49
0.1
 49
-0.1
  0
LTYPE
  2
DASHED
 70
64
  3
- - - - - - - - - - - - - - - - - - - -
 72
65
 73
2
 40
0.2
 49
0.1
 49
-0.1
  0
ENDTAB
  0
TABLE
  2
LAYER
 70
36
  0
LAYER
  2
0
 70
0
 62
7
  6
CONTINUOUS
  0
LAYER
  2
DEFAULT_1
 70
0
 62
7
  6
CENTER
  0
LAYER
  2
DEFAULT_2
 70
0
 62
8
  6
HIDDEN
  0
LAYER
  2
DEFAULT_3
 70
0
 62
7
  6
PHANTOM
  0
LAYER
  2
0000_BOM
 70
0
 62
7
  6
CONTINUOUS
  0
LAYER
  2
0000_REV_TABLE
 70
0
 62
7
  6
CONTINUOUS
  0
LAYER
  2
0000_STEVENS_NOTE
 70
0
 62
7
  6
CONTINUOUS
  0
LAYER
  2
01_DATUM_PLANES
 70
0
 62
7
  6
CONTINUOUS
  0
LAYER
  2
01_DEF_PLANES
 70
0
 62
7
  6
CONTINUOUS
  0
LAYER
  2
02_DATUM_COS
 70
0
 62
7
  6
CONTINUOUS
  0
LAYER
  2
99_SOLID
 70
0
 62
7
  6
CONTINUOUS
  0
LAYER
  2
CAD-MASTER_ZINC-PL
 70
0
 62
7
  6
CONTINUOUS
  0
LAYER
  2
CURVE
 70
0
 62
7
  6
CONTINUOUS
  0
LAYER
  2
SKEL
 70
0
 62
7
  6
CONTINUOUS
  0
LAYER
  2
SKETCH
 70
0
 62
7
  6
CONTINUOUS
  0
LAYER
  2
SURFACE
 70
0
 62
7
  6
CONTINUOUS
  0
ENDTAB
  0
TABLE
  2
STYLE
 70
1
  0
STYLE
  2
STANDARD
 70
0
 40
0.0
 41
0.75
 50
0.0
 71
0
 42
0.2
  3
txt
  4

  0
STYLE
  2
TEXTSTYLE_1
 70
0
 40
0.0
 41
0.8
 50
0.0
 71
0
 42
0.2
  3
gdt
  4

  0
ENDTAB
  0
ENDSEC
  0
SECTION
  2
BLOCKS
  0
ENDSEC
  0
SECTION
  2
ENTITIES
  0
LINE
  8
0
 62
7
  6
CONTINUOUS
 10
-106.2172956164
 20
193.5874807131
 11
-106.2172956164
 21
124.5874807131
  0
LINE
  8
0
 62
7
  6
CONTINUOUS
 10
-89.2586833846
 20
184.5874807131
 11
-89.2586833846
 21
193.5874807131
  0
LINE
  8
0
 62
7
  6
CONTINUOUS
 10
-88.9672956164
 20
136.0874807131
 11
-88.9672956164
 21
183.8104755634
  0
LINE
  8
0
 62
7
  6
CONTINUOUS
 10
-88.7234534034
 20
184.5874807131
 11
-88.7234534035
 21
193.5874807131
  0
LINE
  8
0
 62
7
  6
CONTINUOUS
 10
-71.7172956164
 20
183.5874807131
 11
-71.7172956164
 21
136.0874807131
  0
LINE
  8
0
 62
7
  6
CONTINUOUS
 10
-61.8379756839
 20
183.5874807131
 11
-61.8379756839
 21
193.5874807131
  0
LINE
  8
0
 62
7
  6
CONTINUOUS
 10
-57.7172956164
 20
111.0874807131
 11
-57.7172956164
 21
136.0874807131
  0
LINE
  8
0
 62
7
  6
CONTINUOUS
 10
-53.8379756839
 20
184.5874807131
 11
-53.8379756839
 21
193.5874807131
  0
POLYLINE
  8
0
 62
7
  6
CONTINUOUS
 66
1
 70
0
  0
VERTEX
  8
0
 62
7
  6
CONTINUOUS
 10
-82.0985600331
 20
183.587480713
  0
VERTEX
  8
0
 62
7
  6
CONTINUOUS
 10
-82.193251702
 20
183.5077253094
  0
VERTEX
  8
0
 62
7
  6
CONTINUOUS
 10
-82.2971566531
 20
183.4292314256
  0
VERTEX
  8
0
 62
7
  6
CONTINUOUS
 10
-82.4101369547
 20
183.3519060663
  0
VERTEX
  8
0
 62
7
  6
CONTINUOUS
 10
-82.5327866402
 20
183.276028218
  0
VERTEX
  8
0
 62
7
  6
CONTINUOUS
 10
-82.6653547247
 20
183.2017985606
  0
VERTEX
  8
0
 62
7
  6
CONTINUOUS
 10
-82.8087736931
 20
183.1293590201
  0
VERTEX
  8
0
 62
7
  6
CONTINUOUS
 10
-82.9639132798
 20
183.0587285436
  0
VERTEX
  8
0
 62
7
  6
CONTINUOUS
 10
-83.1312681703
 20
182.9904767478
  0
VERTEX
  8
0
 62
7
  6
CONTINUOUS
 10
-83.3114161682
 20
182.9249614159
  0
VERTEX
  8
0
 62
7
  6
CONTINUOUS
 10
-83.5050310744
 20
182.8628369956
  0
VERTEX
  8
0
 62
7
  6
CONTINUOUS
 10
-83.7124581445
 20
182.8046200878
  0
VERTEX
  8
0
 62
7
  6
CONTINUOUS
 10
-83.9353213004
 20
182.7510820152
  0
VERTEX
  8
0
 62
7
  6
CONTINUOUS
 10
-84.1751236338
 20
182.7026623428
  0
VERTEX
  8
0
 62
7
  6
CONTINUOUS
 10
-84.4326852904
 20
182.6608729439
  0
VERTEX
  8
0
 62
7
  6
CONTINUOUS
 10
-84.7113422668
 20
182.6267012772
  0
VERTEX
  8
0
 62
7
  6
CONTINUOUS
 10
-85.0051470282
 20
182.6021601519
  0
VERTEX
  8
0
 62
7
  6
CONTINUOUS
 10
-85.312823857
 20
182.5896360251
  0
VERTEX
  8
0
 62
7
  6
CONTINUOUS
 10
-85.6233860351
 20
182.5889954109
  0
VERTEX
  8
0
 62
7
  6
CONTINUOUS
 10
-85.9264008579
 20
182.6016358673
  0
VERTEX
  8
0
 62
7
  6
CONTINUOUS
 10
-86.2182023035
 20
182.6253507197
  0
VERTEX
  8
0
 62
7
  6
CONTINUOUS
 10
-86.490579147
 20
182.6588367502
  0
VERTEX
  8
0
 62
7
  6
CONTINUOUS
 10
-86.7463914757
 20
182.7007811468
  0
VERTEX
  8
0
 62
7
  6
CONTINUOUS
 10
-86.9852967847
 20
182.7496237663
  0
VERTEX
  8
0
 62
7
  6
CONTINUOUS
 10
-87.2087991771
 20
182.8048033842
  0
VERTEX
  8
0
 62
7
  6
CONTINUOUS
 10
-87.4182055982
 20
182.8654075295
  0
VERTEX
  8
0
 62
7
  6
CONTINUOUS
 10
-87.6138980248
 20
182.9309297985
  0
VERTEX
  8
0
 62
7
  6
CONTINUOUS
 10
-87.7965656716
 20
183.0006781488
  0
VERTEX
  8
0
 62
7
  6
CONTINUOUS
 10
-87.9666753133
 20
183.0742970252
  0
VERTEX
  8
0
 62
7
  6
CONTINUOUS
 10
-88.1247471695
 20
183.1512393142
  0
VERTEX
  8
0
 62
7
  6
CONTINUOUS
 10
-88.2713702295
 20
183.2313876475
  0
VERTEX
  8
0
 62
7
  6
CONTINUOUS
 10
-88.4067586102
 20
183.3140212597
  0
VERTEX
  8
0
 62
7
  6
CONTINUOUS
 10
-88.532605824
 20
183.4004032296
  0
VERTEX
  8
0
 62
7
  6
CONTINUOUS
 10
-88.6509320247
 20
183.4916842337
  0
VERTEX
  8
0
 62
7
  6
CONTINUOUS
 10
-88.7610277055
 20
183.5874807131
  0
SEQEND
  0
LINE
  8
0
 62
7
  6
CONTINUOUS
 10
-88.475619294
 20
184.1989781382
 11
-88.9672956164
 21
183.8104755633
  0
POLYLINE
  8
0
 62
7
  6
CONTINUOUS
 66
1
 70
0
  0
VERTEX
  8
0
 62
7
  6
CONTINUOUS
 10
-88.9672956164
 20
183.8104755634
  0
VERTEX
  8
0
 62
7
  6
CONTINUOUS
 10
-89.0126240253
 20
183.8712942518
  0
VERTEX
  8
0
 62
7
  6
CONTINUOUS
 10
-89.0535008565
 20
183.9313425955
  0
VERTEX
  8
0
 62
7
  6
CONTINUOUS
 10
-89.0898210537
 20
183.9906669044
  0
VERTEX
  8
0
 62
7
  6
CONTINUOUS
 10
-89.1219175352
 20
184.0491282491
  0
VERTEX
  8
0
 62
7
  6
CONTINUOUS
 10
-89.1500073279
 20
184.1066059366
  0
VERTEX
  8
0
 62
7
  6
CONTINUOUS
 10
-89.1743289022
 20
184.1630915684
  0
VERTEX
  8
0
 62
7
  6
CONTINUOUS
 10
-89.1951135195
 20
184.2184830781
  0
VERTEX
  8
0
 62
7
  6
CONTINUOUS
 10
-89.212596473
 20
184.272940777
  0
VERTEX
  8
0
 62
7
  6
CONTINUOUS
 10
-89.2270441165
 20
184.3265569099
  0
VERTEX
  8
0
 62
7
  6
CONTINUOUS
 10
-89.2385919591
 20
184.3794336101
  0
VERTEX
  8
0
 62
7
  6
CONTINUOUS
 10
-89.2474363132
 20
184.431552452
  0
VERTEX
  8
0
 62
7
  6
CONTINUOUS
 10
-89.2536593853
 20
184.4833673578
  0
VERTEX
  8
0
 62
7
  6
CONTINUOUS
 10
-89.2574266711
 20
184.5353820804
  0
VERTEX
  8
0
 62
7
  6
CONTINUOUS
 10
-89.2586833846
 20
184.5874287023
  0
SEQEND
  0
POLYLINE
  8
0
 62
7
  6
CONTINUOUS
 66
1
 70
0
  0
VERTEX
  8
0
 62
7
  6
CONTINUOUS
 10
-88.7610277055
 20
183.5874807131
  0
VERTEX
  8
0
 62
7
  6
CONTINUOUS
 10
-88.7968992923
 20
183.6216177383
  0
VERTEX
  8
0
 62
7
  6
CONTINUOUS
 10
-88.8322798424
 20
183.6568845785
  0
VERTEX
  8
0
 62
7
  6
CONTINUOUS
 10
-88.8670604214
 20
183.6933372168
  0
VERTEX
  8
0
 62
7
  6
CONTINUOUS
 10
-88.9012058501
 20
183.7310402283
  0
VERTEX
  8
0
 62
7
  6
CONTINUOUS
 10
-88.9346698331
 20
183.7700651037
  0
VERTEX
  8
0
 62
7
  6
CONTINUOUS
 10
-88.9672956164
 20
183.8104755634
  0
SEQEND
  0
POLYLINE
  8
0
 62
7
  6
CONTINUOUS
 66
1
 70
0
  0
VERTEX
  8
0
 62
7
  6
CONTINUOUS
 10
-88.475619294
 20
184.1989781382
  0
VERTEX
  8
0
 62
7
  6
CONTINUOUS
 10
-88.5142321521
 20
184.2293619833
  0
VERTEX
  8
0
 62
7
  6
CONTINUOUS
 10
-88.5490161034
 20
184.2594142937
  0
VERTEX
  8
0
 62
7
  6
CONTINUOUS
 10
-88.5799197034
 20
184.2890776878
  0
VERTEX
  8
0
 62
7
  6
CONTINUOUS
 10
-88.6072192937
 20
184.3183059147
  0
VERTEX
  8
0
 62
7
  6
CONTINUOUS
 10
-88.6311063368
 20
184.3470461497
  0
VERTEX
  8
0
 62
7
  6
CONTINUOUS
 10
-88.6517844849
 20
184.3752875877
  0
VERTEX
  8
0
 62
7
  6
CONTINUOUS
 10
-88.6694498419
 20
184.402987056
  0
VERTEX
  8
0
 62
7
  6
CONTINUOUS
 10
-88.684308471
 20
184.4302158851
  0
VERTEX
  8
0
 62
7
  6
CONTINUOUS
 10
-88.6965814785
 20
184.4570242207
  0
VERTEX
  8
0
 62
7
  6
CONTINUOUS
 10
-88.7063918599
 20
184.4834602936
  0
VERTEX
  8
0
 62
7
  6
CONTINUOUS
 10
-88.7139001758
 20
184.5095202037
  0
VERTEX
  8
0
 62
7
  6
CONTINUOUS
 10
-88.7191891043
 20
184.5354292204
  0
VERTEX
  8
0
 62
7
  6
CONTINUOUS
 10
-88.722388311
 20
184.561453499
  0
VERTEX
  8
0
 62
7
  6
CONTINUOUS
 10
-88.7234548154
 20
184.5874807131
  0
SEQEND
  0
POLYLINE
  8
0
 62
7
  6
CONTINUOUS
 66
1
 70
0
  0
VERTEX
  8
0
 62
7
  6
CONTINUOUS
 10
-88.2997168358
 20
184.0874807131
  0
VERTEX
  8
0
 62
7
  6
CONTINUOUS
 10
-88.3303685534
 20
184.1045374041
  0
VERTEX
  8
0
 62
7
  6
CONTINUOUS
 10
-88.3605270056
 20
184.1221825029
  0
VERTEX
  8
0
 62
7
  6
CONTINUOUS
 10
-88.3901959115
 20
184.1404082169
  0
VERTEX
  8
0
 62
7
  6
CONTINUOUS
 10
-88.4193042453
 20
184.1592607046
  0
VERTEX
  8
0
 62
7
  6
CONTINUOUS
 10
-88.4477786493
 20
184.1787869358
  0
VERTEX
  8
0
 62
7
  6
CONTINUOUS
 10
-88.475619294
 20
184.1989781382
  0
SEQEND
  0
LINE
  8
0
 62
7
  6
CONTINUOUS
 10
352.5327043836
 20
109.8374807131
 11
369.5327043836
 21
109.8374807131
  0
LINE
  8
0
 62
7
  6
CONTINUOUS
 10
461.0327043836
 20
111.0874807131
 11
-88.9672956164
 21
111.0874807131
  0
LINE
  8
0
 62
7
  6
CONTINUOUS
 10
477.2827043836
 20
123.5874807131
 11
473.5327043836
 21
123.5874807131
  0
LINE
  8
0
 62
7
  6
CONTINUOUS
 10
-101.4672956164
 20
123.5874807131
 11
-105.2172956164
 21
123.5874807131
  0
LINE
  8
0
 62
7
  6
CONTINUOUS
 10
478.2827043836
 20
124.5874807131
 11
473.4926396059
 21
124.5874807131
  0
LINE
  8
0
 62
7
  6
CONTINUOUS
 10
-101.4272313614
 20
124.5874807131
 11
-106.2172956164
 21
124.5874807131
  0
LINE
  8
0
 62
7
  6
CONTINUOUS
 10
461.0327043836
 20
136.0874807131
 11
-88.9672956164
 21
136.0874807131
  0
POLYLINE
  8
0
 62
7
  6
CONTINUOUS
 66
1
 70
0
  0
VERTEX
  8
0
 62
7
  6
CONTINUOUS
 10
359.7484541045
 20
183.5874807131
  0
VERTEX
  8
0
 62
7
  6
CONTINUOUS
 10
359.7772429947
 20
183.5905633794
  0
VERTEX
  8
0
 62
7
  6
CONTINUOUS
 10
359.8058543917
 20
183.5997923725
  0
VERTEX
  8
0
 62
7
  6
CONTINUOUS
 10
359.834111897
 20
183.6151107927
  0
VERTEX
  8
0
 62
7
  6
CONTINUOUS
 10
359.8618412934
 20
183.6364241968
  0
VERTEX
  8
0
 62
7
  6
CONTINUOUS
 10
359.8888716202
 20
183.6636011806
  0
VERTEX
  8
0
 62
7
  6
CONTINUOUS
 10
359.9150362262
 20
183.6964741889
  0
VERTEX
  8
0
 62
7
  6
CONTINUOUS
 10
359.9401737981
 20
183.7348405487
  0
VERTEX
  8
0
 62
7
  6
CONTINUOUS
 10
359.9641293543
 20
183.7784637187
  0
VERTEX
  8
0
 62
7
  6
CONTINUOUS
 10
359.9867552009
 20
183.8270747475
  0
VERTEX
  8
0
 62
7
  6
CONTINUOUS
 10
360.0079118419
 20
183.8803739319
  0
VERTEX
  8
0
 62
7
  6
CONTINUOUS
 10
360.0274688398
 20
183.9380326648
  0
VERTEX
  8
0
 62
7
  6
CONTINUOUS
 10
360.045305619
 20
183.9996954608
  0
VERTEX
  8
0
 62
7
  6
CONTINUOUS
 10
360.0613122099
 20
184.0649821484
  0
VERTEX
  8
0
 62
7
  6
CONTINUOUS
 10
360.0753899266
 20
184.1334902133
  0
VERTEX
  8
0
 62
7
  6
CONTINUOUS
 10
360.0874519752
 20
184.2047972807
  0
VERTEX
  8
0
 62
7
  6
CONTINUOUS
 10
360.0974239892
 20
184.2784637187
  0
VERTEX
  8
0
 62
7
  6
CONTINUOUS
 10
360.1052444878
 20
184.3540353492
  0
VERTEX
  8
0
 62
7
  6
CONTINUOUS
 10
360.1108652551
 20
184.431046248
  0
VERTEX
  8
0
 62
7
  6
CONTINUOUS
 10
360.1142516371
 20
184.5090216174
  0
VERTEX
  8
0
 62
7
  6
CONTINUOUS
 10
360.1153827557
 20
184.5874807131
  0
SEQEND
  0
POLYLINE
  8
0
 62
7
  6
CONTINUOUS
 66
1
 70
0
  0
VERTEX
  8
0
 62
7
  6
CONTINUOUS
 10
348.6012049417
 20
183.5874807131
  0
VERTEX
  8
0
 62
7
  6
CONTINUOUS
 10
348.6299938319
 20
183.5905633794
  0
VERTEX
  8
0
 62
7
  6
CONTINUOUS
 10
348.658605229
 20
183.5997923725
  0
VERTEX
  8
0
 62
7
  6
CONTINUOUS
 10
348.6868627342
 20
183.6151107927
  0
VERTEX
  8
0
 62
7
  6
CONTINUOUS
 10
348.7145921307
 20
183.6364241968
  0
VERTEX
  8
0
 62
7
  6
CONTINUOUS
 10
348.7416224574
 20
183.6636011806
  0
VERTEX
  8
0
 62
7
  6
CONTINUOUS
 10
348.7677870635
 20
183.6964741889
  0
VERTEX
  8
0
 62
7
  6
CONTINUOUS
 10
348.7929246353
 20
183.7348405487
  0
VERTEX
  8
0
 62
7
  6
CONTINUOUS
 10
348.8168801915
 20
183.7784637187
  0
VERTEX
  8
0
 62
7
  6
CONTINUOUS
 10
348.8395060381
 20
183.8270747475
  0
VERTEX
  8
0
 62
7
  6
CONTINUOUS
 10
348.8606626792
 20
183.8803739319
  0
VERTEX
  8
0
 62
7
  6
CONTINUOUS
 10
348.880219677
 20
183.9380326648
  0
VERTEX
  8
0
 62
7
  6
CONTINUOUS
 10
348.8980564563
 20
183.9996954608
  0
VERTEX
  8
0
 62
7
  6
CONTINUOUS
 10
348.9140630472
 20
184.0649821484
  0
VERTEX
  8
0
 62
7
  6
CONTINUOUS
 10
348.9281407638
 20
184.1334902133
  0
VERTEX
  8
0
 62
7
  6
CONTINUOUS
 10
348.9402028124
 20
184.2047972807
  0
VERTEX
  8
0
 62
7
  6
CONTINUOUS
 10
348.9501748264
 20
184.2784637187
  0
VERTEX
  8
0
 62
7
  6
CONTINUOUS
 10
348.9579953251
 20
184.3540353492
  0
VERTEX
  8
0
 62
7
  6
CONTINUOUS
 10
348.9636160923
 20
184.431046248
  0
VERTEX
  8
0
 62
7
  6
CONTINUOUS
 10
348.9670024743
 20
184.5090216174
  0
VERTEX
  8
0
 62
7
  6
CONTINUOUS
 10
348.9681335929
 20
184.5874807131
  0
SEQEND
  0
LINE
  8
0
 62
7
  6
CONTINUOUS
 10
457.5036782472
 20
183.5874807131
 11
426.9033881584
 21
183.5874807131
  0
LINE
  8
0
 62
7
  6
CONTINUOUS
 10
383.0327043836
 20
183.5874807131
 11
339.0327043836
 21
183.5874807131
  0
LINE
  8
0
 62
7
  6
CONTINUOUS
 10
-54.8379793778
 20
183.5874807131
 11
-85.4382754318
 21
183.5874807131
  0
LINE
  8
0
 62
7
  6
CONTINUOUS
 10
461.3240921518
 20
184.5874807131
 11
425.9033844511
 21
184.5874807131
  0
LINE
  8
0
 62
7
  6
CONTINUOUS
 10
384.0327043836
 20
184.5874807131
 11
338.0327043836
 21
184.5874807131
  0
LINE
  8
0
 62
7
  6
CONTINUOUS
 10
-53.8379756839
 20
184.5874807131
 11
-89.2586833846
 21
184.5874807131
  0
LINE
  8
0
 62
7
  6
CONTINUOUS
 10
-53.8379919628
 20
193.5874807131
 11
-106.2172956164
 21
193.5874807131
  0
LINE
  8
0
 62
7
  6
CONTINUOUS
 10
338.0327043836
 20
193.5874807131
 11
384.0327043836
 21
193.5874807131
  0
LINE
  8
0
 62
7
  6
CONTINUOUS
 10
425.90340073
 20
193.5874807131
 11
478.2827043836
 21
193.5874807131
  0
POLYLINE
  8
0
 62
7
  6
CONTINUOUS
 66
1
 70
0
  0
VERTEX
  8
0
 62
7
  6
CONTINUOUS
 10
-85.438247599
 20
183.5874807131
  0
VERTEX
  8
0
 62
7
  6
CONTINUOUS
 10
-85.7277806315
 20
183.5910758411
  0
VERTEX
  8
0
 62
7
  6
CONTINUOUS
 10
-85.999987165
 20
183.6012083335
  0
VERTEX
  8
0
 62
7
  6
CONTINUOUS
 10
-86.2542598309
 20
183.6168623565
  0
VERTEX
  8
0
 62
7
  6
CONTINUOUS
 10
-86.4916324649
 20
183.6372285295
  0
VERTEX
  8
0
 62
7
  6
CONTINUOUS
 10
-86.7126499055
 20
183.6616211576
  0
VERTEX
  8
0
 62
7
  6
CONTINUOUS
 10
-86.9184368976
 20
183.6894840556
  0
VERTEX
  8
0
 62
7
  6
CONTINUOUS
 10
-87.1101846692
 20
183.7204231543
  0
VERTEX
  8
0
 62
7
  6
CONTINUOUS
 10
-87.2883467714
 20
183.7539974065
  0
VERTEX
  8
0
 62
7
  6
CONTINUOUS
 10
-87.45351746
 20
183.7898513222
  0
VERTEX
  8
0
 62
7
  6
CONTINUOUS
 10
-87.6065320475
 20
183.8277480777
  0
VERTEX
  8
0
 62
7
  6
CONTINUOUS
 10
-87.748321187
 20
183.867544524
  0
VERTEX
  8
0
 62
7
  6
CONTINUOUS
 10
-87.8791788412
 20
183.9090033006
  0
VERTEX
  8
0
 62
7
  6
CONTINUOUS
 10
-87.9997258378
 20
183.9520172577
  0
VERTEX
  8
0
 62
7
  6
CONTINUOUS
 10
-88.1099099543
 20
183.9962688038
  0
VERTEX
  8
0
 62
7
  6
CONTINUOUS
 10
-88.2099180559
 20
184.0415001843
  0
VERTEX
  8
0
 62
7
  6
CONTINUOUS
 10
-88.2997168358
 20
184.0874807131
  0
SEQEND
  0
POLYLINE
  8
0
 62
7
  6
CONTINUOUS
 66
1
 70
0
  0
VERTEX
  8
0
 62
7
  6
CONTINUOUS
 10
345.0905653555
 20
183.5874804058
  0
VERTEX
  8
0
 62
7
  6
CONTINUOUS
 10
345.130443023
 20
183.5866774019
  0
VERTEX
  8
0
 62
7
  6
CONTINUOUS
 10
345.2124600808
 20
183.5799535156
  0
VERTEX
  8
0
 62
7
  6
CONTINUOUS
 10
345.2941841023
 20
183.5663323617
  0
VERTEX
  8
0
 62
7
  6
CONTINUOUS
 10
345.3744510631
 20
183.5459403467
  0
VERTEX
  8
0
 62
7
  6
CONTINUOUS
 10
345.4521054493
 20
183.5191597228
  0
VERTEX
  8
0
 62
7
  6
CONTINUOUS
 10
345.5260858764
 20
183.4866135836
  0
VERTEX
  8
0
 62
7
  6
CONTINUOUS
 10
345.5955245938
 20
183.4491070627
  0
VERTEX
  8
0
 62
7
  6
CONTINUOUS
 10
345.659614693
 20
183.407678587
  0
VERTEX
  8
0
 62
7
  6
CONTINUOUS
 10
345.7180694121
 20
183.3632605703
  0
VERTEX
  8
0
 62
7
  6
CONTINUOUS
 10
345.7706153408
 20
183.3169215894
  0
VERTEX
  8
0
 62
7
  6
CONTINUOUS
 10
345.8172987261
 20
183.2695892736
  0
VERTEX
  8
0
 62
7
  6
CONTINUOUS
 10
345.8581862756
 20
183.2222594019
  0
VERTEX
  8
0
 62
7
  6
CONTINUOUS
 10
345.8936193836
 20
183.175676693
  0
VERTEX
  8
0
 62
7
  6
CONTINUOUS
 10
345.9238578237
 20
183.1307101875
  0
VERTEX
  8
0
 62
7
  6
CONTINUOUS
 10
345.9495531602
 20
183.0876118074
  0
VERTEX
  8
0
 62
7
  6
CONTINUOUS
 10
345.97123865
 20
183.0466404108
  0
VERTEX
  8
0
 62
7
  6
CONTINUOUS
 10
345.9893419112
 20
183.0081217907
  0
VERTEX
  8
0
 62
7
  6
CONTINUOUS
 10
346.0043305704
 20
182.9721777737
  0
VERTEX
  8
0
 62
7
  6
CONTINUOUS
 10
346.0164500167
 20
182.9393808563
  0
VERTEX
  8
0
 62
7
  6
CONTINUOUS
 10
346.0259822765
 20
182.9102549959
  0
VERTEX
  8
0
 62
7
  6
CONTINUOUS
 10
346.0333232591
 20
182.8849244946
  0
VERTEX
  8
0
 62
7
  6
CONTINUOUS
 10
346.0387751266
 20
182.8636897667
  0
VERTEX
  8
0
 62
7
  6
CONTINUOUS
 10
346.0427233993
 20
182.8463476994
  0
VERTEX
  8
0
 62
7
  6
CONTINUOUS
 10
346.0454595347
 20
182.8328065358
  0
VERTEX
  8
0
 62
7
  6
CONTINUOUS
 10
346.0472497115
 20
182.8228334843
  0
VERTEX
  8
0
 62
7
  6
CONTINUOUS
 10
346.048296667
 20
182.8162791895
  0
SEQEND
  0
POLYLINE
  8
0
 62
7
  6
CONTINUOUS
 66
1
 70
0
  0
VERTEX
  8
0
 62
7
  6
CONTINUOUS
 10
362.3169546627
 20
183.5874807131
  0
VERTEX
  8
0
 62
7
  6
CONTINUOUS
 10
362.2881657725
 20
183.5905633794
  0
VERTEX
  8
0
 62
7
  6
CONTINUOUS
 10
362.2595543754
 20
183.5997923725
  0
VERTEX
  8
0
 62
7
  6
CONTINUOUS
 10
362.2312968702
 20
183.6151107927
  0
VERTEX
  8
0
 62
7
  6
CONTINUOUS
 10
362.2035674737
 20
183.6364241968
  0
VERTEX
  8
0
 62
7
  6
CONTINUOUS
 10
362.176537147
 20
183.6636011806
  0
VERTEX
  8
0
 62
7
  6
CONTINUOUS
 10
362.1503725409
 20
183.6964741889
  0
VERTEX
  8
0
 62
7
  6
CONTINUOUS
 10
362.1252349691
 20
183.7348405487
  0
VERTEX
  8
0
 62
7
  6
CONTINUOUS
 10
362.1012794129
 20
183.7784637187
  0
VERTEX
  8
0
 62
7
  6
CONTINUOUS
 10
362.0786535663
 20
183.8270747475
  0
VERTEX
  8
0
 62
7
  6
CONTINUOUS
 10
362.0574969252
 20
183.8803739319
  0
VERTEX
  8
0
 62
7
  6
CONTINUOUS
 10
362.0379399274
 20
183.9380326648
  0
VERTEX
  8
0
 62
7
  6
CONTINUOUS
 10
362.0201031481
 20
183.9996954608
  0
VERTEX
  8
0
 62
7
  6
CONTINUOUS
 10
362.0040965572
 20
184.0649821484
  0
VERTEX
  8
0
 62
7
  6
CONTINUOUS
 10
361.9900188406
 20
184.1334902133
  0
VERTEX
  8
0
 62
7
  6
CONTINUOUS
 10
361.977956792
 20
184.2047972807
  0
VERTEX
  8
0
 62
7
  6
CONTINUOUS
 10
361.9679847779
 20
184.2784637187
  0
VERTEX
  8
0
 62
7
  6
CONTINUOUS
 10
361.9601642793
 20
184.3540353492
  0
VERTEX
  8
0
 62
7
  6
CONTINUOUS
 10
361.9545435121
 20
184.431046248
  0
VERTEX
  8
0
 62
7
  6
CONTINUOUS
 10
361.9511571301
 20
184.5090216174
  0
VERTEX
  8
0
 62
7
  6
CONTINUOUS
 10
361.9500260115
 20
184.5874807131
  0
SEQEND
  0
POLYLINE
  8
0
 62
7
  6
CONTINUOUS
 66
1
 70
0
  0
VERTEX
  8
0
 62
7
  6
CONTINUOUS
 10
373.4642038254
 20
183.5874807131
  0
VERTEX
  8
0
 62
7
  6
CONTINUOUS
 10
373.4354149352
 20
183.5905633794
  0
VERTEX
  8
0
 62
7
  6
CONTINUOUS
 10
373.4068035382
 20
183.5997923725
  0
VERTEX
  8
0
 62
7
  6
CONTINUOUS
 10
373.3785460329
 20
183.6151107927
  0
VERTEX
  8
0
 62
7
  6
CONTINUOUS
 10
373.3508166365
 20
183.6364241968
  0
VERTEX
  8
0
 62
7
  6
CONTINUOUS
 10
373.3237863097
 20
183.6636011806
  0
VERTEX
  8
0
 62
7
  6
CONTINUOUS
 10
373.2976217037
 20
183.6964741889
  0
VERTEX
  8
0
 62
7
  6
CONTINUOUS
 10
373.2724841318
 20
183.7348405487
  0
VERTEX
  8
0
 62
7
  6
CONTINUOUS
 10
373.2485285756
 20
183.7784637187
  0
VERTEX
  8
0
 62
7
  6
CONTINUOUS
 10
373.225902729
 20
183.8270747475
  0
VERTEX
  8
0
 62
7
  6
CONTINUOUS
 10
373.204746088
 20
183.8803739319
  0
VERTEX
  8
0
 62
7
  6
CONTINUOUS
 10
373.1851890901
 20
183.9380326648
  0
VERTEX
  8
0
 62
7
  6
CONTINUOUS
 10
373.1673523109
 20
183.9996954608
  0
VERTEX
  8
0
 62
7
  6
CONTINUOUS
 10
373.15134572
 20
184.0649821484
  0
VERTEX
  8
0
 62
7
  6
CONTINUOUS
 10
373.1372680033
 20
184.1334902133
  0
VERTEX
  8
0
 62
7
  6
CONTINUOUS
 10
373.1252059547
 20
184.2047972807
  0
VERTEX
  8
0
 62
7
  6
CONTINUOUS
 10
373.1152339407
 20
184.2784637187
  0
VERTEX
  8
0
 62
7
  6
CONTINUOUS
 10
373.1074134421
 20
184.3540353492
  0
VERTEX
  8
0
 62
7
  6
CONTINUOUS
 10
373.1017926748
 20
184.431046248
  0
VERTEX
  8
0
 62
7
  6
CONTINUOUS
 10
373.0984062928
 20
184.5090216174
  0
VERTEX
  8
0
 62
7
  6
CONTINUOUS
 10
373.0972751742
 20
184.5874807131
  0
SEQEND
  0
POLYLINE
  8
0
 62
7
  6
CONTINUOUS
 66
1
 70
0
  0
VERTEX
  8
0
 62
7
  6
CONTINUOUS
 10
460.365125603
 20
184.0874807131
  0
VERTEX
  8
0
 62
7
  6
CONTINUOUS
 10
460.2748916293
 20
184.0413124496
  0
VERTEX
  8
0
 62
7
  6
CONTINUOUS
 10
460.1746427303
 20
183.995995314
  0
VERTEX
  8
0
 62
7
  6
CONTINUOUS
 10
460.0645184898
 20
183.9517870683
  0
VERTEX
  8
0
 62
7
  6
CONTINUOUS
 10
459.9440450392
 20
183.9088254877
  0
VERTEX
  8
0
 62
7
  6
CONTINUOUS
 10
459.8128994226
 20
183.8673059461
  0
VERTEX
  8
0
 62
7
  6
CONTINUOUS
 10
459.6707797617
 20
183.8274487851
  0
VERTEX
  8
0
 62
7
  6
CONTINUOUS
 10
459.5176489978
 20
183.7895595363
  0
VERTEX
  8
0
 62
7
  6
CONTINUOUS
 10
459.3524205422
 20
183.7537310811
  0
VERTEX
  8
0
 62
7
  6
CONTINUOUS
 10
459.1741686155
 20
183.7201777496
  0
VERTEX
  8
0
 62
7
  6
CONTINUOUS
 10
458.9823477819
 20
183.6892649035
  0
VERTEX
  8
0
 62
7
  6
CONTINUOUS
 10
458.7765080151
 20
183.6614329936
  0
VERTEX
  8
0
 62
7
  6
CONTINUOUS
 10
458.5555048268
 20
183.6370792875
  0
VERTEX
  8
0
 62
7
  6
CONTINUOUS
 10
458.3182450548
 20
183.6167582313
  0
VERTEX
  8
0
 62
7
  6
CONTINUOUS
 10
458.0642347113
 20
183.6011512831
  0
VERTEX
  8
0
 62
7
  6
CONTINUOUS
 10
457.7925084876
 20
183.5910589634
  0
VERTEX
  8
0
 62
7
  6
CONTINUOUS
 10
457.5036505424
 20
183.5874807131
  0
SEQEND
  0
POLYLINE
  8
0
 62
7
  6
CONTINUOUS
 66
1
 70
0
  0
VERTEX
  8
0
 62
7
  6
CONTINUOUS
 10
460.5410280612
 20
184.1989781382
  0
VERTEX
  8
0
 62
7
  6
CONTINUOUS
 10
460.5132799898
 20
184.1788505927
  0
VERTEX
  8
0
 62
7
  6
CONTINUOUS
 10
460.4848645712
 20
184.15936158
  0
VERTEX
  8
0
 62
7
  6
CONTINUOUS
 10
460.4557828611
 20
184.1405206258
  0
VERTEX
  8
0
 62
7
  6
CONTINUOUS
 10
460.4261009476
 20
184.1222814448
  0
VERTEX
  8
0
 62
7
  6
CONTINUOUS
 10
460.3958826373
 20
184.104598595
  0
VERTEX
  8
0
 62
7
  6
CONTINUOUS
 10
460.365125603
 20
184.0874807131
  0
SEQEND
  0
LINE
  8
0
 62
7
  6
CONTINUOUS
 10
338.0327043836
 20
184.5874807131
 11
338.0327043836
 21
193.5874807131
  0
LINE
  8
0
 62
7
  6
CONTINUOUS
 10
346.0327043836
 20
136.0874807131
 11
346.0327043836
 21
182.8870599619
  0
POLYLINE
  8
0
 62
7
  6
CONTINUOUS
 66
1
 70
0
  0
VERTEX
  8
0
 62
7
  6
CONTINUOUS
 10
346.2841094776
 20
183.5874807132
  0
VERTEX
  8
0
 62
7
  6
CONTINUOUS
 10
346.2762014849
 20
183.5071578039
  0
VERTEX
  8
0
 62
7
  6
CONTINUOUS
 10
346.2676787147
 20
183.4279470565
  0
VERTEX
  8
0
 62
7
  6
CONTINUOUS
 10
346.2586014731
 20
183.3497205164
  0
VERTEX
  8
0
 62
7
  6
CONTINUOUS
 10
346.2489803586
 20
183.2728620473
  0
VERTEX
  8
0
 62
7
  6
CONTINUOUS
 10
346.2388562104
 20
183.1976412822
  0
VERTEX
  8
0
 62
7
  6
CONTINUOUS
 10
346.2282348947
 20
183.1242729583
  0
VERTEX
  8
0
 62
7
  6
CONTINUOUS
 10
346.2171385948
 20
183.0528760754
  0
VERTEX
  8
0
 62
7
  6
CONTINUOUS
 10
346.2056140525
 20
182.9840074798
  0
VERTEX
  8
0
 62
7
  6
CONTINUOUS
 10
346.1937147515
 20
182.9180380286
  0
VERTEX
  8
0
 62
7
  6
CONTINUOUS
 10
346.1814972717
 20
182.8556446889
  0
VERTEX
  8
0
 62
7
  6
CONTINUOUS
 10
346.169053753
 20
182.7973692075
  0
VERTEX
  8
0
 62
7
  6
CONTINUOUS
 10
346.1563930847
 20
182.7439881023
  0
VERTEX
  8
0
 62
7
  6
CONTINUOUS
 10
346.1435472635
 20
182.6958942296
  0
VERTEX
  8
0
 62
7
  6
CONTINUOUS
 10
346.1306681502
 20
182.6547803212
  0
VERTEX
  8
0
 62
7
  6
CONTINUOUS
 10
346.1177718543
 20
182.6218394816
  0
VERTEX
  8
0
 62
7
  6
CONTINUOUS
 10
346.1053631259
 20
182.5989634496
  0
VERTEX
  8
0
 62
7
  6
CONTINUOUS
 10
346.0936751476
 20
182.5886511946
  0
VERTEX
  8
0
 62
7
  6
CONTINUOUS
 10
346.0831167009
 20
182.5902741292
  0
VERTEX
  8
0
 62
7
  6
CONTINUOUS
 10
346.0739679096
 20
182.60475983
  0
VERTEX
  8
0
 62
7
  6
CONTINUOUS
 10
346.0661392401
 20
182.6299387745
  0
VERTEX
  8
0
 62
7
  6
CONTINUOUS
 10
346.0596369323
 20
182.6643213488
  0
VERTEX
  8
0
 62
7
  6
CONTINUOUS
 10
346.0542168707
 20
182.7067954037
  0
VERTEX
  8
0
 62
7
  6
CONTINUOUS
 10
346.0497282282
 20
182.7559423109
  0
VERTEX
  8
0
 62
7
  6
CONTINUOUS
 10
346.0460265435
 20
182.8111918939
  0
VERTEX
  8
0
 62
7
  6
CONTINUOUS
 10
346.0447689618
 20
182.8362241885
  0
SEQEND
  0
POLYLINE
  8
0
 62
7
  6
CONTINUOUS
 66
1
 70
0
  0
VERTEX
  8
0
 62
7
  6
CONTINUOUS
 10
460.8264364727
 20
183.5874807131
  0
VERTEX
  8
0
 62
7
  6
CONTINUOUS
 10
460.7180670069
 20
183.4926870535
  0
VERTEX
  8
0
 62
7
  6
CONTINUOUS
 10
460.5982661189
 20
183.400563594
  0
VERTEX
  8
0
 62
7
  6
CONTINUOUS
 10
460.467373669
 20
183.3110307573
  0
VERTEX
  8
0
 62
7
  6
CONTINUOUS
 10
460.324521528
 20
183.2243272749
  0
VERTEX
  8
0
 62
7
  6
CONTINUOUS
 10
460.1691038726
 20
183.1404705275
  0
VERTEX
  8
0
 62
7
  6
CONTINUOUS
 10
460.0007192561
 20
183.060044991
  0
VERTEX
  8
0
 62
7
  6
CONTINUOUS
 10
459.8191159841
 20
182.9834701617
  0
VERTEX
  8
0
 62
7
  6
CONTINUOUS
 10
459.6232926431
 20
182.911258359
  0
VERTEX
  8
0
 62
7
  6
CONTINUOUS
 10
459.4124519976
 20
182.8437476391
  0
VERTEX
  8
0
 62
7
  6
CONTINUOUS
 10
459.1858145996
 20
182.7818802875
  0
VERTEX
  8
0
 62
7
  6
CONTINUOUS
 10
458.9425107887
 20
182.7262710679
  0
VERTEX
  8
0
 62
7
  6
CONTINUOUS
 10
458.6821236133
 20
182.6782406019
  0
VERTEX
  8
0
 62
7
  6
CONTINUOUS
 10
458.4012820375
 20
182.6387603068
  0
VERTEX
  8
0
 62
7
  6
CONTINUOUS
 10
458.1081055594
 20
182.6094925592
  0
VERTEX
  8
0
 62
7
  6
CONTINUOUS
 10
457.8053785079
 20
182.5927915139
  0
VERTEX
  8
0
 62
7
  6
CONTINUOUS
 10
457.5054363691
 20
182.5875532538
  0
VERTEX
  8
0
 62
7
  6
CONTINUOUS
 10
457.2216713746
 20
182.5942577509
  0
VERTEX
  8
0
 62
7
  6
CONTINUOUS
 10
456.952923818
 20
182.610507493
  0
VERTEX
  8
0
 62
7
  6
CONTINUOUS
 10
456.7038899244
 20
182.6343126339
  0
VERTEX
  8
0
 62
7
  6
CONTINUOUS
 10
456.4702069156
 20
182.6649301477
  0
VERTEX
  8
0
 62
7
  6
CONTINUOUS
 10
456.2491154105
 20
182.701146594
  0
VERTEX
  8
0
 62
7
  6
CONTINUOUS
 10
456.0406627403
 20
182.7423833701
  0
VERTEX
  8
0
 62
7
  6
CONTINUOUS
 10
455.8442135155
 20
182.7877845931
  0
VERTEX
  8
0
 62
7
  6
CONTINUOUS
 10
455.6591084579
 20
182.8369686624
  0
VERTEX
  8
0
 62
7
  6
CONTINUOUS
 10
455.484573941
 20
182.8893964119
  0
VERTEX
  8
0
 62
7
  6
CONTINUOUS
 10
455.3203670023
 20
182.9446846561
  0
VERTEX
  8
0
 62
7
  6
CONTINUOUS
 10
455.1661342554
 20
183.0023588932
  0
VERTEX
  8
0
 62
7
  6
CONTINUOUS
 10
455.021464441
 20
183.0621539053
  0
VERTEX
  8
0
 62
7
  6
CONTINUOUS
 10
454.8859724901
 20
183.1237072087
  0
VERTEX
  8
0
 62
7
  6
CONTINUOUS
 10
454.7592576749
 20
183.1868360987
  0
VERTEX
  8
0
 62
7
  6
CONTINUOUS
 10
454.6409038607
 20
183.2512890453
  0
VERTEX
  8
0
 62
7
  6
CONTINUOUS
 10
454.5306016832
 20
183.3169100407
  0
VERTEX
  8
0
 62
7
  6
CONTINUOUS
 10
454.427981516
 20
183.3835189483
  0
VERTEX
  8
0
 62
7
  6
CONTINUOUS
 10
454.3328328522
 20
183.4509366242
  0
VERTEX
  8
0
 62
7
  6
CONTINUOUS
 10
454.2448027297
 20
183.5188939805
  0
VERTEX
  8
0
 62
7
  6
CONTINUOUS
 10
454.1639688003
 20
183.5874807131
  0
SEQEND
  0
LINE
  8
0
 62
7
  6
CONTINUOUS
 10
348.9681335929
 20
184.5874807131
 11
348.9681335929
 21
193.5874807131
  0
LINE
  8
0
 62
7
  6
CONTINUOUS
 10
351.0327043836
 20
136.0874807131
 11
351.0327043836
 21
183.5874807131
  0
LINE
  8
0
 62
7
  6
CONTINUOUS
 10
352.5327043836
 20
111.0874807131
 11
352.5327043836
 21
109.8374807131
  0
LINE
  8
0
 62
7
  6
CONTINUOUS
 10
360.1153827557
 20
184.5874807131
 11
360.1153827557
 21
193.5874807131
  0
LINE
  8
0
 62
7
  6
CONTINUOUS
 10
361.9500260115
 20
184.5874807131
 11
361.9500260115
 21
193.5874807131
  0
LINE
  8
0
 62
7
  6
CONTINUOUS
 10
369.5327043836
 20
111.0874807131
 11
369.5327043836
 21
109.8374807131
  0
LINE
  8
0
 62
7
  6
CONTINUOUS
 10
371.0327043836
 20
183.5874807131
 11
371.0327043836
 21
136.0874807131
  0
LINE
  8
0
 62
7
  6
CONTINUOUS
 10
373.0972751742
 20
184.5874807131
 11
373.0972751742
 21
193.5874807131
  0
LINE
  8
0
 62
7
  6
CONTINUOUS
 10
376.0327043836
 20
182.8869596634
 11
376.0327043836
 21
136.0874807131
  0
LINE
  8
0
 62
7
  6
CONTINUOUS
 10
384.0327043836
 20
184.5874807131
 11
384.0327043836
 21
193.5874807131
  0
POLYLINE
  8
0
 62
7
  6
CONTINUOUS
 66
1
 70
0
  0
VERTEX
  8
0
 62
7
  6
CONTINUOUS
 10
376.0207340963
 20
182.8368582246
  0
VERTEX
  8
0
 62
7
  6
CONTINUOUS
 10
376.017489906
 20
182.7809470567
  0
VERTEX
  8
0
 62
7
  6
CONTINUOUS
 10
376.0130607094
 20
182.7253521715
  0
VERTEX
  8
0
 62
7
  6
CONTINUOUS
 10
376.0076481366
 20
182.6773868317
  0
VERTEX
  8
0
 62
7
  6
CONTINUOUS
 10
376.0010126221
 20
182.6380596897
  0
VERTEX
  8
0
 62
7
  6
CONTINUOUS
 10
375.9931818143
 20
182.6090002446
  0
VERTEX
  8
0
 62
7
  6
CONTINUOUS
 10
375.984106889
 20
182.5925607334
  0
VERTEX
  8
0
 62
7
  6
CONTINUOUS
 10
375.9740894902
 20
182.5875815948
  0
VERTEX
  8
0
 62
7
  6
CONTINUOUS
 10
375.9636427807
 20
182.5944810175
  0
VERTEX
  8
0
 62
7
  6
CONTINUOUS
 10
375.9528507177
 20
182.6108779876
  0
VERTEX
  8
0
 62
7
  6
CONTINUOUS
 10
375.9420420458
 20
182.6347760972
  0
VERTEX
  8
0
 62
7
  6
CONTINUOUS
 10
375.9311740394
 20
182.6654397169
  0
VERTEX
  8
0
 62
7
  6
CONTINUOUS
 10
375.9202272431
 20
182.7016616587
  0
VERTEX
  8
0
 62
7
  6
CONTINUOUS
 10
375.909299698
 20
182.7428601909
  0
VERTEX
  8
0
 62
7
  6
CONTINUOUS
 10
375.8984503684
 20
182.7881760684
  0
VERTEX
  8
0
 62
7
  6
CONTINUOUS
 10
375.8877253929
 20
182.8372346431
  0
VERTEX
  8
0
 62
7
  6
CONTINUOUS
 10
375.877153593
 20
182.8895117575
  0
VERTEX
  8
0
 62
7
  6
CONTINUOUS
 10
375.8667954027
 20
182.9445966955
  0
VERTEX
  8
0
 62
7
  6
CONTINUOUS
 10
375.8567003328
 20
183.0019902368
  0
VERTEX
  8
0
 62
7
  6
CONTINUOUS
 10
375.8469010818
 20
183.061433737
  0
VERTEX
  8
0
 62
7
  6
CONTINUOUS
 10
375.8374353122
 20
183.1224999713
  0
VERTEX
  8
0
 62
7
  6
CONTINUOUS
 10
375.8283052772
 20
183.1851954603
  0
VERTEX
  8
0
 62
7
  6
CONTINUOUS
 10
375.8195021335
 20
183.2494411376
  0
VERTEX
  8
0
 62
7
  6
CONTINUOUS
 10
375.8110576574
 20
183.315066538
  0
VERTEX
  8
0
 62
7
  6
CONTINUOUS
 10
375.802980412
 20
183.3819823175
  0
VERTEX
  8
0
 62
7
  6
CONTINUOUS
 10
375.7953094233
 20
183.4498660457
  0
VERTEX
  8
0
 62
7
  6
CONTINUOUS
 10
375.788071944
 20
183.5183214844
  0
VERTEX
  8
0
 62
7
  6
CONTINUOUS
 10
375.7812992896
 20
183.5874807131
  0
SEQEND
  0
POLYLINE
  8
0
 62
7
  6
CONTINUOUS
 66
1
 70
0
  0
VERTEX
  8
0
 62
7
  6
CONTINUOUS
 10
376.0165962634
 20
182.8126731634
  0
VERTEX
  8
0
 62
7
  6
CONTINUOUS
 10
376.0166901367
 20
182.8133683506
  0
VERTEX
  8
0
 62
7
  6
CONTINUOUS
 10
376.0173524617
 20
182.8178889914
  0
VERTEX
  8
0
 62
7
  6
CONTINUOUS
 10
376.0187024959
 20
182.8260176327
  0
VERTEX
  8
0
 62
7
  6
CONTINUOUS
 10
376.0207975446
 20
182.8371967838
  0
VERTEX
  8
0
 62
7
  6
CONTINUOUS
 10
376.0238678057
 20
182.8517685881
  0
VERTEX
  8
0
 62
7
  6
CONTINUOUS
 10
376.0281808116
 20
182.8699793371
  0
VERTEX
  8
0
 62
7
  6
CONTINUOUS
 10
376.0340385213
 20
182.8919676735
  0
VERTEX
  8
0
 62
7
  6
CONTINUOUS
 10
376.0418612776
 20
182.9180381918
  0
VERTEX
  8
0
 62
7
  6
CONTINUOUS
 10
376.0519460549
 20
182.9478472386
  0
VERTEX
  8
0
 62
7
  6
CONTINUOUS
 10
376.0646760612
 20
182.9812155621
  0
VERTEX
  8
0
 62
7
  6
CONTINUOUS
 10
376.0803892057
 20
183.0177500439
  0
VERTEX
  8
0
 62
7
  6
CONTINUOUS
 10
376.0994339863
 20
183.057047309
  0
VERTEX
  8
0
 62
7
  6
CONTINUOUS
 10
376.1221938582
 20
183.0987344673
  0
VERTEX
  8
0
 62
7
  6
CONTINUOUS
 10
376.1490413942
 20
183.1423702168
  0
VERTEX
  8
0
 62
7
  6
CONTINUOUS
 10
376.1803657039
 20
183.1874985903
  0
VERTEX
  8
0
 62
7
  6
CONTINUOUS
 10
376.2165664021
 20
183.2336278703
  0
VERTEX
  8
0
 62
7
  6
CONTINUOUS
 10
376.2579213706
 20
183.2800814303
  0
VERTEX
  8
0
 62
7
  6
CONTINUOUS
 10
376.3047696894
 20
183.3262420684
  0
VERTEX
  8
0
 62
7
  6
CONTINUOUS
 10
376.3570414783
 20
183.3711181364
  0
VERTEX
  8
0
 62
7
  6
CONTINUOUS
 10
376.4146529736
 20
183.4138318258
  0
VERTEX
  8
0
 62
7
  6
CONTINUOUS
 10
376.4772981417
 20
183.453459781
  0
VERTEX
  8
0
 62
7
  6
CONTINUOUS
 10
376.5445214925
 20
183.4891407328
  0
VERTEX
  8
0
 62
7
  6
CONTINUOUS
 10
376.6159063339
 20
183.5201766114
  0
VERTEX
  8
0
 62
7
  6
CONTINUOUS
 10
376.6908860859
 20
183.5459197168
  0
VERTEX
  8
0
 62
7
  6
CONTINUOUS
 10
376.7688350851
 20
183.5658282904
  0
VERTEX
  8
0
 62
7
  6
CONTINUOUS
 10
376.8490467403
 20
183.5794626271
  0
VERTEX
  8
0
 62
7
  6
CONTINUOUS
 10
376.9307354089
 20
183.5864984076
  0
VERTEX
  8
0
 62
7
  6
CONTINUOUS
 10
376.9746256452
 20
183.5874807131
  0
SEQEND
  0
POLYLINE
  8
0
 62
7
  6
CONTINUOUS
 66
1
 70
0
  0
VERTEX
  8
0
 62
7
  6
CONTINUOUS
 10
461.0327043837
 20
183.8104755634
  0
VERTEX
  8
0
 62
7
  6
CONTINUOUS
 10
461.0001853616
 20
183.7701940017
  0
VERTEX
  8
0
 62
7
  6
CONTINUOUS
 10
460.9667924149
 20
183.7312419798
  0
VERTEX
  8
0
 62
7
  6
CONTINUOUS
 10
460.9326782919
 20
183.6935619825
  0
VERTEX
  8
0
 62
7
  6
CONTINUOUS
 10
460.8978822279
 20
183.657082459
  0
VERTEX
  8
0
 62
7
  6
CONTINUOUS
 10
460.862432654
 20
183.6217388238
  0
VERTEX
  8
0
 62
7
  6
CONTINUOUS
 10
460.8264364726
 20
183.5874807129
  0
SEQEND
  0
LINE
  8
0
 62
7
  6
CONTINUOUS
 10
460.5410280612
 20
184.1989781382
 11
461.0327043837
 21
183.8104755634
  0
LINE
  8
0
 62
7
  6
CONTINUOUS
 10
425.9033844511
 20
184.5874807131
 11
425.9033844511
 21
193.5874807131
  0
LINE
  8
0
 62
7
  6
CONTINUOUS
 10
429.7827043836
 20
111.0874807131
 11
429.7827043836
 21
136.0874807131
  0
LINE
  8
0
 62
7
  6
CONTINUOUS
 10
433.9033844511
 20
183.5874807131
 11
433.9033844511
 21
193.5874807131
  0
LINE
  8
0
 62
7
  6
CONTINUOUS
 10
443.7827043836
 20
183.5874807131
 11
443.7827043836
 21
136.0874807131
  0
LINE
  8
0
 62
7
  6
CONTINUOUS
 10
460.7888621707
 20
193.5874807131
 11
460.7888621706
 21
184.5874807131
  0
LINE
  8
0
 62
7
  6
CONTINUOUS
 10
461.0327043836
 20
183.8104755633
 11
461.0327043836
 21
136.0874807131
  0
LINE
  8
0
 62
7
  6
CONTINUOUS
 10
461.3240921518
 20
193.5874807131
 11
461.3240921518
 21
184.5874807131
  0
LINE
  8
0
 62
7
  6
CONTINUOUS
 10
478.2827043836
 20
193.5874807131
 11
478.2827043836
 21
124.5874807131
  0
POLYLINE
  8
0
 62
7
  6
CONTINUOUS
 66
1
 70
0
  0
VERTEX
  8
0
 62
7
  6
CONTINUOUS
 10
461.324093895
 20
184.5874783795
  0
VERTEX
  8
0
 62
7
  6
CONTINUOUS
 10
461.3230968096
 20
184.5395412775
  0
VERTEX
  8
0
 62
7
  6
CONTINUOUS
 10
461.3197496375
 20
184.4906574475
  0
VERTEX
  8
0
 62
7
  6
CONTINUOUS
 10
461.3141480956
 20
184.4409056757
  0
VERTEX
  8
0
 62
7
  6
CONTINUOUS
 10
461.30600408
 20
184.3900496035
  0
VERTEX
  8
0
 62
7
  6
CONTINUOUS
 10
461.2951587791
 20
184.3379058383
  0
VERTEX
  8
0
 62
7
  6
CONTINUOUS
 10
461.2813187591
 20
184.2843942683
  0
VERTEX
  8
0
 62
7
  6
CONTINUOUS
 10
461.2642314192
 20
184.2293410127
  0
VERTEX
  8
0
 62
7
  6
CONTINUOUS
 10
461.2436134067
 20
184.172843986
  0
VERTEX
  8
0
 62
7
  6
CONTINUOUS
 10
461.2191615081
 20
184.1148608324
  0
VERTEX
  8
0
 62
7
  6
CONTINUOUS
 10
461.190679742
 20
184.0556384819
  0
VERTEX
  8
0
 62
7
  6
CONTINUOUS
 10
461.1578989076
 20
183.9953124005
  0
VERTEX
  8
0
 62
7
  6
CONTINUOUS
 10
461.1207318198
 20
183.9341746244
  0
VERTEX
  8
0
 62
7
  6
CONTINUOUS
 10
461.0789803441
 20
183.8726044943
  0
VERTEX
  8
0
 62
7
  6
CONTINUOUS
 10
461.0327043836
 20
183.8104755633
  0
SEQEND
  0
POLYLINE
  8
0
 62
7
  6
CONTINUOUS
 66
1
 70
0
  0
VERTEX
  8
0
 62
7
  6
CONTINUOUS
 10
460.788864631
 20
184.5874807131
  0
VERTEX
  8
0
 62
7
  6
CONTINUOUS
 10
460.7880068353
 20
184.5635157796
  0
VERTEX
  8
0
 62
7
  6
CONTINUOUS
 10
460.7851728731
 20
184.5390634161
  0
VERTEX
  8
0
 62
7
  6
CONTINUOUS
 10
460.7804133243
 20
184.514189552
  0
VERTEX
  8
0
 62
7
  6
CONTINUOUS
 10
460.7734982932
 20
184.4887621819
  0
VERTEX
  8
0
 62
7
  6
CONTINUOUS
 10
460.764284694
 20
184.4626929918
  0
VERTEX
  8
0
 62
7
  6
CONTINUOUS
 10
460.7525284974
 20
184.4359354974
  0
VERTEX
  8
0
 62
7
  6
CONTINUOUS
 10
460.7380073461
 20
184.4084081145
  0
VERTEX
  8
0
 62
7
  6
CONTINUOUS
 10
460.720482616
 20
184.3801553125
  0
VERTEX
  8
0
 62
7
  6
CONTINUOUS
 10
460.6996950851
 20
184.3511652306
  0
VERTEX
  8
0
 62
7
  6
CONTINUOUS
 10
460.6754742314
 20
184.3215547303
  0
VERTEX
  8
0
 62
7
  6
CONTINUOUS
 10
460.6475991629
 20
184.2913978361
  0
VERTEX
  8
0
 62
7
  6
CONTINUOUS
 10
460.6159774867
 20
184.2608329587
  0
VERTEX
  8
0
 62
7
  6
CONTINUOUS
 10
460.580447598
 20
184.2300199177
  0
VERTEX
  8
0
 62
7
  6
CONTINUOUS
 10
460.5410280612
 20
184.1989781382
  0
SEQEND
  0
ARC
  8
0
 62
7
  6
CONTINUOUS
 10
461.0327043836
 20
123.5874807131
 40
13.75
 50
245.3956043119
 51
360.0
  0
ARC
  8
0
 62
7
  6
CONTINUOUS
 10
-88.9672956164
 20
123.5874807131
 40
13.75
 50
180.0
 51
294.6043956881
  0
ARC
  8
0
 62
7
  6
CONTINUOUS
 10
-88.9672956164
 20
123.5874807131
 40
12.5
 50
90.0
 51
270.0
  0
ARC
  8
0
 62
7
  6
CONTINUOUS
 10
461.0327043836
 20
123.5874807131
 40
12.5
 50
270.0
 51
90.0
  0
ARC
  8
0
 62
7
  6
CONTINUOUS
 10
-54.8379756839
 20
184.5874807131
 40
1.0
 50
270.0
 51
360.0
  0
ARC
  8
0
 62
7
  6
CONTINUOUS
 10
426.9033844511
 20
184.5874807131
 40
1.0
 50
180.0
 51
270.0
  0
ARC
  8
0
 62
7
  6
CONTINUOUS
 10
477.2827043836
 20
124.5874807131
 40
1.0
 50
270.0
 51
360.0
  0
ARC
  8
0
 62
7
  6
CONTINUOUS
 10
-105.2172956164
 20
124.5874807131
 40
1.0
 50
180.0
 51
270.0
  0
ARC
  8
0
 62
7
  6
CONTINUOUS
 10
339.0327043838
 20
184.5874807131
 40
1.0
 50
180.0
 51
269.9999999896
  0
ARC
  8
0
 62
7
  6
CONTINUOUS
 10
383.0327043836
 20
184.5874807131
 40
1.0
 50
270.0
 51
360.0
  0
ENDSEC
  0
EOF
