999
DXF file: K:\Client\125_Heirloom\001\00\Final_Data\Drawings\LADDER TOWEL WARMERS\we700_1.dxf
999
Pro/ENGINEER 2017110 by Parametric Technology Corporation
  0
SECTION
  2
HEADER
  9
$EXTMAX
 10
420.0
 20
297.0
 30
0.0
  9
$EXTMIN
 10
0.0
 20
0.0
 30
0.0
  9
$LIMMIN
 10
0.0
 20
0.0
  9
$LIMMAX
 10
420.0
 20
297.0
  9
$VIEWCTR
 10
210.0
 20
148.5
  9
$VIEWSIZE
 40
297.0
  9
$CLAYER
  8
0
  9
$LTSCALE
 40
23.1
  9
$CELTYPE
  6
BYLAYER
  9
$DIMSCALE
 40
1.0
  9
$DIMASZ
 40
3.0
  9
$DIMEXO
 40
1.0
  9
$DIMDLI
 40
15.96
  9
$DIMEXE
 40
1.0
  9
$DIMCEN
 40
3.78
  9
$DIMLFAC
 40
1.0
  9
$DIMBLK
  1
_FILLED
  9
$DIMALT
 70
0
  9
$DIMALTF
 40
0.0393700787
  9
$DIMTXT
 40
3.0
  9
$AUNITS
 70
0
  9
$PDMODE
 70
3
  9
$PDSIZE
 40
5.0
  9
$TILEMODE
 70
1
  0
ENDSEC
  0
SECTION
  2
TABLES
  0
TABLE
  2
LTYPE
 70
6
  0
LTYPE
  2
BYBLOCK
 70
0
  3

 72
65
 73
0
 40
0.0
  0
LTYPE
  2
BYLAYER
 70
0
  3

 72
65
 73
0
 40
0.0
  0
LTYPE
  2
CONTINUOUS
 70
64
  3
Solid line
 72
65
 73
0
 40
0.0
  0
LTYPE
  2
CENTER
 70
64
  3
____ _ ____ _ ____ _ ____ _ ____ _ ____ _ ____
 72
65
 73
4
 40
0.6
 49
0.375
 49
-0.075
 49
0.075
 49
-0.075
  0
LTYPE
  2
HIDDEN
 70
64
  3
- - - - - - - - - - - - - - - - - - - -
 72
65
 73
2
 40
0.2
 49
0.1
 49
-0.1
  0
LTYPE
  2
PHANTOM
 70
64
  3
_____ _ _ _____ _ _ _____ _ _ _____
 72
65
 73
6
 40
0.8
 49
0.45
 49
-0.05
 49
0.1
 49
-0.05
 49
0.1
 49
-0.05
  0
LTYPE
  2
DOT
 70
64
  3
. . . . . . . . . . . . . . . . . . . .
 72
65
 73
2
 40
0.2
 49
0.1
 49
-0.1
  0
LTYPE
  2
DASHED
 70
64
  3
- - - - - - - - - - - - - - - - - - - -
 72
65
 73
2
 40
0.2
 49
0.1
 49
-0.1
  0
ENDTAB
  0
TABLE
  2
LAYER
 70
36
  0
LAYER
  2
0
 70
0
 62
7
  6
CONTINUOUS
  0
LAYER
  2
DEFAULT_1
 70
0
 62
7
  6
CENTER
  0
LAYER
  2
DEFAULT_2
 70
0
 62
8
  6
HIDDEN
  0
LAYER
  2
DEFAULT_3
 70
0
 62
7
  6
PHANTOM
  0
LAYER
  2
0000_BOM
 70
0
 62
7
  6
CONTINUOUS
  0
LAYER
  2
0000_REV_TABLE
 70
0
 62
7
  6
CONTINUOUS
  0
LAYER
  2
0000_STEVENS_NOTE
 70
0
 62
7
  6
CONTINUOUS
  0
LAYER
  2
01_DATUM_PLANES
 70
0
 62
7
  6
CONTINUOUS
  0
LAYER
  2
01_DEF_PLANES
 70
0
 62
7
  6
CONTINUOUS
  0
LAYER
  2
02_DATUM_COS
 70
0
 62
7
  6
CONTINUOUS
  0
LAYER
  2
99_SOLID
 70
0
 62
7
  6
CONTINUOUS
  0
LAYER
  2
CAD-MASTER_ZINC-PL
 70
0
 62
7
  6
CONTINUOUS
  0
LAYER
  2
CURVE
 70
0
 62
7
  6
CONTINUOUS
  0
LAYER
  2
SKEL
 70
0
 62
7
  6
CONTINUOUS
  0
LAYER
  2
SKETCH
 70
0
 62
7
  6
CONTINUOUS
  0
LAYER
  2
SURFACE
 70
0
 62
7
  6
CONTINUOUS
  0
ENDTAB
  0
TABLE
  2
STYLE
 70
1
  0
STYLE
  2
STANDARD
 70
0
 40
0.0
 41
0.75
 50
0.0
 71
0
 42
0.2
  3
txt
  4

  0
STYLE
  2
TEXTSTYLE_1
 70
0
 40
0.0
 41
0.8
 50
0.0
 71
0
 42
0.2
  3
gdt
  4

  0
ENDTAB
  0
ENDSEC
  0
SECTION
  2
BLOCKS
  0
ENDSEC
  0
SECTION
  2
ENTITIES
  0
POLYLINE
  8
0
 62
7
  6
CONTINUOUS
 66
1
 70
0
  0
VERTEX
  8
0
 62
7
  6
CONTINUOUS
 10
-170.724607958
 20
-55.5259805629
  0
VERTEX
  8
0
 62
7
  6
CONTINUOUS
 10
-170.7237451062
 20
-55.59645556
  0
VERTEX
  8
0
 62
7
  6
CONTINUOUS
 10
-170.7209157545
 20
-55.6712116876
  0
VERTEX
  8
0
 62
7
  6
CONTINUOUS
 10
-170.71580678
 20
-55.7493084956
  0
VERTEX
  8
0
 62
7
  6
CONTINUOUS
 10
-170.7079246966
 20
-55.8321344797
  0
VERTEX
  8
0
 62
7
  6
CONTINUOUS
 10
-170.6966405582
 20
-55.9205275868
  0
VERTEX
  8
0
 62
7
  6
CONTINUOUS
 10
-170.681305488
 20
-56.0144568781
  0
VERTEX
  8
0
 62
7
  6
CONTINUOUS
 10
-170.6611769896
 20
-56.1139904865
  0
VERTEX
  8
0
 62
7
  6
CONTINUOUS
 10
-170.6354191429
 20
-56.2191813102
  0
VERTEX
  8
0
 62
7
  6
CONTINUOUS
 10
-170.6030900571
 20
-56.3300741331
  0
VERTEX
  8
0
 62
7
  6
CONTINUOUS
 10
-170.5632848017
 20
-56.4462810859
  0
VERTEX
  8
0
 62
7
  6
CONTINUOUS
 10
-170.5149851269
 20
-56.5675836097
  0
VERTEX
  8
0
 62
7
  6
CONTINUOUS
 10
-170.4573343583
 20
-56.6932638146
  0
VERTEX
  8
0
 62
7
  6
CONTINUOUS
 10
-170.389377421
 20
-56.8228587153
  0
VERTEX
  8
0
 62
7
  6
CONTINUOUS
 10
-170.3104421947
 20
-56.9554359673
  0
VERTEX
  8
0
 62
7
  6
CONTINUOUS
 10
-170.2198178399
 20
-57.0903134476
  0
VERTEX
  8
0
 62
7
  6
CONTINUOUS
 10
-170.1170207197
 20
-57.2266327857
  0
VERTEX
  8
0
 62
7
  6
CONTINUOUS
 10
-170.0016215561
 20
-57.3636675667
  0
VERTEX
  8
0
 62
7
  6
CONTINUOUS
 10
-169.8732225499
 20
-57.5008159178
  0
VERTEX
  8
0
 62
7
  6
CONTINUOUS
 10
-169.7315508561
 20
-57.6374821611
  0
VERTEX
  8
0
 62
7
  6
CONTINUOUS
 10
-169.5761949676
 20
-57.7733139317
  0
VERTEX
  8
0
 62
7
  6
CONTINUOUS
 10
-169.4068874508
 20
-57.907899349
  0
VERTEX
  8
0
 62
7
  6
CONTINUOUS
 10
-169.2231495191
 20
-58.0410475604
  0
VERTEX
  8
0
 62
7
  6
CONTINUOUS
 10
-169.0246278827
 20
-58.1724932901
  0
VERTEX
  8
0
 62
7
  6
CONTINUOUS
 10
-168.8107562643
 20
-58.3021255729
  0
VERTEX
  8
0
 62
7
  6
CONTINUOUS
 10
-168.5810633053
 20
-58.4297655138
  0
VERTEX
  8
0
 62
7
  6
CONTINUOUS
 10
-168.3348890844
 20
-58.5553297509
  0
VERTEX
  8
0
 62
7
  6
CONTINUOUS
 10
-168.0716417471
 20
-58.6786772309
  0
VERTEX
  8
0
 62
7
  6
CONTINUOUS
 10
-167.7905664973
 20
-58.7997228957
  0
VERTEX
  8
0
 62
7
  6
CONTINUOUS
 10
-167.4909586594
 20
-58.9183321244
  0
VERTEX
  8
0
 62
7
  6
CONTINUOUS
 10
-167.1719667576
 20
-59.0344032917
  0
VERTEX
  8
0
 62
7
  6
CONTINUOUS
 10
-166.8327803706
 20
-59.1477903147
  0
VERTEX
  8
0
 62
7
  6
CONTINUOUS
 10
-166.4724473723
 20
-59.2583676585
  0
VERTEX
  8
0
 62
7
  6
CONTINUOUS
 10
-166.0897134285
 20
-59.3660600309
  0
VERTEX
  8
0
 62
7
  6
CONTINUOUS
 10
-165.724607958
 20
-59.4601170234
  0
SEQEND
  0
POLYLINE
  8
0
 62
7
  6
CONTINUOUS
 66
1
 70
0
  0
VERTEX
  8
0
 62
7
  6
CONTINUOUS
 10
-170.724607958
 20
349.4740194371
  0
VERTEX
  8
0
 62
7
  6
CONTINUOUS
 10
-170.7237451061
 20
349.4035444336
  0
VERTEX
  8
0
 62
7
  6
CONTINUOUS
 10
-170.720915754
 20
349.3287883027
  0
VERTEX
  8
0
 62
7
  6
CONTINUOUS
 10
-170.7158067793
 20
349.2506914952
  0
VERTEX
  8
0
 62
7
  6
CONTINUOUS
 10
-170.7079246958
 20
349.1678655127
  0
VERTEX
  8
0
 62
7
  6
CONTINUOUS
 10
-170.696640557
 20
349.0794724053
  0
VERTEX
  8
0
 62
7
  6
CONTINUOUS
 10
-170.6813054864
 20
348.9855431135
  0
VERTEX
  8
0
 62
7
  6
CONTINUOUS
 10
-170.6611769877
 20
348.886009505
  0
VERTEX
  8
0
 62
7
  6
CONTINUOUS
 10
-170.6354191406
 20
348.7808186812
  0
VERTEX
  8
0
 62
7
  6
CONTINUOUS
 10
-170.6030900543
 20
348.6699258581
  0
VERTEX
  8
0
 62
7
  6
CONTINUOUS
 10
-170.5632847984
 20
348.5537189051
  0
VERTEX
  8
0
 62
7
  6
CONTINUOUS
 10
-170.5149851229
 20
348.4324163809
  0
VERTEX
  8
0
 62
7
  6
CONTINUOUS
 10
-170.4573343535
 20
348.3067361758
  0
VERTEX
  8
0
 62
7
  6
CONTINUOUS
 10
-170.3893774154
 20
348.1771412747
  0
VERTEX
  8
0
 62
7
  6
CONTINUOUS
 10
-170.3104421883
 20
348.0445640225
  0
VERTEX
  8
0
 62
7
  6
CONTINUOUS
 10
-170.2198178325
 20
347.909686542
  0
VERTEX
  8
0
 62
7
  6
CONTINUOUS
 10
-170.1170207113
 20
347.7733672038
  0
VERTEX
  8
0
 62
7
  6
CONTINUOUS
 10
-170.0016215467
 20
347.6363324228
  0
VERTEX
  8
0
 62
7
  6
CONTINUOUS
 10
-169.8732225394
 20
347.4991840716
  0
VERTEX
  8
0
 62
7
  6
CONTINUOUS
 10
-169.7315508446
 20
347.3625178283
  0
VERTEX
  8
0
 62
7
  6
CONTINUOUS
 10
-169.5761949552
 20
347.226686058
  0
VERTEX
  8
0
 62
7
  6
CONTINUOUS
 10
-169.4068874375
 20
347.0921006409
  0
VERTEX
  8
0
 62
7
  6
CONTINUOUS
 10
-169.2231495051
 20
346.9589524299
  0
VERTEX
  8
0
 62
7
  6
CONTINUOUS
 10
-169.0246278682
 20
346.8275067007
  0
VERTEX
  8
0
 62
7
  6
CONTINUOUS
 10
-168.8107562495
 20
346.6978744185
  0
VERTEX
  8
0
 62
7
  6
CONTINUOUS
 10
-168.5810632903
 20
346.5702344782
  0
VERTEX
  8
0
 62
7
  6
CONTINUOUS
 10
-168.3348890696
 20
346.4446702419
  0
VERTEX
  8
0
 62
7
  6
CONTINUOUS
 10
-168.0716417328
 20
346.3213227626
  0
VERTEX
  8
0
 62
7
  6
CONTINUOUS
 10
-167.7905664838
 20
346.2002770987
  0
VERTEX
  8
0
 62
7
  6
CONTINUOUS
 10
-167.490958647
 20
346.0816678709
  0
VERTEX
  8
0
 62
7
  6
CONTINUOUS
 10
-167.1719667467
 20
345.9655967044
  0
VERTEX
  8
0
 62
7
  6
CONTINUOUS
 10
-166.8327803616
 20
345.8522096824
  0
VERTEX
  8
0
 62
7
  6
CONTINUOUS
 10
-166.4724473657
 20
345.7416323396
  0
VERTEX
  8
0
 62
7
  6
CONTINUOUS
 10
-166.0897134249
 20
345.6339399681
  0
VERTEX
  8
0
 62
7
  6
CONTINUOUS
 10
-165.724607958
 20
345.5398829766
  0
SEQEND
  0
POLYLINE
  8
0
 62
9
  6
CONTINUOUS
 66
1
 70
0
  0
VERTEX
  8
0
 62
9
  6
CONTINUOUS
 10
-169.724607958
 20
-55.5259805629
  0
VERTEX
  8
0
 62
9
  6
CONTINUOUS
 10
-169.7241635249
 20
-55.5710373638
  0
VERTEX
  8
0
 62
9
  6
CONTINUOUS
 10
-169.7223300755
 20
-55.6179821656
  0
VERTEX
  8
0
 62
9
  6
CONTINUOUS
 10
-169.7192505647
 20
-55.6666133554
  0
VERTEX
  8
0
 62
9
  6
CONTINUOUS
 10
-169.7144961284
 20
-55.7175357714
  0
VERTEX
  8
0
 62
9
  6
CONTINUOUS
 10
-169.707827212
 20
-55.7713020307
  0
VERTEX
  8
0
 62
9
  6
CONTINUOUS
 10
-169.6988188425
 20
-55.8278671832
  0
VERTEX
  8
0
 62
9
  6
CONTINUOUS
 10
-169.6871551754
 20
-55.8873215395
  0
VERTEX
  8
0
 62
9
  6
CONTINUOUS
 10
-169.6722692705
 20
-55.9498119343
  0
VERTEX
  8
0
 62
9
  6
CONTINUOUS
 10
-169.653727462
 20
-56.0154813203
  0
VERTEX
  8
0
 62
9
  6
CONTINUOUS
 10
-169.6308140829
 20
-56.0844316548
  0
VERTEX
  8
0
 62
9
  6
CONTINUOUS
 10
-169.6029568887
 20
-56.1567916295
  0
VERTEX
  8
0
 62
9
  6
CONTINUOUS
 10
-169.5692919462
 20
-56.2326239937
  0
VERTEX
  8
0
 62
9
  6
CONTINUOUS
 10
-169.5290777538
 20
-56.312055918
  0
VERTEX
  8
0
 62
9
  6
CONTINUOUS
 10
-169.481374771
 20
-56.3950228293
  0
VERTEX
  8
0
 62
9
  6
CONTINUOUS
 10
-169.4253001815
 20
-56.4815758551
  0
VERTEX
  8
0
 62
9
  6
CONTINUOUS
 10
-169.3599423104
 20
-56.571495063
  0
VERTEX
  8
0
 62
9
  6
CONTINUOUS
 10
-169.2843669863
 20
-56.6646888049
  0
VERTEX
  8
0
 62
9
  6
CONTINUOUS
 10
-169.1977588836
 20
-56.7608233556
  0
VERTEX
  8
0
 62
9
  6
CONTINUOUS
 10
-169.0992275376
 20
-56.8596621343
  0
VERTEX
  8
0
 62
9
  6
CONTINUOUS
 10
-168.9880641941
 20
-56.9608220601
  0
VERTEX
  8
0
 62
9
  6
CONTINUOUS
 10
-168.8634754587
 20
-57.0639676251
  0
VERTEX
  8
0
 62
9
  6
CONTINUOUS
 10
-168.7248247874
 20
-57.1687195303
  0
VERTEX
  8
0
 62
9
  6
CONTINUOUS
 10
-168.5714158475
 20
-57.2747026991
  0
VERTEX
  8
0
 62
9
  6
CONTINUOUS
 10
-168.402634611
 20
-57.381568957
  0
VERTEX
  8
0
 62
9
  6
CONTINUOUS
 10
-168.217846454
 20
-57.4889491344
  0
VERTEX
  8
0
 62
9
  6
CONTINUOUS
 10
-168.0164168306
 20
-57.5965311407
  0
VERTEX
  8
0
 62
9
  6
CONTINUOUS
 10
-167.7977279742
 20
-57.7039741422
  0
VERTEX
  8
0
 62
9
  6
CONTINUOUS
 10
-167.5610949231
 20
-57.8109951982
  0
VERTEX
  8
0
 62
9
  6
CONTINUOUS
 10
-167.3058783199
 20
-57.9172858937
  0
VERTEX
  8
0
 62
9
  6
CONTINUOUS
 10
-167.0313235845
 20
-58.0225818168
  0
VERTEX
  8
0
 62
9
  6
CONTINUOUS
 10
-166.7367424348
 20
-58.1266054419
  0
VERTEX
  8
0
 62
9
  6
CONTINUOUS
 10
-166.4212966198
 20
-58.2290876947
  0
VERTEX
  8
0
 62
9
  6
CONTINUOUS
 10
-166.083785001
 20
-58.3296217947
  0
VERTEX
  8
0
 62
9
  6
CONTINUOUS
 10
-165.724607958
 20
-58.4283433353
  0
SEQEND
  0
POLYLINE
  8
0
 62
9
  6
CONTINUOUS
 66
1
 70
0
  0
VERTEX
  8
0
 62
9
  6
CONTINUOUS
 10
-169.724607958
 20
349.4740194371
  0
VERTEX
  8
0
 62
9
  6
CONTINUOUS
 10
-169.7241635247
 20
349.4289626321
  0
VERTEX
  8
0
 62
9
  6
CONTINUOUS
 10
-169.7223300752
 20
349.3820178282
  0
VERTEX
  8
0
 62
9
  6
CONTINUOUS
 10
-169.7192505642
 20
349.3333866385
  0
VERTEX
  8
0
 62
9
  6
CONTINUOUS
 10
-169.7144961278
 20
349.2824642234
  0
VERTEX
  8
0
 62
9
  6
CONTINUOUS
 10
-169.7078272113
 20
349.228697964
  0
VERTEX
  8
0
 62
9
  6
CONTINUOUS
 10
-169.6988188416
 20
349.1721328112
  0
VERTEX
  8
0
 62
9
  6
CONTINUOUS
 10
-169.6871551741
 20
349.1126784548
  0
VERTEX
  8
0
 62
9
  6
CONTINUOUS
 10
-169.6722692689
 20
349.0501880598
  0
VERTEX
  8
0
 62
9
  6
CONTINUOUS
 10
-169.6537274601
 20
348.9845186736
  0
VERTEX
  8
0
 62
9
  6
CONTINUOUS
 10
-169.6308140806
 20
348.9155683389
  0
VERTEX
  8
0
 62
9
  6
CONTINUOUS
 10
-169.6029568859
 20
348.8432083636
  0
VERTEX
  8
0
 62
9
  6
CONTINUOUS
 10
-169.5692919426
 20
348.7673759989
  0
VERTEX
  8
0
 62
9
  6
CONTINUOUS
 10
-169.5290777495
 20
348.6879440739
  0
VERTEX
  8
0
 62
9
  6
CONTINUOUS
 10
-169.4813747658
 20
348.6049771622
  0
VERTEX
  8
0
 62
9
  6
CONTINUOUS
 10
-169.4253001753
 20
348.518424136
  0
VERTEX
  8
0
 62
9
  6
CONTINUOUS
 10
-169.3599423033
 20
348.4285049277
  0
VERTEX
  8
0
 62
9
  6
CONTINUOUS
 10
-169.2843669782
 20
348.3353111856
  0
VERTEX
  8
0
 62
9
  6
CONTINUOUS
 10
-169.1977588745
 20
348.2391766348
  0
VERTEX
  8
0
 62
9
  6
CONTINUOUS
 10
-169.0992275275
 20
348.1403378561
  0
VERTEX
  8
0
 62
9
  6
CONTINUOUS
 10
-168.9880641831
 20
348.0391779303
  0
VERTEX
  8
0
 62
9
  6
CONTINUOUS
 10
-168.8634754467
 20
347.9360323654
  0
VERTEX
  8
0
 62
9
  6
CONTINUOUS
 10
-168.7248247745
 20
347.8312804603
  0
VERTEX
  8
0
 62
9
  6
CONTINUOUS
 10
-168.5714158338
 20
347.7252972918
  0
VERTEX
  8
0
 62
9
  6
CONTINUOUS
 10
-168.4026345965
 20
347.6184310342
  0
VERTEX
  8
0
 62
9
  6
CONTINUOUS
 10
-168.217846439
 20
347.5110508573
  0
VERTEX
  8
0
 62
9
  6
CONTINUOUS
 10
-168.0164168154
 20
347.4034688516
  0
VERTEX
  8
0
 62
9
  6
CONTINUOUS
 10
-167.7977279591
 20
347.2960258507
  0
VERTEX
  8
0
 62
9
  6
CONTINUOUS
 10
-167.5610949083
 20
347.1890047956
  0
VERTEX
  8
0
 62
9
  6
CONTINUOUS
 10
-167.305878306
 20
347.0827141009
  0
VERTEX
  8
0
 62
9
  6
CONTINUOUS
 10
-167.031323572
 20
346.9774181788
  0
VERTEX
  8
0
 62
9
  6
CONTINUOUS
 10
-166.7367424244
 20
346.8733945548
  0
VERTEX
  8
0
 62
9
  6
CONTINUOUS
 10
-166.421296612
 20
346.7709123031
  0
VERTEX
  8
0
 62
9
  6
CONTINUOUS
 10
-166.0837849967
 20
346.6703782037
  0
VERTEX
  8
0
 62
9
  6
CONTINUOUS
 10
-165.724607958
 20
346.5716566632
  0
SEQEND
  0
LINE
  8
0
 62
7
  6
CONTINUOUS
 10
-170.724607958
 20
369.4740194371
 11
-170.724607958
 21
349.4740194371
  0
LINE
  8
0
 62
7
  6
CONTINUOUS
 10
-170.724607958
 20
-35.5259805629
 11
-170.724607958
 21
-55.5259805629
  0
LINE
  8
0
 62
9
  6
CONTINUOUS
 10
-169.724607958
 20
369.4740194371
 11
-169.724607958
 21
349.4740194371
  0
LINE
  8
0
 62
9
  6
CONTINUOUS
 10
-169.724607958
 20
-35.5259805629
 11
-169.724607958
 21
-55.5259805629
  0
LINE
  8
0
 62
7
  6
CONTINUOUS
 10
-166.974607958
 20
367.9740194371
 11
-166.974607958
 21
350.9740194371
  0
LINE
  8
0
 62
7
  6
CONTINUOUS
 10
-166.974607958
 20
-37.0259805629
 11
-166.974607958
 21
-54.0259805629
  0
LINE
  8
0
 62
7
  6
CONTINUOUS
 10
-165.724607958
 20
-168.0259805629
 11
-165.724607958
 21
-54.0259805629
  0
LINE
  8
0
 62
7
  6
CONTINUOUS
 10
-165.724607958
 20
-37.0259805629
 11
-165.724607958
 21
350.9740194371
  0
LINE
  8
0
 62
7
  6
CONTINUOUS
 10
-165.724607958
 20
367.9740194371
 11
-165.724607958
 21
396.9740194371
  0
LINE
  8
0
 62
9
  6
CONTINUOUS
 10
-123.9804797646
 20
360.7582697162
 11
-119.5835444125
 21
371.9055188789
  0
LINE
  8
0
 62
7
  6
CONTINUOUS
 10
-123.050230677
 20
360.391341065
 11
-118.6532953249
 21
371.5385902277
  0
LINE
  8
0
 62
9
  6
CONTINUOUS
 10
-119.5835444125
 20
-57.9574800048
 11
-123.9804797646
 21
-46.810230842
  0
LINE
  8
0
 62
7
  6
CONTINUOUS
 10
-118.6532953249
 20
-57.5905513536
 11
-123.050230677
 21
-46.4433021908
  0
POLYLINE
  8
0
 62
7
  6
CONTINUOUS
 66
1
 70
0
  0
VERTEX
  8
0
 62
7
  6
CONTINUOUS
 10
-135.724607958
 20
-35.5259805629
  0
VERTEX
  8
0
 62
7
  6
CONTINUOUS
 10
-135.7254708099
 20
-35.4555055647
  0
VERTEX
  8
0
 62
7
  6
CONTINUOUS
 10
-135.7283001617
 20
-35.3807494365
  0
VERTEX
  8
0
 62
7
  6
CONTINUOUS
 10
-135.7334091362
 20
-35.3026526286
  0
VERTEX
  8
0
 62
7
  6
CONTINUOUS
 10
-135.7412912196
 20
-35.2198266449
  0
VERTEX
  8
0
 62
7
  6
CONTINUOUS
 10
-135.7525753581
 20
-35.1314335377
  0
VERTEX
  8
0
 62
7
  6
CONTINUOUS
 10
-135.7679104284
 20
-35.0375042462
  0
VERTEX
  8
0
 62
7
  6
CONTINUOUS
 10
-135.7880389268
 20
-34.9379706379
  0
VERTEX
  8
0
 62
7
  6
CONTINUOUS
 10
-135.8137967736
 20
-34.8327798141
  0
VERTEX
  8
0
 62
7
  6
CONTINUOUS
 10
-135.8461258595
 20
-34.7218869912
  0
VERTEX
  8
0
 62
7
  6
CONTINUOUS
 10
-135.885931115
 20
-34.6056800383
  0
VERTEX
  8
0
 62
7
  6
CONTINUOUS
 10
-135.9342307899
 20
-34.4843775145
  0
VERTEX
  8
0
 62
7
  6
CONTINUOUS
 10
-135.9918815587
 20
-34.3586973096
  0
VERTEX
  8
0
 62
7
  6
CONTINUOUS
 10
-136.0598384961
 20
-34.2291024088
  0
VERTEX
  8
0
 62
7
  6
CONTINUOUS
 10
-136.1387737225
 20
-34.0965251568
  0
VERTEX
  8
0
 62
7
  6
CONTINUOUS
 10
-136.2293980775
 20
-33.9616476764
  0
VERTEX
  8
0
 62
7
  6
CONTINUOUS
 10
-136.3321951979
 20
-33.8253283383
  0
VERTEX
  8
0
 62
7
  6
CONTINUOUS
 10
-136.4475943617
 20
-33.6882935573
  0
VERTEX
  8
0
 62
7
  6
CONTINUOUS
 10
-136.575993368
 20
-33.5511452062
  0
VERTEX
  8
0
 62
7
  6
CONTINUOUS
 10
-136.717665062
 20
-33.4144789629
  0
VERTEX
  8
0
 62
7
  6
CONTINUOUS
 10
-136.8730209506
 20
-33.2786471924
  0
VERTEX
  8
0
 62
7
  6
CONTINUOUS
 10
-137.0423284676
 20
-33.1440617751
  0
VERTEX
  8
0
 62
7
  6
CONTINUOUS
 10
-137.2260663994
 20
-33.0109135638
  0
VERTEX
  8
0
 62
7
  6
CONTINUOUS
 10
-137.4245880359
 20
-32.8794678341
  0
VERTEX
  8
0
 62
7
  6
CONTINUOUS
 10
-137.6384596543
 20
-32.7498355515
  0
VERTEX
  8
0
 62
7
  6
CONTINUOUS
 10
-137.8681526134
 20
-32.6221956107
  0
VERTEX
  8
0
 62
7
  6
CONTINUOUS
 10
-138.1143268342
 20
-32.4966313737
  0
VERTEX
  8
0
 62
7
  6
CONTINUOUS
 10
-138.3775741714
 20
-32.3732838938
  0
VERTEX
  8
0
 62
7
  6
CONTINUOUS
 10
-138.6586494211
 20
-32.2522382293
  0
VERTEX
  8
0
 62
7
  6
CONTINUOUS
 10
-138.9582572588
 20
-32.1336290007
  0
VERTEX
  8
0
 62
7
  6
CONTINUOUS
 10
-139.2772491603
 20
-32.0175578335
  0
VERTEX
  8
0
 62
7
  6
CONTINUOUS
 10
-139.616435547
 20
-31.9041708107
  0
VERTEX
  8
0
 62
7
  6
CONTINUOUS
 10
-139.9767685449
 20
-31.7935934671
  0
VERTEX
  8
0
 62
7
  6
CONTINUOUS
 10
-140.3595024883
 20
-31.6859010948
  0
VERTEX
  8
0
 62
7
  6
CONTINUOUS
 10
-140.724607958
 20
-31.5918441025
  0
SEQEND
  0
POLYLINE
  8
0
 62
7
  6
CONTINUOUS
 66
1
 70
0
  0
VERTEX
  8
0
 62
7
  6
CONTINUOUS
 10
-135.724607958
 20
369.4740194371
  0
VERTEX
  8
0
 62
7
  6
CONTINUOUS
 10
-135.7254708099
 20
369.5444944366
  0
VERTEX
  8
0
 62
7
  6
CONTINUOUS
 10
-135.7283001618
 20
369.6192505653
  0
VERTEX
  8
0
 62
7
  6
CONTINUOUS
 10
-135.7334091363
 20
369.6973473726
  0
VERTEX
  8
0
 62
7
  6
CONTINUOUS
 10
-135.7412912197
 20
369.7801733556
  0
VERTEX
  8
0
 62
7
  6
CONTINUOUS
 10
-135.7525753583
 20
369.8685664633
  0
VERTEX
  8
0
 62
7
  6
CONTINUOUS
 10
-135.7679104287
 20
369.9624957553
  0
VERTEX
  8
0
 62
7
  6
CONTINUOUS
 10
-135.7880389271
 20
370.0620293636
  0
VERTEX
  8
0
 62
7
  6
CONTINUOUS
 10
-135.8137967739
 20
370.1672201871
  0
VERTEX
  8
0
 62
7
  6
CONTINUOUS
 10
-135.84612586
 20
370.2781130103
  0
VERTEX
  8
0
 62
7
  6
CONTINUOUS
 10
-135.8859311156
 20
370.3943199633
  0
VERTEX
  8
0
 62
7
  6
CONTINUOUS
 10
-135.9342307906
 20
370.5156224872
  0
VERTEX
  8
0
 62
7
  6
CONTINUOUS
 10
-135.9918815595
 20
370.6413026921
  0
VERTEX
  8
0
 62
7
  6
CONTINUOUS
 10
-136.059838497
 20
370.7708975929
  0
VERTEX
  8
0
 62
7
  6
CONTINUOUS
 10
-136.1387737236
 20
370.903474845
  0
VERTEX
  8
0
 62
7
  6
CONTINUOUS
 10
-136.2293980787
 20
371.0383523253
  0
VERTEX
  8
0
 62
7
  6
CONTINUOUS
 10
-136.3321951992
 20
371.1746716634
  0
VERTEX
  8
0
 62
7
  6
CONTINUOUS
 10
-136.4475943631
 20
371.3117064443
  0
VERTEX
  8
0
 62
7
  6
CONTINUOUS
 10
-136.5759933695
 20
371.4488547954
  0
VERTEX
  8
0
 62
7
  6
CONTINUOUS
 10
-136.7176650635
 20
371.5855210385
  0
VERTEX
  8
0
 62
7
  6
CONTINUOUS
 10
-136.8730209522
 20
371.7213528089
  0
VERTEX
  8
0
 62
7
  6
CONTINUOUS
 10
-137.0423284692
 20
371.8559382261
  0
VERTEX
  8
0
 62
7
  6
CONTINUOUS
 10
-137.2260664011
 20
371.9890864373
  0
VERTEX
  8
0
 62
7
  6
CONTINUOUS
 10
-137.4245880375
 20
372.1205321669
  0
VERTEX
  8
0
 62
7
  6
CONTINUOUS
 10
-137.6384596559
 20
372.2501644495
  0
VERTEX
  8
0
 62
7
  6
CONTINUOUS
 10
-137.8681526149
 20
372.3778043901
  0
VERTEX
  8
0
 62
7
  6
CONTINUOUS
 10
-138.1143268357
 20
372.503368627
  0
VERTEX
  8
0
 62
7
  6
CONTINUOUS
 10
-138.3775741728
 20
372.6267161068
  0
VERTEX
  8
0
 62
7
  6
CONTINUOUS
 10
-138.6586494224
 20
372.7477617713
  0
VERTEX
  8
0
 62
7
  6
CONTINUOUS
 10
-138.9582572599
 20
372.8663709998
  0
VERTEX
  8
0
 62
7
  6
CONTINUOUS
 10
-139.2772491613
 20
372.9824421669
  0
VERTEX
  8
0
 62
7
  6
CONTINUOUS
 10
-139.6164355478
 20
373.0958291896
  0
VERTEX
  8
0
 62
7
  6
CONTINUOUS
 10
-139.9767685455
 20
373.2064065331
  0
VERTEX
  8
0
 62
7
  6
CONTINUOUS
 10
-140.3595024886
 20
373.3140989053
  0
VERTEX
  8
0
 62
7
  6
CONTINUOUS
 10
-140.724607958
 20
373.4081558975
  0
SEQEND
  0
POLYLINE
  8
0
 62
9
  6
CONTINUOUS
 66
1
 70
0
  0
VERTEX
  8
0
 62
9
  6
CONTINUOUS
 10
-136.724607958
 20
-35.5259805629
  0
VERTEX
  8
0
 62
9
  6
CONTINUOUS
 10
-136.7250523913
 20
-35.4809237613
  0
VERTEX
  8
0
 62
9
  6
CONTINUOUS
 10
-136.7268858406
 20
-35.4339789592
  0
VERTEX
  8
0
 62
9
  6
CONTINUOUS
 10
-136.7299653515
 20
-35.3853477694
  0
VERTEX
  8
0
 62
9
  6
CONTINUOUS
 10
-136.7347197878
 20
-35.3344253536
  0
VERTEX
  8
0
 62
9
  6
CONTINUOUS
 10
-136.7413887042
 20
-35.2806590942
  0
VERTEX
  8
0
 62
9
  6
CONTINUOUS
 10
-136.7503970737
 20
-35.2240939417
  0
VERTEX
  8
0
 62
9
  6
CONTINUOUS
 10
-136.7620607409
 20
-35.1646395854
  0
VERTEX
  8
0
 62
9
  6
CONTINUOUS
 10
-136.7769466459
 20
-35.1021491906
  0
VERTEX
  8
0
 62
9
  6
CONTINUOUS
 10
-136.7954884545
 20
-35.0364798046
  0
VERTEX
  8
0
 62
9
  6
CONTINUOUS
 10
-136.8184018336
 20
-34.9675294701
  0
VERTEX
  8
0
 62
9
  6
CONTINUOUS
 10
-136.8462590278
 20
-34.8951694952
  0
VERTEX
  8
0
 62
9
  6
CONTINUOUS
 10
-136.8799239705
 20
-34.819337131
  0
VERTEX
  8
0
 62
9
  6
CONTINUOUS
 10
-136.920138163
 20
-34.7399052065
  0
VERTEX
  8
0
 62
9
  6
CONTINUOUS
 10
-136.9678411459
 20
-34.6569382952
  0
VERTEX
  8
0
 62
9
  6
CONTINUOUS
 10
-137.0239157356
 20
-34.5703852694
  0
VERTEX
  8
0
 62
9
  6
CONTINUOUS
 10
-137.0892736068
 20
-34.4804660614
  0
VERTEX
  8
0
 62
9
  6
CONTINUOUS
 10
-137.1648489311
 20
-34.3872723195
  0
VERTEX
  8
0
 62
9
  6
CONTINUOUS
 10
-137.251457034
 20
-34.2911377687
  0
VERTEX
  8
0
 62
9
  6
CONTINUOUS
 10
-137.3499883801
 20
-34.1922989901
  0
VERTEX
  8
0
 62
9
  6
CONTINUOUS
 10
-137.4611517238
 20
-34.0911390642
  0
VERTEX
  8
0
 62
9
  6
CONTINUOUS
 10
-137.5857404593
 20
-33.9879934993
  0
VERTEX
  8
0
 62
9
  6
CONTINUOUS
 10
-137.7243911307
 20
-33.8832415941
  0
VERTEX
  8
0
 62
9
  6
CONTINUOUS
 10
-137.8778000707
 20
-33.7772584253
  0
VERTEX
  8
0
 62
9
  6
CONTINUOUS
 10
-138.0465813074
 20
-33.6703921674
  0
VERTEX
  8
0
 62
9
  6
CONTINUOUS
 10
-138.2313694644
 20
-33.5630119901
  0
VERTEX
  8
0
 62
9
  6
CONTINUOUS
 10
-138.4327990878
 20
-33.455429984
  0
VERTEX
  8
0
 62
9
  6
CONTINUOUS
 10
-138.6514879442
 20
-33.3479869825
  0
VERTEX
  8
0
 62
9
  6
CONTINUOUS
 10
-138.8881209952
 20
-33.2409659267
  0
VERTEX
  8
0
 62
9
  6
CONTINUOUS
 10
-139.1433375983
 20
-33.1346752313
  0
VERTEX
  8
0
 62
9
  6
CONTINUOUS
 10
-139.4178923335
 20
-33.0293793083
  0
VERTEX
  8
0
 62
9
  6
CONTINUOUS
 10
-139.7124734828
 20
-32.9253556835
  0
VERTEX
  8
0
 62
9
  6
CONTINUOUS
 10
-140.0279192975
 20
-32.8228734308
  0
VERTEX
  8
0
 62
9
  6
CONTINUOUS
 10
-140.3654309157
 20
-32.722339331
  0
VERTEX
  8
0
 62
9
  6
CONTINUOUS
 10
-140.724607958
 20
-32.6236177904
  0
SEQEND
  0
POLYLINE
  8
0
 62
9
  6
CONTINUOUS
 66
1
 70
0
  0
VERTEX
  8
0
 62
9
  6
CONTINUOUS
 10
-136.724607958
 20
369.4740194371
  0
VERTEX
  8
0
 62
9
  6
CONTINUOUS
 10
-136.7250523913
 20
369.5190762395
  0
VERTEX
  8
0
 62
9
  6
CONTINUOUS
 10
-136.7268858407
 20
369.5660210419
  0
VERTEX
  8
0
 62
9
  6
CONTINUOUS
 10
-136.7299653515
 20
369.6146522312
  0
VERTEX
  8
0
 62
9
  6
CONTINUOUS
 10
-136.7347197878
 20
369.6655746465
  0
VERTEX
  8
0
 62
9
  6
CONTINUOUS
 10
-136.7413887043
 20
369.7193409061
  0
VERTEX
  8
0
 62
9
  6
CONTINUOUS
 10
-136.7503970738
 20
369.775906059
  0
VERTEX
  8
0
 62
9
  6
CONTINUOUS
 10
-136.7620607411
 20
369.8353604152
  0
VERTEX
  8
0
 62
9
  6
CONTINUOUS
 10
-136.776946646
 20
369.8978508099
  0
VERTEX
  8
0
 62
9
  6
CONTINUOUS
 10
-136.7954884546
 20
369.9635201959
  0
VERTEX
  8
0
 62
9
  6
CONTINUOUS
 10
-136.8184018337
 20
370.0324705304
  0
VERTEX
  8
0
 62
9
  6
CONTINUOUS
 10
-136.8462590279
 20
370.1048305051
  0
VERTEX
  8
0
 62
9
  6
CONTINUOUS
 10
-136.8799239706
 20
370.1806628692
  0
VERTEX
  8
0
 62
9
  6
CONTINUOUS
 10
-136.920138163
 20
370.2600947935
  0
VERTEX
  8
0
 62
9
  6
CONTINUOUS
 10
-136.9678411459
 20
370.3430617047
  0
VERTEX
  8
0
 62
9
  6
CONTINUOUS
 10
-137.0239157355
 20
370.4296147306
  0
VERTEX
  8
0
 62
9
  6
CONTINUOUS
 10
-137.0892736067
 20
370.5195339385
  0
VERTEX
  8
0
 62
9
  6
CONTINUOUS
 10
-137.164848931
 20
370.6127276805
  0
VERTEX
  8
0
 62
9
  6
CONTINUOUS
 10
-137.2514570339
 20
370.7088622312
  0
VERTEX
  8
0
 62
9
  6
CONTINUOUS
 10
-137.3499883801
 20
370.8077010099
  0
VERTEX
  8
0
 62
9
  6
CONTINUOUS
 10
-137.4611517238
 20
370.9088609358
  0
VERTEX
  8
0
 62
9
  6
CONTINUOUS
 10
-137.5857404594
 20
371.0120065007
  0
VERTEX
  8
0
 62
9
  6
CONTINUOUS
 10
-137.7243911307
 20
371.1167584059
  0
VERTEX
  8
0
 62
9
  6
CONTINUOUS
 10
-137.8778000706
 20
371.2227415746
  0
VERTEX
  8
0
 62
9
  6
CONTINUOUS
 10
-138.0465813072
 20
371.3296078325
  0
VERTEX
  8
0
 62
9
  6
CONTINUOUS
 10
-138.2313694641
 20
371.4369880097
  0
VERTEX
  8
0
 62
9
  6
CONTINUOUS
 10
-138.4327990874
 20
371.5445700158
  0
VERTEX
  8
0
 62
9
  6
CONTINUOUS
 10
-138.6514879436
 20
371.6520130173
  0
VERTEX
  8
0
 62
9
  6
CONTINUOUS
 10
-138.8881209945
 20
371.759034073
  0
VERTEX
  8
0
 62
9
  6
CONTINUOUS
 10
-139.1433375975
 20
371.8653247685
  0
VERTEX
  8
0
 62
9
  6
CONTINUOUS
 10
-139.4178923327
 20
371.9706206915
  0
VERTEX
  8
0
 62
9
  6
CONTINUOUS
 10
-139.712473482
 20
372.0746443164
  0
VERTEX
  8
0
 62
9
  6
CONTINUOUS
 10
-140.0279192968
 20
372.1771265691
  0
VERTEX
  8
0
 62
9
  6
CONTINUOUS
 10
-140.3654309153
 20
372.2776606687
  0
VERTEX
  8
0
 62
9
  6
CONTINUOUS
 10
-140.724607958
 20
372.3763822088
  0
SEQEND
  0
LINE
  8
0
 62
7
  6
CONTINUOUS
 10
-140.724607958
 20
-168.0259805629
 11
-140.724607958
 21
-54.0259805629
  0
LINE
  8
0
 62
7
  6
CONTINUOUS
 10
-140.724607958
 20
-37.0259805629
 11
-140.724607958
 21
350.9740194371
  0
LINE
  8
0
 62
7
  6
CONTINUOUS
 10
-140.724607958
 20
367.9740194371
 11
-140.724607958
 21
396.9740194371
  0
LINE
  8
0
 62
7
  6
CONTINUOUS
 10
-139.474607958
 20
367.9740194371
 11
-139.474607958
 21
350.9740194371
  0
LINE
  8
0
 62
7
  6
CONTINUOUS
 10
-139.474607958
 20
-37.0259805629
 11
-139.474607958
 21
-54.0259805629
  0
LINE
  8
0
 62
9
  6
CONTINUOUS
 10
-136.724607958
 20
-55.5259805629
 11
-136.724607958
 21
-35.5259805629
  0
LINE
  8
0
 62
9
  6
CONTINUOUS
 10
-136.724607958
 20
349.4740194371
 11
-136.724607958
 21
369.4740194371
  0
LINE
  8
0
 62
7
  6
CONTINUOUS
 10
-135.724607958
 20
-55.5259805629
 11
-135.724607958
 21
-35.5259805629
  0
LINE
  8
0
 62
7
  6
CONTINUOUS
 10
-135.724607958
 20
349.4740194371
 11
-135.724607958
 21
369.4740194371
  0
LINE
  8
0
 62
7
  6
CONTINUOUS
 10
-165.724607958
 20
-168.0259805629
 11
-140.724607958
 21
-168.0259805629
  0
LINE
  8
0
 62
9
  6
CONTINUOUS
 10
-126.0952880255
 20
337.4740194371
 11
-126.0952880256
 21
336.4740194371
  0
LINE
  8
0
 62
9
  6
CONTINUOUS
 10
-126.0952880255
 20
-23.5259805629
 11
-126.0952880255
 21
-22.5259805631
  0
LINE
  8
0
 62
9
  6
CONTINUOUS
 10
-126.0952880255
 20
-67.5259805629
 11
-126.0952880256
 21
-68.5259805629
  0
LINE
  8
0
 62
9
  6
CONTINUOUS
 10
-126.0952880255
 20
381.4740194371
 11
-126.0952880255
 21
382.4740194369
  0
LINE
  8
0
 62
7
  6
CONTINUOUS
 10
-110.724607958
 20
-158.0259805629
 11
-110.724607958
 21
-133.0259805629
  0
LINE
  8
0
 62
7
  6
CONTINUOUS
 10
-108.224607958
 20
196.9740194371
 11
-108.224607958
 21
116.9740194371
  0
LINE
  8
0
 62
9
  6
CONTINUOUS
 10
-123.9804797646
 20
358.189769158
 11
-123.050230677
 21
358.5566978092
  0
LINE
  8
0
 62
9
  6
CONTINUOUS
 10
-119.5835444125
 20
347.0425199952
 11
-118.6532953249
 21
347.4094486464
  0
POLYLINE
  8
0
 62
9
  6
CONTINUOUS
 66
1
 70
0
  0
VERTEX
  8
0
 62
9
  6
CONTINUOUS
 10
534.275392042
 20
-58.4284488963
  0
VERTEX
  8
0
 62
9
  6
CONTINUOUS
 10
534.5774677614
 20
-58.3459906484
  0
VERTEX
  8
0
 62
9
  6
CONTINUOUS
 10
534.8638767546
 20
-58.2623447318
  0
VERTEX
  8
0
 62
9
  6
CONTINUOUS
 10
535.1343546936
 20
-58.1774341261
  0
VERTEX
  8
0
 62
9
  6
CONTINUOUS
 10
535.3896945624
 20
-58.0914898925
  0
VERTEX
  8
0
 62
9
  6
CONTINUOUS
 10
535.6304458427
 20
-58.0046629275
  0
VERTEX
  8
0
 62
9
  6
CONTINUOUS
 10
535.8570747137
 20
-57.9171167052
  0
VERTEX
  8
0
 62
9
  6
CONTINUOUS
 10
536.0700857477
 20
-57.8290090823
  0
VERTEX
  8
0
 62
9
  6
CONTINUOUS
 10
536.2699132476
 20
-57.7405078067
  0
VERTEX
  8
0
 62
9
  6
CONTINUOUS
 10
536.4570226478
 20
-57.6517744567
  0
VERTEX
  8
0
 62
9
  6
CONTINUOUS
 10
536.6318251258
 20
-57.5629853983
  0
VERTEX
  8
0
 62
9
  6
CONTINUOUS
 10
536.7947536624
 20
-57.4743092691
  0
VERTEX
  8
0
 62
9
  6
CONTINUOUS
 10
536.9462082832
 20
-57.3859308329
  0
VERTEX
  8
0
 62
9
  6
CONTINUOUS
 10
537.0865999372
 20
-57.2980272767
  0
VERTEX
  8
0
 62
9
  6
CONTINUOUS
 10
537.2163288355
 20
-57.2107899687
  0
VERTEX
  8
0
 62
9
  6
CONTINUOUS
 10
537.3357940602
 20
-57.1244056435
  0
VERTEX
  8
0
 62
9
  6
CONTINUOUS
 10
537.4454099465
 20
-57.0390653898
  0
VERTEX
  8
0
 62
9
  6
CONTINUOUS
 10
537.5455768574
 20
-56.9549632028
  0
VERTEX
  8
0
 62
9
  6
CONTINUOUS
 10
537.6367357917
 20
-56.8722770979
  0
VERTEX
  8
0
 62
9
  6
CONTINUOUS
 10
537.7193032481
 20
-56.7912007546
  0
VERTEX
  8
0
 62
9
  6
CONTINUOUS
 10
537.7937530908
 20
-56.7118811749
  0
VERTEX
  8
0
 62
9
  6
CONTINUOUS
 10
537.8605300207
 20
-56.6344991235
  0
VERTEX
  8
0
 62
9
  6
CONTINUOUS
 10
537.9201380274
 20
-56.5591469913
  0
VERTEX
  8
0
 62
9
  6
CONTINUOUS
 10
537.9730604484
 20
-56.4859661571
  0
VERTEX
  8
0
 62
9
  6
CONTINUOUS
 10
538.0198039404
 20
-56.4149904214
  0
VERTEX
  8
0
 62
9
  6
CONTINUOUS
 10
538.0608773943
 20
-56.3463045876
  0
VERTEX
  8
0
 62
9
  6
CONTINUOUS
 10
538.0967574457
 20
-56.2798970255
  0
VERTEX
  8
0
 62
9
  6
CONTINUOUS
 10
538.127950286
 20
-56.215793987
  0
VERTEX
  8
0
 62
9
  6
CONTINUOUS
 10
538.1548761395
 20
-56.15396663
  0
VERTEX
  8
0
 62
9
  6
CONTINUOUS
 10
538.1779988833
 20
-56.0944293122
  0
VERTEX
  8
0
 62
9
  6
CONTINUOUS
 10
538.1976937501
 20
-56.0370786872
  0
VERTEX
  8
0
 62
9
  6
CONTINUOUS
 10
538.2143999024
 20
-55.9818077136
  0
VERTEX
  8
0
 62
9
  6
CONTINUOUS
 10
538.2283894276
 20
-55.9286418345
  0
VERTEX
  8
0
 62
9
  6
CONTINUOUS
 10
538.2399840349
 20
-55.8777068837
  0
VERTEX
  8
0
 62
9
  6
CONTINUOUS
 10
538.249474022
 20
-55.8285946477
  0
VERTEX
  8
0
 62
9
  6
CONTINUOUS
 10
538.2571759383
 20
-55.7815190474
  0
VERTEX
  8
0
 62
9
  6
CONTINUOUS
 10
538.2633327385
 20
-55.7347395131
  0
VERTEX
  8
0
 62
9
  6
CONTINUOUS
 10
538.2683522641
 20
-55.6869767558
  0
VERTEX
  8
0
 62
9
  6
CONTINUOUS
 10
538.2720564047
 20
-55.6370608539
  0
VERTEX
  8
0
 62
9
  6
CONTINUOUS
 10
538.274397727
 20
-55.5831959124
  0
VERTEX
  8
0
 62
9
  6
CONTINUOUS
 10
538.275392042
 20
-55.5259805629
  0
SEQEND
  0
POLYLINE
  8
0
 62
7
  6
CONTINUOUS
 66
1
 70
0
  0
VERTEX
  8
0
 62
7
  6
CONTINUOUS
 10
534.275392042
 20
-59.4602089
  0
VERTEX
  8
0
 62
7
  6
CONTINUOUS
 10
534.5605116096
 20
-59.3874113102
  0
VERTEX
  8
0
 62
7
  6
CONTINUOUS
 10
534.8708574933
 20
-59.3023755831
  0
VERTEX
  8
0
 62
7
  6
CONTINUOUS
 10
535.1663852338
 20
-59.2155715716
  0
VERTEX
  8
0
 62
7
  6
CONTINUOUS
 10
535.4478038031
 20
-59.1270460623
  0
VERTEX
  8
0
 62
7
  6
CONTINUOUS
 10
535.7156505059
 20
-59.036877974
  0
VERTEX
  8
0
 62
7
  6
CONTINUOUS
 10
535.9704020379
 20
-58.9451533325
  0
VERTEX
  8
0
 62
7
  6
CONTINUOUS
 10
536.2125510388
 20
-58.8519399961
  0
VERTEX
  8
0
 62
7
  6
CONTINUOUS
 10
536.4425309617
 20
-58.7573153663
  0
VERTEX
  8
0
 62
7
  6
CONTINUOUS
 10
536.6607919163
 20
-58.6613377752
  0
VERTEX
  8
0
 62
7
  6
CONTINUOUS
 10
536.8677235098
 20
-58.5640792257
  0
VERTEX
  8
0
 62
7
  6
CONTINUOUS
 10
537.0637337749
 20
-58.4655915496
  0
VERTEX
  8
0
 62
7
  6
CONTINUOUS
 10
537.2491692908
 20
-58.3659453386
  0
VERTEX
  8
0
 62
7
  6
CONTINUOUS
 10
537.4243984046
 20
-58.2651892737
  0
VERTEX
  8
0
 62
7
  6
CONTINUOUS
 10
537.589722825
 20
-58.1633998974
  0
VERTEX
  8
0
 62
7
  6
CONTINUOUS
 10
537.7454721902
 20
-58.0606290558
  0
VERTEX
  8
0
 62
7
  6
CONTINUOUS
 10
537.8919019604
 20
-57.9569704205
  0
VERTEX
  8
0
 62
7
  6
CONTINUOUS
 10
538.029303634
 20
-57.8524898665
  0
VERTEX
  8
0
 62
7
  6
CONTINUOUS
 10
538.1578889996
 20
-57.7473128942
  0
VERTEX
  8
0
 62
7
  6
CONTINUOUS
 10
538.2779145232
 20
-57.6415350782
  0
VERTEX
  8
0
 62
7
  6
CONTINUOUS
 10
538.3895570171
 20
-57.5353314155
  0
VERTEX
  8
0
 62
7
  6
CONTINUOUS
 10
538.4930429197
 20
-57.4288505181
  0
VERTEX
  8
0
 62
7
  6
CONTINUOUS
 10
538.5885391877
 20
-57.3223264855
  0
VERTEX
  8
0
 62
7
  6
CONTINUOUS
 10
538.6762585652
 20
-57.215981087
  0
VERTEX
  8
0
 62
7
  6
CONTINUOUS
 10
538.7563933655
 20
-57.110103162
  0
VERTEX
  8
0
 62
7
  6
CONTINUOUS
 10
538.8291694708
 20
-57.0049931095
  0
VERTEX
  8
0
 62
7
  6
CONTINUOUS
 10
538.8948365051
 20
-56.9009756081
  0
VERTEX
  8
0
 62
7
  6
CONTINUOUS
 10
538.95366069
 20
-56.7984151391
  0
VERTEX
  8
0
 62
7
  6
CONTINUOUS
 10
539.0059664933
 20
-56.6976410724
  0
VERTEX
  8
0
 62
7
  6
CONTINUOUS
 10
539.0520724399
 20
-56.5990579551
  0
VERTEX
  8
0
 62
7
  6
CONTINUOUS
 10
539.0923886691
 20
-56.5029308245
  0
VERTEX
  8
0
 62
7
  6
CONTINUOUS
 10
539.1272917004
 20
-56.4096341192
  0
VERTEX
  8
0
 62
7
  6
CONTINUOUS
 10
539.1572544735
 20
-56.3192977385
  0
VERTEX
  8
0
 62
7
  6
CONTINUOUS
 10
539.1827134685
 20
-56.2321022643
  0
VERTEX
  8
0
 62
7
  6
CONTINUOUS
 10
539.2040951847
 20
-56.1482106888
  0
VERTEX
  8
0
 62
7
  6
CONTINUOUS
 10
539.2217616979
 20
-56.0680200989
  0
VERTEX
  8
0
 62
7
  6
CONTINUOUS
 10
539.2362603199
 20
-55.9909263537
  0
VERTEX
  8
0
 62
7
  6
CONTINUOUS
 10
539.2479205957
 20
-55.917085189
  0
VERTEX
  8
0
 62
7
  6
CONTINUOUS
 10
539.2573449329
 20
-55.8442010932
  0
VERTEX
  8
0
 62
7
  6
CONTINUOUS
 10
539.2648578745
 20
-55.7700458512
  0
VERTEX
  8
0
 62
7
  6
CONTINUOUS
 10
539.2704729085
 20
-55.6934236573
  0
VERTEX
  8
0
 62
7
  6
CONTINUOUS
 10
539.2741065609
 20
-55.6119332978
  0
VERTEX
  8
0
 62
7
  6
CONTINUOUS
 10
539.275392042
 20
-55.5259805629
  0
SEQEND
  0
LINE
  8
0
 62
7
  6
CONTINUOUS
 10
459.275392042
 20
-158.0259805629
 11
-110.724607958
 21
-158.0259805629
  0
LINE
  8
0
 62
7
  6
CONTINUOUS
 10
459.275392042
 20
-133.0259805629
 11
-110.724607958
 21
-133.0259805629
  0
LINE
  8
0
 62
9
  6
CONTINUOUS
 10
-123.9804797646
 20
-44.2417302838
 11
-123.050230677
 21
-44.608658935
  0
LINE
  8
0
 62
9
  6
CONTINUOUS
 10
-119.5835444125
 20
-33.0944811211
 11
-118.6532953249
 21
-33.4614097723
  0
LINE
  8
0
 62
9
  6
CONTINUOUS
 10
-90.724607958
 20
471.9740194371
 11
-90.724607958
 21
446.9740194371
  0
LINE
  8
0
 62
7
  6
CONTINUOUS
 10
-83.224607958
 20
196.9740194371
 11
-83.224607958
 21
116.9740194371
  0
POLYLINE
  8
0
 62
9
  6
CONTINUOUS
 66
1
 70
0
  0
VERTEX
  8
0
 62
9
  6
CONTINUOUS
 10
509.275392042
 20
-32.623512235
  0
VERTEX
  8
0
 62
9
  6
CONTINUOUS
 10
508.9733163528
 20
-32.7059704707
  0
VERTEX
  8
0
 62
9
  6
CONTINUOUS
 10
508.686907387
 20
-32.7896163762
  0
VERTEX
  8
0
 62
9
  6
CONTINUOUS
 10
508.4164294724
 20
-32.8745269724
  0
VERTEX
  8
0
 62
9
  6
CONTINUOUS
 10
508.1610896253
 20
-32.9604711969
  0
VERTEX
  8
0
 62
9
  6
CONTINUOUS
 10
507.9203383639
 20
-33.0472981522
  0
VERTEX
  8
0
 62
9
  6
CONTINUOUS
 10
507.6937095093
 20
-33.1348443647
  0
VERTEX
  8
0
 62
9
  6
CONTINUOUS
 10
507.4806984892
 20
-33.2229519777
  0
VERTEX
  8
0
 62
9
  6
CONTINUOUS
 10
507.280871001
 20
-33.3114532434
  0
VERTEX
  8
0
 62
9
  6
CONTINUOUS
 10
507.0937616103
 20
-33.4001865834
  0
VERTEX
  8
0
 62
9
  6
CONTINUOUS
 10
506.9189591395
 20
-33.4889756319
  0
VERTEX
  8
0
 62
9
  6
CONTINUOUS
 10
506.7560306082
 20
-33.5776517513
  0
VERTEX
  8
0
 62
9
  6
CONTINUOUS
 10
506.6045759906
 20
-33.6660301779
  0
VERTEX
  8
0
 62
9
  6
CONTINUOUS
 10
506.464184338
 20
-33.7539337249
  0
VERTEX
  8
0
 62
9
  6
CONTINUOUS
 10
506.3344554394
 20
-33.8411710238
  0
VERTEX
  8
0
 62
9
  6
CONTINUOUS
 10
506.2149902126
 20
-33.9275553405
  0
VERTEX
  8
0
 62
9
  6
CONTINUOUS
 10
506.1053743227
 20
-34.0128955862
  0
VERTEX
  8
0
 62
9
  6
CONTINUOUS
 10
506.0052074068
 20
-34.0969977657
  0
VERTEX
  8
0
 62
9
  6
CONTINUOUS
 10
505.9140484661
 20
-34.1796838638
  0
VERTEX
  8
0
 62
9
  6
CONTINUOUS
 10
505.8314810023
 20
-34.2607602011
  0
VERTEX
  8
0
 62
9
  6
CONTINUOUS
 10
505.757031151
 20
-34.3400797756
  0
VERTEX
  8
0
 62
9
  6
CONTINUOUS
 10
505.6902542117
 20
-34.4174618227
  0
VERTEX
  8
0
 62
9
  6
CONTINUOUS
 10
505.6306461951
 20
-34.4928139514
  0
VERTEX
  8
0
 62
9
  6
CONTINUOUS
 10
505.5777237638
 20
-34.5659947829
  0
VERTEX
  8
0
 62
9
  6
CONTINUOUS
 10
505.5309802613
 20
-34.6369705167
  0
VERTEX
  8
0
 62
9
  6
CONTINUOUS
 10
505.4899067971
 20
-34.7056563493
  0
VERTEX
  8
0
 62
9
  6
CONTINUOUS
 10
505.4540267355
 20
-34.7720639106
  0
VERTEX
  8
0
 62
9
  6
CONTINUOUS
 10
505.4228338856
 20
-34.8361669485
  0
VERTEX
  8
0
 62
9
  6
CONTINUOUS
 10
505.3959080228
 20
-34.8979943054
  0
VERTEX
  8
0
 62
9
  6
CONTINUOUS
 10
505.3727852698
 20
-34.9575316243
  0
VERTEX
  8
0
 62
9
  6
CONTINUOUS
 10
505.3530903944
 20
-35.0148822506
  0
VERTEX
  8
0
 62
9
  6
CONTINUOUS
 10
505.3363842345
 20
-35.0701532245
  0
VERTEX
  8
0
 62
9
  6
CONTINUOUS
 10
505.3223947022
 20
-35.123319104
  0
VERTEX
  8
0
 62
9
  6
CONTINUOUS
 10
505.3108000883
 20
-35.1742540543
  0
VERTEX
  8
0
 62
9
  6
CONTINUOUS
 10
505.3013100946
 20
-35.223366294
  0
VERTEX
  8
0
 62
9
  6
CONTINUOUS
 10
505.2936081709
 20
-35.2704419068
  0
VERTEX
  8
0
 62
9
  6
CONTINUOUS
 10
505.2874513633
 20
-35.3172214619
  0
VERTEX
  8
0
 62
9
  6
CONTINUOUS
 10
505.2824318307
 20
-35.3649842503
  0
VERTEX
  8
0
 62
9
  6
CONTINUOUS
 10
505.2787276842
 20
-35.4149001895
  0
VERTEX
  8
0
 62
9
  6
CONTINUOUS
 10
505.2763863585
 20
-35.4687651705
  0
VERTEX
  8
0
 62
9
  6
CONTINUOUS
 10
505.275392042
 20
-35.5259805629
  0
SEQEND
  0
POLYLINE
  8
0
 62
7
  6
CONTINUOUS
 66
1
 70
0
  0
VERTEX
  8
0
 62
7
  6
CONTINUOUS
 10
509.275392042
 20
-31.5917522258
  0
VERTEX
  8
0
 62
7
  6
CONTINUOUS
 10
508.9902725107
 20
-31.664549806
  0
VERTEX
  8
0
 62
7
  6
CONTINUOUS
 10
508.6799266599
 20
-31.749585523
  0
VERTEX
  8
0
 62
7
  6
CONTINUOUS
 10
508.384398949
 20
-31.8363895242
  0
VERTEX
  8
0
 62
7
  6
CONTINUOUS
 10
508.102980406
 20
-31.9249150228
  0
VERTEX
  8
0
 62
7
  6
CONTINUOUS
 10
507.8351337268
 20
-32.0150831
  0
VERTEX
  8
0
 62
7
  6
CONTINUOUS
 10
507.5803822156
 20
-32.1068077302
  0
VERTEX
  8
0
 62
7
  6
CONTINUOUS
 10
507.338233233
 20
-32.200021055
  0
VERTEX
  8
0
 62
7
  6
CONTINUOUS
 10
507.1082533259
 20
-32.2946456729
  0
VERTEX
  8
0
 62
7
  6
CONTINUOUS
 10
506.8899923848
 20
-32.3906232519
  0
VERTEX
  8
0
 62
7
  6
CONTINUOUS
 10
506.6830608028
 20
-32.487881789
  0
VERTEX
  8
0
 62
7
  6
CONTINUOUS
 10
506.487050547
 20
-32.5863694525
  0
VERTEX
  8
0
 62
7
  6
CONTINUOUS
 10
506.3016150386
 20
-32.6860156508
  0
VERTEX
  8
0
 62
7
  6
CONTINUOUS
 10
506.1263859304
 20
-32.7867717028
  0
VERTEX
  8
0
 62
7
  6
CONTINUOUS
 10
505.9610615139
 20
-32.8885610659
  0
VERTEX
  8
0
 62
7
  6
CONTINUOUS
 10
505.8053121509
 20
-32.9913318943
  0
VERTEX
  8
0
 62
7
  6
CONTINUOUS
 10
505.6588823811
 20
-33.0949905163
  0
VERTEX
  8
0
 62
7
  6
CONTINUOUS
 10
505.5214807065
 20
-33.199471057
  0
VERTEX
  8
0
 62
7
  6
CONTINUOUS
 10
505.3928953381
 20
-33.3046480162
  0
VERTEX
  8
0
 62
7
  6
CONTINUOUS
 10
505.2728698102
 20
-33.4104258193
  0
VERTEX
  8
0
 62
7
  6
CONTINUOUS
 10
505.1612273105
 20
-33.5166294694
  0
VERTEX
  8
0
 62
7
  6
CONTINUOUS
 10
505.0577414006
 20
-33.6231103544
  0
VERTEX
  8
0
 62
7
  6
CONTINUOUS
 10
504.962245124
 20
-33.7296343755
  0
VERTEX
  8
0
 62
7
  6
CONTINUOUS
 10
504.8745257364
 20
-33.8359797633
  0
VERTEX
  8
0
 62
7
  6
CONTINUOUS
 10
504.7943909249
 20
-33.9418576786
  0
VERTEX
  8
0
 62
7
  6
CONTINUOUS
 10
504.7216148075
 20
-34.0469677225
  0
VERTEX
  8
0
 62
7
  6
CONTINUOUS
 10
504.6559477601
 20
-34.1509852166
  0
VERTEX
  8
0
 62
7
  6
CONTINUOUS
 10
504.5971235613
 20
-34.25354568
  0
VERTEX
  8
0
 62
7
  6
CONTINUOUS
 10
504.5448177439
 20
-34.3543197424
  0
VERTEX
  8
0
 62
7
  6
CONTINUOUS
 10
504.4987117835
 20
-34.4529028558
  0
VERTEX
  8
0
 62
7
  6
CONTINUOUS
 10
504.4583955404
 20
-34.5490299842
  0
VERTEX
  8
0
 62
7
  6
CONTINUOUS
 10
504.4234924945
 20
-34.6423266916
  0
VERTEX
  8
0
 62
7
  6
CONTINUOUS
 10
504.3935297075
 20
-34.7326630754
  0
VERTEX
  8
0
 62
7
  6
CONTINUOUS
 10
504.3680707004
 20
-34.8198585499
  0
VERTEX
  8
0
 62
7
  6
CONTINUOUS
 10
504.346688973
 20
-34.9037501258
  0
VERTEX
  8
0
 62
7
  6
CONTINUOUS
 10
504.3290224495
 20
-34.9839407152
  0
VERTEX
  8
0
 62
7
  6
CONTINUOUS
 10
504.3145238166
 20
-35.0610344675
  0
VERTEX
  8
0
 62
7
  6
CONTINUOUS
 10
504.3028635283
 20
-35.1348756579
  0
VERTEX
  8
0
 62
7
  6
CONTINUOUS
 10
504.2934391787
 20
-35.2077597929
  0
VERTEX
  8
0
 62
7
  6
CONTINUOUS
 10
504.2859262257
 20
-35.2819150875
  0
VERTEX
  8
0
 62
7
  6
CONTINUOUS
 10
504.2803111829
 20
-35.3585373422
  0
VERTEX
  8
0
 62
7
  6
CONTINUOUS
 10
504.2766775249
 20
-35.440027763
  0
VERTEX
  8
0
 62
7
  6
CONTINUOUS
 10
504.275392042
 20
-35.5259805629
  0
SEQEND
  0
LINE
  8
0
 62
9
  6
CONTINUOUS
 10
534.275392042
 20
-83.0259805629
 11
509.275392042
 21
-83.0259805629
  0
LINE
  8
0
 62
9
  6
CONTINUOUS
 10
-33.224607958
 20
66.9740194371
 11
-33.224607958
 21
41.9740194371
  0
LINE
  8
0
 62
9
  6
CONTINUOUS
 10
-33.224607958
 20
246.9740194371
 11
-33.224607958
 21
271.9740194371
  0
LINE
  8
0
 62
9
  6
CONTINUOUS
 10
-123.9804797646
 20
-44.2417302838
 11
-119.5835444125
 21
-33.0944811211
  0
LINE
  8
0
 62
7
  6
CONTINUOUS
 10
-123.050230677
 20
-44.608658935
 11
-118.6532953249
 21
-33.4614097723
  0
LINE
  8
0
 62
9
  6
CONTINUOUS
 10
505.275392042
 20
-55.5259805629
 11
504.275392042
 21
-55.5259805629
  0
LINE
  8
0
 62
9
  6
CONTINUOUS
 10
-136.724607958
 20
-55.5259805629
 11
-135.724607958
 21
-55.5259805629
  0
LINE
  8
0
 62
9
  6
CONTINUOUS
 10
-169.724607958
 20
-55.5259805629
 11
-170.724607958
 21
-55.5259805629
  0
LINE
  8
0
 62
9
  6
CONTINUOUS
 10
538.275392042
 20
-55.5259805629
 11
539.275392042
 21
-55.5259805629
  0
LINE
  8
0
 62
7
  6
CONTINUOUS
 10
-139.474607958
 20
-54.0259805629
 11
-166.974607958
 21
-54.0259805629
  0
LINE
  8
0
 62
7
  6
CONTINUOUS
 10
508.025392042
 20
-54.0259805629
 11
535.525392042
 21
-54.0259805629
  0
LINE
  8
0
 62
7
  6
CONTINUOUS
 10
-139.474607958
 20
-37.0259805629
 11
-166.974607958
 21
-37.0259805629
  0
LINE
  8
0
 62
7
  6
CONTINUOUS
 10
508.025392042
 20
-37.0259805629
 11
535.525392042
 21
-37.0259805629
  0
LINE
  8
0
 62
9
  6
CONTINUOUS
 10
505.275392042
 20
-35.5259805629
 11
504.275392042
 21
-35.5259805629
  0
LINE
  8
0
 62
9
  6
CONTINUOUS
 10
-136.724607958
 20
-35.5259805629
 11
-135.724607958
 21
-35.5259805629
  0
LINE
  8
0
 62
9
  6
CONTINUOUS
 10
-169.724607958
 20
-35.5259805629
 11
-170.724607958
 21
-35.5259805629
  0
LINE
  8
0
 62
9
  6
CONTINUOUS
 10
538.275392042
 20
-35.5259805629
 11
539.275392042
 21
-35.5259805629
  0
LINE
  8
0
 62
9
  6
CONTINUOUS
 10
-119.5835444125
 20
347.0425199952
 11
-123.9804797646
 21
358.189769158
  0
LINE
  8
0
 62
7
  6
CONTINUOUS
 10
-118.6532953249
 20
347.4094486464
 11
-123.050230677
 21
358.5566978092
  0
LINE
  8
0
 62
9
  6
CONTINUOUS
 10
534.275392042
 20
-8.0259805629
 11
509.275392042
 21
-8.0259805629
  0
POLYLINE
  8
0
 62
7
  6
CONTINUOUS
 66
1
 70
0
  0
VERTEX
  8
0
 62
7
  6
CONTINUOUS
 10
-140.724607958
 20
-59.4602088476
  0
VERTEX
  8
0
 62
7
  6
CONTINUOUS
 10
-140.4394423888
 20
-59.3873991397
  0
VERTEX
  8
0
 62
7
  6
CONTINUOUS
 10
-140.1290558398
 20
-59.3023509898
  0
VERTEX
  8
0
 62
7
  6
CONTINUOUS
 10
-139.8334927821
 20
-59.2155344834
  0
VERTEX
  8
0
 62
7
  6
CONTINUOUS
 10
-139.5520436663
 20
-59.1269964155
  0
VERTEX
  8
0
 62
7
  6
CONTINUOUS
 10
-139.2841707561
 20
-59.0368157339
  0
VERTEX
  8
0
 62
7
  6
CONTINUOUS
 10
-139.0293970046
 20
-58.9450785047
  0
VERTEX
  8
0
 62
7
  6
CONTINUOUS
 10
-138.7872294015
 20
-58.851852603
  0
VERTEX
  8
0
 62
7
  6
CONTINUOUS
 10
-138.5572341912
 20
-58.7572154581
  0
VERTEX
  8
0
 62
7
  6
CONTINUOUS
 10
-138.3389609412
 20
-58.6612254054
  0
VERTEX
  8
0
 62
7
  6
CONTINUOUS
 10
-138.1320198022
 20
-58.5639544716
  0
VERTEX
  8
0
 62
7
  6
CONTINUOUS
 10
-137.9360024709
 20
-58.465454485
  0
VERTEX
  8
0
 62
7
  6
CONTINUOUS
 10
-137.7505621866
 20
-58.365796066
  0
VERTEX
  8
0
 62
7
  6
CONTINUOUS
 10
-137.5753303975
 20
-58.2650279016
  0
VERTEX
  8
0
 62
7
  6
CONTINUOUS
 10
-137.4100052356
 20
-58.1632265588
  0
VERTEX
  8
0
 62
7
  6
CONTINUOUS
 10
-137.2542568877
 20
-58.0604438872
  0
VERTEX
  8
0
 62
7
  6
CONTINUOUS
 10
-137.1078297708
 20
-57.9567735934
  0
VERTEX
  8
0
 62
7
  6
CONTINUOUS
 10
-136.9704322298
 20
-57.8522815543
  0
VERTEX
  8
0
 62
7
  6
CONTINUOUS
 10
-136.8418524208
 20
-57.7470933548
  0
VERTEX
  8
0
 62
7
  6
CONTINUOUS
 10
-136.7218337766
 20
-57.6413046212
  0
VERTEX
  8
0
 62
7
  6
CONTINUOUS
 10
-136.6101994414
 20
-57.5350904757
  0
VERTEX
  8
0
 62
7
  6
CONTINUOUS
 10
-136.5067229029
 20
-57.4285996439
  0
VERTEX
  8
0
 62
7
  6
CONTINUOUS
 10
-136.4112371299
 20
-57.3220663753
  0
VERTEX
  8
0
 62
7
  6
CONTINUOUS
 10
-136.3235292924
 20
-57.2157126037
  0
VERTEX
  8
0
 62
7
  6
CONTINUOUS
 10
-136.2434069506
 20
-57.1098273253
  0
VERTEX
  8
0
 62
7
  6
CONTINUOUS
 10
-136.1706440984
 20
-57.0047111291
  0
VERTEX
  8
0
 62
7
  6
CONTINUOUS
 10
-136.1049909359
 20
-56.9006888398
  0
VERTEX
  8
0
 62
7
  6
CONTINUOUS
 10
-136.0461810955
 20
-56.7981251614
  0
VERTEX
  8
0
 62
7
  6
CONTINUOUS
 10
-135.9938898453
 20
-56.6973494756
  0
VERTEX
  8
0
 62
7
  6
CONTINUOUS
 10
-135.9477984272
 20
-56.598766373
  0
VERTEX
  8
0
 62
7
  6
CONTINUOUS
 10
-135.9074965215
 20
-56.502640962
  0
VERTEX
  8
0
 62
7
  6
CONTINUOUS
 10
-135.8726074453
 20
-56.4093478043
  0
VERTEX
  8
0
 62
7
  6
CONTINUOUS
 10
-135.8426580411
 20
-56.3190166199
  0
VERTEX
  8
0
 62
7
  6
CONTINUOUS
 10
-135.8172117169
 20
-56.2318280399
  0
VERTEX
  8
0
 62
7
  6
CONTINUOUS
 10
-135.7958416861
 20
-56.1479443006
  0
VERTEX
  8
0
 62
7
  6
CONTINUOUS
 10
-135.7781852832
 20
-56.067759785
  0
VERTEX
  8
0
 62
7
  6
CONTINUOUS
 10
-135.763696459
 20
-55.9906757778
  0
VERTEX
  8
0
 62
7
  6
CONTINUOUS
 10
-135.7520461711
 20
-55.9168533651
  0
VERTEX
  8
0
 62
7
  6
CONTINUOUS
 10
-135.7426315099
 20
-55.8439967488
  0
VERTEX
  8
0
 62
7
  6
CONTINUOUS
 10
-135.7351276551
 20
-55.7698802585
  0
VERTEX
  8
0
 62
7
  6
CONTINUOUS
 10
-135.7295201088
 20
-55.6933057852
  0
VERTEX
  8
0
 62
7
  6
CONTINUOUS
 10
-135.7258915396
 20
-55.611870044
  0
VERTEX
  8
0
 62
7
  6
CONTINUOUS
 10
-135.724607958
 20
-55.5259805629
  0
SEQEND
  0
LINE
  8
0
 62
9
  6
CONTINUOUS
 10
488.1343284964
 20
371.9055188789
 11
487.2040794088
 21
371.5385902277
  0
POLYLINE
  8
0
 62
9
  6
CONTINUOUS
 66
1
 70
0
  0
VERTEX
  8
0
 62
9
  6
CONTINUOUS
 10
-140.724607958
 20
-58.4284491608
  0
VERTEX
  8
0
 62
9
  6
CONTINUOUS
 10
-140.4224901306
 20
-58.3459787479
  0
VERTEX
  8
0
 62
9
  6
CONTINUOUS
 10
-140.1360443518
 20
-58.2623208018
  0
VERTEX
  8
0
 62
9
  6
CONTINUOUS
 10
-139.8655351639
 20
-58.1773982881
  0
VERTEX
  8
0
 62
9
  6
CONTINUOUS
 10
-139.6101689402
 20
-58.0914423094
  0
VERTEX
  8
0
 62
9
  6
CONTINUOUS
 10
-139.3693957425
 20
-58.0046037767
  0
VERTEX
  8
0
 62
9
  6
CONTINUOUS
 10
-139.1427490491
 20
-57.9170462297
  0
VERTEX
  8
0
 62
9
  6
CONTINUOUS
 10
-138.9297238915
 20
-57.8289275816
  0
VERTEX
  8
0
 62
9
  6
CONTINUOUS
 10
-138.7298856713
 20
-57.7404156235
  0
VERTEX
  8
0
 62
9
  6
CONTINUOUS
 10
-138.5427686069
 20
-57.6516719792
  0
VERTEX
  8
0
 62
9
  6
CONTINUOUS
 10
-138.3679612784
 20
-57.5628730635
  0
VERTEX
  8
0
 62
9
  6
CONTINUOUS
 10
-138.2050304206
 20
-57.4741875624
  0
VERTEX
  8
0
 62
9
  6
CONTINUOUS
 10
-138.0535757874
 20
-57.3858002864
  0
VERTEX
  8
0
 62
9
  6
CONTINUOUS
 10
-137.9131861888
 20
-57.2978884752
  0
VERTEX
  8
0
 62
9
  6
CONTINUOUS
 10
-137.7834611922
 20
-57.2106435277
  0
VERTEX
  8
0
 62
9
  6
CONTINUOUS
 10
-137.6640014784
 20
-57.1242522156
  0
VERTEX
  8
0
 62
9
  6
CONTINUOUS
 10
-137.5543925173
 20
-57.0389056597
  0
VERTEX
  8
0
 62
9
  6
CONTINUOUS
 10
-137.4542337299
 20
-56.9547978873
  0
VERTEX
  8
0
 62
9
  6
CONTINUOUS
 10
-137.3630839428
 20
-56.8721069508
  0
VERTEX
  8
0
 62
9
  6
CONTINUOUS
 10
-137.2805264769
 20
-56.7910265802
  0
VERTEX
  8
0
 62
9
  6
CONTINUOUS
 10
-137.2060872689
 20
-56.7117037702
  0
VERTEX
  8
0
 62
9
  6
CONTINUOUS
 10
-137.1393214207
 20
-56.63431931
  0
VERTEX
  8
0
 62
9
  6
CONTINUOUS
 10
-137.0797247573
 20
-56.5589655464
  0
VERTEX
  8
0
 62
9
  6
CONTINUOUS
 10
-137.0268137352
 20
-56.4857838386
  0
VERTEX
  8
0
 62
9
  6
CONTINUOUS
 10
-136.9800815619
 20
-56.4148079384
  0
VERTEX
  8
0
 62
9
  6
CONTINUOUS
 10
-136.9390191714
 20
-56.3461226099
  0
VERTEX
  8
0
 62
9
  6
CONTINUOUS
 10
-136.9031498403
 20
-56.279716175
  0
VERTEX
  8
0
 62
9
  6
CONTINUOUS
 10
-136.8719672458
 20
-56.2156148382
  0
VERTEX
  8
0
 62
9
  6
CONTINUOUS
 10
-136.8450511198
 20
-56.1537897161
  0
VERTEX
  8
0
 62
9
  6
CONTINUOUS
 10
-136.8219374796
 20
-56.094255047
  0
VERTEX
  8
0
 62
9
  6
CONTINUOUS
 10
-136.8022511454
 20
-56.0369076707
  0
VERTEX
  8
0
 62
9
  6
CONTINUOUS
 10
-136.7855530366
 20
-55.9816409798
  0
VERTEX
  8
0
 62
9
  6
CONTINUOUS
 10
-136.7715708736
 20
-55.9284795539
  0
VERTEX
  8
0
 62
9
  6
CONTINUOUS
 10
-136.7599825615
 20
-55.8775471861
  0
VERTEX
  8
0
 62
9
  6
CONTINUOUS
 10
-136.750498466
 20
-55.8284396275
  0
VERTEX
  8
0
 62
9
  6
CONTINUOUS
 10
-136.7428027334
 20
-55.7813739249
  0
VERTEX
  8
0
 62
9
  6
CONTINUOUS
 10
-136.7366519271
 20
-55.7346099837
  0
VERTEX
  8
0
 62
9
  6
CONTINUOUS
 10
-136.7316382053
 20
-55.6868704379
  0
VERTEX
  8
0
 62
9
  6
CONTINUOUS
 10
-136.7279389294
 20
-55.6369841493
  0
VERTEX
  8
0
 62
9
  6
CONTINUOUS
 10
-136.7256006904
 20
-55.5831545751
  0
VERTEX
  8
0
 62
9
  6
CONTINUOUS
 10
-136.724607958
 20
-55.5259805629
  0
SEQEND
  0
LINE
  8
0
 62
7
  6
CONTINUOUS
 10
-33.224607958
 20
41.9740194371
 11
459.275392042
 21
41.9740194371
  0
LINE
  8
0
 62
9
  6
CONTINUOUS
 10
492.5312638485
 20
360.7582697162
 11
491.6010147609
 21
360.391341065
  0
POLYLINE
  8
0
 62
9
  6
CONTINUOUS
 66
1
 70
0
  0
VERTEX
  8
0
 62
9
  6
CONTINUOUS
 10
-165.724607958
 20
-32.6235119659
  0
VERTEX
  8
0
 62
9
  6
CONTINUOUS
 10
-166.0267257807
 20
-32.7059823768
  0
VERTEX
  8
0
 62
9
  6
CONTINUOUS
 10
-166.3131715551
 20
-32.7896403213
  0
VERTEX
  8
0
 62
9
  6
CONTINUOUS
 10
-166.5836807392
 20
-32.8745628334
  0
VERTEX
  8
0
 62
9
  6
CONTINUOUS
 10
-166.8390469594
 20
-32.9605188107
  0
VERTEX
  8
0
 62
9
  6
CONTINUOUS
 10
-167.0798201541
 20
-33.0473573419
  0
VERTEX
  8
0
 62
9
  6
CONTINUOUS
 10
-167.306466845
 20
-33.1349148873
  0
VERTEX
  8
0
 62
9
  6
CONTINUOUS
 10
-167.5194920003
 20
-33.2230335338
  0
VERTEX
  8
0
 62
9
  6
CONTINUOUS
 10
-167.7193302187
 20
-33.3115454903
  0
VERTEX
  8
0
 62
9
  6
CONTINUOUS
 10
-167.9064472816
 20
-33.4002891331
  0
VERTEX
  8
0
 62
9
  6
CONTINUOUS
 10
-168.0812546089
 20
-33.4890880472
  0
VERTEX
  8
0
 62
9
  6
CONTINUOUS
 10
-168.244185466
 20
-33.5777735468
  0
VERTEX
  8
0
 62
9
  6
CONTINUOUS
 10
-168.3956400986
 20
-33.6661608212
  0
VERTEX
  8
0
 62
9
  6
CONTINUOUS
 10
-168.536029697
 20
-33.7540726309
  0
VERTEX
  8
0
 62
9
  6
CONTINUOUS
 10
-168.6657546937
 20
-33.8413175771
  0
VERTEX
  8
0
 62
9
  6
CONTINUOUS
 10
-168.7852144077
 20
-33.9277088878
  0
VERTEX
  8
0
 62
9
  6
CONTINUOUS
 10
-168.8948233695
 20
-34.0130554424
  0
VERTEX
  8
0
 62
9
  6
CONTINUOUS
 10
-168.9949821576
 20
-34.0971632136
  0
VERTEX
  8
0
 62
9
  6
CONTINUOUS
 10
-169.0861319458
 20
-34.179854149
  0
VERTEX
  8
0
 62
9
  6
CONTINUOUS
 10
-169.1686894128
 20
-34.2609345187
  0
VERTEX
  8
0
 62
9
  6
CONTINUOUS
 10
-169.2431286222
 20
-34.3402573278
  0
VERTEX
  8
0
 62
9
  6
CONTINUOUS
 10
-169.3098944719
 20
-34.4176417874
  0
VERTEX
  8
0
 62
9
  6
CONTINUOUS
 10
-169.3694911369
 20
-34.4929955504
  0
VERTEX
  8
0
 62
9
  6
CONTINUOUS
 10
-169.4224021606
 20
-34.5661772578
  0
VERTEX
  8
0
 62
9
  6
CONTINUOUS
 10
-169.4691343355
 20
-34.6371531578
  0
VERTEX
  8
0
 62
9
  6
CONTINUOUS
 10
-169.5101967277
 20
-34.7058384861
  0
VERTEX
  8
0
 62
9
  6
CONTINUOUS
 10
-169.5460660604
 20
-34.7722449208
  0
VERTEX
  8
0
 62
9
  6
CONTINUOUS
 10
-169.5772486564
 20
-34.8363462575
  0
VERTEX
  8
0
 62
9
  6
CONTINUOUS
 10
-169.6041647839
 20
-34.8981713796
  0
VERTEX
  8
0
 62
9
  6
CONTINUOUS
 10
-169.6272784256
 20
-34.9577060489
  0
VERTEX
  8
0
 62
9
  6
CONTINUOUS
 10
-169.6469647611
 20
-35.0150534254
  0
VERTEX
  8
0
 62
9
  6
CONTINUOUS
 10
-169.6636628711
 20
-35.0703201163
  0
VERTEX
  8
0
 62
9
  6
CONTINUOUS
 10
-169.6776450352
 20
-35.1234815423
  0
VERTEX
  8
0
 62
9
  6
CONTINUOUS
 10
-169.6892333484
 20
-35.17441391
  0
VERTEX
  8
0
 62
9
  6
CONTINUOUS
 10
-169.6987174449
 20
-35.2235214692
  0
VERTEX
  8
0
 62
9
  6
CONTINUOUS
 10
-169.7064131787
 20
-35.2705871738
  0
VERTEX
  8
0
 62
9
  6
CONTINUOUS
 10
-169.7125639862
 20
-35.3173511182
  0
VERTEX
  8
0
 62
9
  6
CONTINUOUS
 10
-169.7175777091
 20
-35.365090669
  0
VERTEX
  8
0
 62
9
  6
CONTINUOUS
 10
-169.7212769859
 20
-35.4149769635
  0
VERTEX
  8
0
 62
9
  6
CONTINUOUS
 10
-169.7236152254
 20
-35.468806544
  0
VERTEX
  8
0
 62
9
  6
CONTINUOUS
 10
-169.724607958
 20
-35.5259805629
  0
SEQEND
  0
POLYLINE
  8
0
 62
7
  6
CONTINUOUS
 66
1
 70
0
  0
VERTEX
  8
0
 62
7
  6
CONTINUOUS
 10
-165.724607958
 20
-31.5917522783
  0
VERTEX
  8
0
 62
7
  6
CONTINUOUS
 10
-166.0097735215
 20
-31.6645619847
  0
VERTEX
  8
0
 62
7
  6
CONTINUOUS
 10
-166.3201600653
 20
-31.749610133
  0
VERTEX
  8
0
 62
7
  6
CONTINUOUS
 10
-166.6157231184
 20
-31.8364266377
  0
VERTEX
  8
0
 62
7
  6
CONTINUOUS
 10
-166.89717223
 20
-31.9249647039
  0
VERTEX
  8
0
 62
7
  6
CONTINUOUS
 10
-167.1650451365
 20
-32.0151453837
  0
VERTEX
  8
0
 62
7
  6
CONTINUOUS
 10
-167.4198188847
 20
-32.1068826112
  0
VERTEX
  8
0
 62
7
  6
CONTINUOUS
 10
-167.6619864849
 20
-32.2001085111
  0
VERTEX
  8
0
 62
7
  6
CONTINUOUS
 10
-167.8919816927
 20
-32.2947456541
  0
VERTEX
  8
0
 62
7
  6
CONTINUOUS
 10
-168.1102549405
 20
-32.3907357049
  0
VERTEX
  8
0
 62
7
  6
CONTINUOUS
 10
-168.3171960778
 20
-32.4880066367
  0
VERTEX
  8
0
 62
7
  6
CONTINUOUS
 10
-168.5132134076
 20
-32.5865066213
  0
VERTEX
  8
0
 62
7
  6
CONTINUOUS
 10
-168.6986536907
 20
-32.6861650383
  0
VERTEX
  8
0
 62
7
  6
CONTINUOUS
 10
-168.8738854789
 20
-32.7869332006
  0
VERTEX
  8
0
 62
7
  6
CONTINUOUS
 10
-169.0392106402
 20
-32.8887345413
  0
VERTEX
  8
0
 62
7
  6
CONTINUOUS
 10
-169.1949589877
 20
-32.9915172108
  0
VERTEX
  8
0
 62
7
  6
CONTINUOUS
 10
-169.3413861046
 20
-33.0951875026
  0
VERTEX
  8
0
 62
7
  6
CONTINUOUS
 10
-169.4787836457
 20
-33.1996795395
  0
VERTEX
  8
0
 62
7
  6
CONTINUOUS
 10
-169.6073634552
 20
-33.304867737
  0
VERTEX
  8
0
 62
7
  6
CONTINUOUS
 10
-169.7273821001
 20
-33.4106564685
  0
VERTEX
  8
0
 62
7
  6
CONTINUOUS
 10
-169.8390164362
 20
-33.516870612
  0
VERTEX
  8
0
 62
7
  6
CONTINUOUS
 10
-169.9424929758
 20
-33.6233614419
  0
VERTEX
  8
0
 62
7
  6
CONTINUOUS
 10
-170.0379787502
 20
-33.7298947086
  0
VERTEX
  8
0
 62
7
  6
CONTINUOUS
 10
-170.1256865892
 20
-33.8362484786
  0
VERTEX
  8
0
 62
7
  6
CONTINUOUS
 10
-170.2058089328
 20
-33.9421337554
  0
VERTEX
  8
0
 62
7
  6
CONTINUOUS
 10
-170.278571787
 20
-34.0472499502
  0
VERTEX
  8
0
 62
7
  6
CONTINUOUS
 10
-170.3442249515
 20
-34.1512722384
  0
VERTEX
  8
0
 62
7
  6
CONTINUOUS
 10
-170.4030347941
 20
-34.2538359159
  0
VERTEX
  8
0
 62
7
  6
CONTINUOUS
 10
-170.4553260466
 20
-34.354611601
  0
VERTEX
  8
0
 62
7
  6
CONTINUOUS
 10
-170.5014174668
 20
-34.453194703
  0
VERTEX
  8
0
 62
7
  6
CONTINUOUS
 10
-170.5417193747
 20
-34.5493201136
  0
VERTEX
  8
0
 62
7
  6
CONTINUOUS
 10
-170.5766084532
 20
-34.6426132717
  0
VERTEX
  8
0
 62
7
  6
CONTINUOUS
 10
-170.6065578596
 20
-34.7329444565
  0
VERTEX
  8
0
 62
7
  6
CONTINUOUS
 10
-170.6320041857
 20
-34.8201330367
  0
VERTEX
  8
0
 62
7
  6
CONTINUOUS
 10
-170.6533742184
 20
-34.904016776
  0
VERTEX
  8
0
 62
7
  6
CONTINUOUS
 10
-170.6710306228
 20
-34.9842012915
  0
VERTEX
  8
0
 62
7
  6
CONTINUOUS
 10
-170.6855194488
 20
-35.0612852998
  0
VERTEX
  8
0
 62
7
  6
CONTINUOUS
 10
-170.6971697387
 20
-35.1351077165
  0
VERTEX
  8
0
 62
7
  6
CONTINUOUS
 10
-170.7065844018
 20
-35.207964339
  0
VERTEX
  8
0
 62
7
  6
CONTINUOUS
 10
-170.7140882584
 20
-35.2820808377
  0
VERTEX
  8
0
 62
7
  6
CONTINUOUS
 10
-170.7196958061
 20
-35.3586553206
  0
VERTEX
  8
0
 62
7
  6
CONTINUOUS
 10
-170.7233243762
 20
-35.4400910715
  0
VERTEX
  8
0
 62
7
  6
CONTINUOUS
 10
-170.724607958
 20
-35.5259805629
  0
SEQEND
  0
LINE
  8
0
 62
7
  6
CONTINUOUS
 10
-33.224607958
 20
66.9740194371
 11
459.275392042
 21
66.9740194371
  0
LINE
  8
0
 62
9
  6
CONTINUOUS
 10
488.1343284964
 20
-57.9574800048
 11
487.2040794088
 21
-57.5905513536
  0
LINE
  8
0
 62
9
  6
CONTINUOUS
 10
492.5312638485
 20
-46.810230842
 11
491.6010147609
 21
-46.4433021908
  0
LINE
  8
0
 62
9
  6
CONTINUOUS
 10
-83.224607958
 20
116.9740194371
 11
-108.224607958
 21
116.9740194371
  0
LINE
  8
0
 62
9
  6
CONTINUOUS
 10
-83.224607958
 20
196.9740194371
 11
-108.224607958
 21
196.9740194371
  0
LINE
  8
0
 62
9
  6
CONTINUOUS
 10
-123.9804797646
 20
-46.810230842
 11
-123.050230677
 21
-46.4433021908
  0
LINE
  8
0
 62
9
  6
CONTINUOUS
 10
-119.5835444125
 20
-57.9574800048
 11
-118.6532953249
 21
-57.5905513536
  0
POLYLINE
  8
0
 62
9
  6
CONTINUOUS
 66
1
 70
0
  0
VERTEX
  8
0
 62
9
  6
CONTINUOUS
 10
534.275392042
 20
346.5715511133
  0
VERTEX
  8
0
 62
9
  6
CONTINUOUS
 10
534.5774677171
 20
346.6540093422
  0
VERTEX
  8
0
 62
9
  6
CONTINUOUS
 10
534.8638766702
 20
346.737655242
  0
VERTEX
  8
0
 62
9
  6
CONTINUOUS
 10
535.1343545734
 20
346.8225658336
  0
VERTEX
  8
0
 62
9
  6
CONTINUOUS
 10
535.3896944106
 20
346.908510054
  0
VERTEX
  8
0
 62
9
  6
CONTINUOUS
 10
535.6304456631
 20
346.9953370048
  0
VERTEX
  8
0
 62
9
  6
CONTINUOUS
 10
535.8570745101
 20
347.0828832128
  0
VERTEX
  8
0
 62
9
  6
CONTINUOUS
 10
536.0700855237
 20
347.1709908213
  0
VERTEX
  8
0
 62
9
  6
CONTINUOUS
 10
536.2699130065
 20
347.2594920822
  0
VERTEX
  8
0
 62
9
  6
CONTINUOUS
 10
536.4570223928
 20
347.3482254177
  0
VERTEX
  8
0
 62
9
  6
CONTINUOUS
 10
536.6318248601
 20
347.4370144615
  0
VERTEX
  8
0
 62
9
  6
CONTINUOUS
 10
536.794753389
 20
347.5256905764
  0
VERTEX
  8
0
 62
9
  6
CONTINUOUS
 10
536.946208005
 20
347.6140689985
  0
VERTEX
  8
0
 62
9
  6
CONTINUOUS
 10
537.0865996569
 20
347.7019725411
  0
VERTEX
  8
0
 62
9
  6
CONTINUOUS
 10
537.2163285556
 20
347.7892098359
  0
VERTEX
  8
0
 62
9
  6
CONTINUOUS
 10
537.3357937833
 20
347.8755941486
  0
VERTEX
  8
0
 62
9
  6
CONTINUOUS
 10
537.4454096749
 20
347.9609343905
  0
VERTEX
  8
0
 62
9
  6
CONTINUOUS
 10
537.5455765931
 20
348.0450365665
  0
VERTEX
  8
0
 62
9
  6
CONTINUOUS
 10
537.6367355367
 20
348.1277226615
  0
VERTEX
  8
0
 62
9
  6
CONTINUOUS
 10
537.719303004
 20
348.2087989958
  0
VERTEX
  8
0
 62
9
  6
CONTINUOUS
 10
537.7937528592
 20
348.2881185679
  0
VERTEX
  8
0
 62
9
  6
CONTINUOUS
 10
537.8605298029
 20
348.365500613
  0
VERTEX
  8
0
 62
9
  6
CONTINUOUS
 10
537.9201378242
 20
348.4408527402
  0
VERTEX
  8
0
 62
9
  6
CONTINUOUS
 10
537.9730602603
 20
348.5140335705
  0
VERTEX
  8
0
 62
9
  6
CONTINUOUS
 10
538.0198037677
 20
348.5850093033
  0
VERTEX
  8
0
 62
9
  6
CONTINUOUS
 10
538.0608772367
 20
348.6536951354
  0
VERTEX
  8
0
 62
9
  6
CONTINUOUS
 10
538.0967573031
 20
348.7201026964
  0
VERTEX
  8
0
 62
9
  6
CONTINUOUS
 10
538.1279501575
 20
348.7842057339
  0
VERTEX
  8
0
 62
9
  6
CONTINUOUS
 10
538.1548760245
 20
348.8460330906
  0
VERTEX
  8
0
 62
9
  6
CONTINUOUS
 10
538.1779987819
 20
348.9055704105
  0
VERTEX
  8
0
 62
9
  6
CONTINUOUS
 10
538.1976936614
 20
348.9629210376
  0
VERTEX
  8
0
 62
9
  6
CONTINUOUS
 10
538.2143998246
 20
349.0181920105
  0
VERTEX
  8
0
 62
9
  6
CONTINUOUS
 10
538.22838936
 20
349.0713578894
  0
VERTEX
  8
0
 62
9
  6
CONTINUOUS
 10
538.2399839772
 20
349.1222928408
  0
VERTEX
  8
0
 62
9
  6
CONTINUOUS
 10
538.2494739744
 20
349.1714050837
  0
VERTEX
  8
0
 62
9
  6
CONTINUOUS
 10
538.2571759015
 20
349.2184807027
  0
VERTEX
  8
0
 62
9
  6
CONTINUOUS
 10
538.2633327125
 20
349.2652602672
  0
VERTEX
  8
0
 62
9
  6
CONTINUOUS
 10
538.2683522483
 20
349.3130230699
  0
VERTEX
  8
0
 62
9
  6
CONTINUOUS
 10
538.2720563974
 20
349.362939026
  0
VERTEX
  8
0
 62
9
  6
CONTINUOUS
 10
538.2743977247
 20
349.416804025
  0
VERTEX
  8
0
 62
9
  6
CONTINUOUS
 10
538.275392042
 20
349.4740194371
  0
SEQEND
  0
LINE
  8
0
 62
7
  6
CONTINUOUS
 10
459.275392042
 20
246.9740194371
 11
-33.224607958
 21
246.9740194371
  0
LINE
  8
0
 62
9
  6
CONTINUOUS
 10
-123.9804797646
 20
360.7582697162
 11
-123.050230677
 21
360.391341065
  0
LINE
  8
0
 62
9
  6
CONTINUOUS
 10
-119.5835444125
 20
371.9055188789
 11
-118.6532953249
 21
371.5385902277
  0
POLYLINE
  8
0
 62
9
  6
CONTINUOUS
 66
1
 70
0
  0
VERTEX
  8
0
 62
9
  6
CONTINUOUS
 10
509.275392042
 20
372.3764877614
  0
VERTEX
  8
0
 62
9
  6
CONTINUOUS
 10
508.9733163628
 20
372.294029531
  0
VERTEX
  8
0
 62
9
  6
CONTINUOUS
 10
508.6869074061
 20
372.2103836298
  0
VERTEX
  8
0
 62
9
  6
CONTINUOUS
 10
508.4164294996
 20
372.1254730369
  0
VERTEX
  8
0
 62
9
  6
CONTINUOUS
 10
508.1610896596
 20
372.0395288153
  0
VERTEX
  8
0
 62
9
  6
CONTINUOUS
 10
507.9203384045
 20
371.9527018632
  0
VERTEX
  8
0
 62
9
  6
CONTINUOUS
 10
507.6937095553
 20
371.8651556539
  0
VERTEX
  8
0
 62
9
  6
CONTINUOUS
 10
507.4806985399
 20
371.7770480442
  0
VERTEX
  8
0
 62
9
  6
CONTINUOUS
 10
507.2808710556
 20
371.6885467818
  0
VERTEX
  8
0
 62
9
  6
CONTINUOUS
 10
507.0937616681
 20
371.5998134451
  0
VERTEX
  8
0
 62
9
  6
CONTINUOUS
 10
506.9189591997
 20
371.5110243999
  0
VERTEX
  8
0
 62
9
  6
CONTINUOUS
 10
506.7560306702
 20
371.4223482838
  0
VERTEX
  8
0
 62
9
  6
CONTINUOUS
 10
506.6045760537
 20
371.3339698604
  0
VERTEX
  8
0
 62
9
  6
CONTINUOUS
 10
506.4641844016
 20
371.2460663165
  0
VERTEX
  8
0
 62
9
  6
CONTINUOUS
 10
506.334455503
 20
371.1588290206
  0
VERTEX
  8
0
 62
9
  6
CONTINUOUS
 10
506.2149902756
 20
371.0724447067
  0
VERTEX
  8
0
 62
9
  6
CONTINUOUS
 10
506.1053743845
 20
370.9871044638
  0
VERTEX
  8
0
 62
9
  6
CONTINUOUS
 10
506.005207467
 20
370.9030022868
  0
VERTEX
  8
0
 62
9
  6
CONTINUOUS
 10
505.9140485242
 20
370.8203161909
  0
VERTEX
  8
0
 62
9
  6
CONTINUOUS
 10
505.8314810579
 20
370.7392398558
  0
VERTEX
  8
0
 62
9
  6
CONTINUOUS
 10
505.7570312038
 20
370.659920283
  0
VERTEX
  8
0
 62
9
  6
CONTINUOUS
 10
505.6902542613
 20
370.5825382373
  0
VERTEX
  8
0
 62
9
  6
CONTINUOUS
 10
505.6306462413
 20
370.5071861097
  0
VERTEX
  8
0
 62
9
  6
CONTINUOUS
 10
505.5777238066
 20
370.434005279
  0
VERTEX
  8
0
 62
9
  6
CONTINUOUS
 10
505.5309803006
 20
370.3630295459
  0
VERTEX
  8
0
 62
9
  6
CONTINUOUS
 10
505.4899068329
 20
370.2943437137
  0
VERTEX
  8
0
 62
9
  6
CONTINUOUS
 10
505.4540267679
 20
370.2279361526
  0
VERTEX
  8
0
 62
9
  6
CONTINUOUS
 10
505.4228339148
 20
370.1638331151
  0
VERTEX
  8
0
 62
9
  6
CONTINUOUS
 10
505.395908049
 20
370.1020057583
  0
VERTEX
  8
0
 62
9
  6
CONTINUOUS
 10
505.3727852928
 20
370.0424684386
  0
VERTEX
  8
0
 62
9
  6
CONTINUOUS
 10
505.3530904144
 20
369.9851178116
  0
VERTEX
  8
0
 62
9
  6
CONTINUOUS
 10
505.3363842523
 20
369.9298468388
  0
VERTEX
  8
0
 62
9
  6
CONTINUOUS
 10
505.3223947178
 20
369.87668096
  0
VERTEX
  8
0
 62
9
  6
CONTINUOUS
 10
505.3108001015
 20
369.8257460084
  0
VERTEX
  8
0
 62
9
  6
CONTINUOUS
 10
505.3013101052
 20
369.7766337659
  0
VERTEX
  8
0
 62
9
  6
CONTINUOUS
 10
505.293608179
 20
369.7295581486
  0
VERTEX
  8
0
 62
9
  6
CONTINUOUS
 10
505.287451369
 20
369.6827785869
  0
VERTEX
  8
0
 62
9
  6
CONTINUOUS
 10
505.2824318342
 20
369.6350157883
  0
VERTEX
  8
0
 62
9
  6
CONTINUOUS
 10
505.2787276858
 20
369.5850998371
  0
VERTEX
  8
0
 62
9
  6
CONTINUOUS
 10
505.276386359
 20
369.5312348434
  0
VERTEX
  8
0
 62
9
  6
CONTINUOUS
 10
505.275392042
 20
369.4740194371
  0
SEQEND
  0
POLYLINE
  8
0
 62
7
  6
CONTINUOUS
 66
1
 70
0
  0
VERTEX
  8
0
 62
7
  6
CONTINUOUS
 10
534.275392042
 20
345.5397911
  0
VERTEX
  8
0
 62
7
  6
CONTINUOUS
 10
534.560511555
 20
345.6125886754
  0
VERTEX
  8
0
 62
7
  6
CONTINUOUS
 10
534.8708573893
 20
345.6976243873
  0
VERTEX
  8
0
 62
7
  6
CONTINUOUS
 10
535.1663850856
 20
345.7844283834
  0
VERTEX
  8
0
 62
7
  6
CONTINUOUS
 10
535.4478036155
 20
345.8729538766
  0
VERTEX
  8
0
 62
7
  6
CONTINUOUS
 10
535.7156502833
 20
345.9631219484
  0
VERTEX
  8
0
 62
7
  6
CONTINUOUS
 10
535.9704017844
 20
346.0548465731
  0
VERTEX
  8
0
 62
7
  6
CONTINUOUS
 10
536.2125507582
 20
346.1480598922
  0
VERTEX
  8
0
 62
7
  6
CONTINUOUS
 10
536.4425306578
 20
346.2426845045
  0
VERTEX
  8
0
 62
7
  6
CONTINUOUS
 10
536.6607915925
 20
346.3386620776
  0
VERTEX
  8
0
 62
7
  6
CONTINUOUS
 10
536.8677231693
 20
346.4359206088
  0
VERTEX
  8
0
 62
7
  6
CONTINUOUS
 10
537.0637334207
 20
346.5344082663
  0
VERTEX
  8
0
 62
7
  6
CONTINUOUS
 10
537.2491689258
 20
346.6340544585
  0
VERTEX
  8
0
 62
7
  6
CONTINUOUS
 10
537.4243980315
 20
346.7348105043
  0
VERTEX
  8
0
 62
7
  6
CONTINUOUS
 10
537.5897224464
 20
346.8365998613
  0
VERTEX
  8
0
 62
7
  6
CONTINUOUS
 10
537.7454718087
 20
346.9393706835
  0
VERTEX
  8
0
 62
7
  6
CONTINUOUS
 10
537.8919015785
 20
347.0430292993
  0
VERTEX
  8
0
 62
7
  6
CONTINUOUS
 10
538.0293032539
 20
347.1475098338
  0
VERTEX
  8
0
 62
7
  6
CONTINUOUS
 10
538.1578886238
 20
347.2526867868
  0
VERTEX
  8
0
 62
7
  6
CONTINUOUS
 10
538.2779141541
 20
347.3584645839
  0
VERTEX
  8
0
 62
7
  6
CONTINUOUS
 10
538.3895566568
 20
347.4646682282
  0
VERTEX
  8
0
 62
7
  6
CONTINUOUS
 10
538.4930425704
 20
347.5711491077
  0
VERTEX
  8
0
 62
7
  6
CONTINUOUS
 10
538.5885388514
 20
347.6776731234
  0
VERTEX
  8
0
 62
7
  6
CONTINUOUS
 10
538.6762582439
 20
347.7840185065
  0
VERTEX
  8
0
 62
7
  6
CONTINUOUS
 10
538.756393061
 20
347.8898964174
  0
VERTEX
  8
0
 62
7
  6
CONTINUOUS
 10
538.8291691844
 20
347.9950064575
  0
VERTEX
  8
0
 62
7
  6
CONTINUOUS
 10
538.8948362381
 20
348.0990239483
  0
VERTEX
  8
0
 62
7
  6
CONTINUOUS
 10
538.9536604436
 20
348.2015844093
  0
VERTEX
  8
0
 62
7
  6
CONTINUOUS
 10
539.0059662678
 20
348.30235847
  0
VERTEX
  8
0
 62
7
  6
CONTINUOUS
 10
539.0520722346
 20
348.4009415813
  0
VERTEX
  8
0
 62
7
  6
CONTINUOUS
 10
539.0923884842
 20
348.4970687087
  0
VERTEX
  8
0
 62
7
  6
CONTINUOUS
 10
539.1272915373
 20
348.5903654179
  0
VERTEX
  8
0
 62
7
  6
CONTINUOUS
 10
539.157254331
 20
348.6807018037
  0
VERTEX
  8
0
 62
7
  6
CONTINUOUS
 10
539.1827133433
 20
348.7678972769
  0
VERTEX
  8
0
 62
7
  6
CONTINUOUS
 10
539.2040950758
 20
348.8517888517
  0
VERTEX
  8
0
 62
7
  6
CONTINUOUS
 10
539.2217616044
 20
348.9319794421
  0
VERTEX
  8
0
 62
7
  6
CONTINUOUS
 10
539.2362602428
 20
349.0090731996
  0
VERTEX
  8
0
 62
7
  6
CONTINUOUS
 10
539.2479205371
 20
349.0829144029
  0
VERTEX
  8
0
 62
7
  6
CONTINUOUS
 10
539.2573448925
 20
349.1557985566
  0
VERTEX
  8
0
 62
7
  6
CONTINUOUS
 10
539.2648578507
 20
349.229953876
  0
VERTEX
  8
0
 62
7
  6
CONTINUOUS
 10
539.2704728976
 20
349.3065761587
  0
VERTEX
  8
0
 62
7
  6
CONTINUOUS
 10
539.2741065581
 20
349.3880666077
  0
VERTEX
  8
0
 62
7
  6
CONTINUOUS
 10
539.275392042
 20
349.4740194371
  0
SEQEND
  0
LINE
  8
0
 62
7
  6
CONTINUOUS
 10
459.275392042
 20
271.9740194371
 11
-33.224607958
 21
271.9740194371
  0
POLYLINE
  8
0
 62
7
  6
CONTINUOUS
 66
1
 70
0
  0
VERTEX
  8
0
 62
7
  6
CONTINUOUS
 10
509.275392042
 20
373.4082477742
  0
VERTEX
  8
0
 62
7
  6
CONTINUOUS
 10
508.9902725242
 20
373.3354501975
  0
VERTEX
  8
0
 62
7
  6
CONTINUOUS
 10
508.6799266855
 20
373.2504144842
  0
VERTEX
  8
0
 62
7
  6
CONTINUOUS
 10
508.3843989854
 20
373.1636104868
  0
VERTEX
  8
0
 62
7
  6
CONTINUOUS
 10
508.102980452
 20
373.0750849922
  0
VERTEX
  8
0
 62
7
  6
CONTINUOUS
 10
507.8351337811
 20
372.9849169189
  0
VERTEX
  8
0
 62
7
  6
CONTINUOUS
 10
507.5803822773
 20
372.8931922928
  0
VERTEX
  8
0
 62
7
  6
CONTINUOUS
 10
507.3382333011
 20
372.7999789721
  0
VERTEX
  8
0
 62
7
  6
CONTINUOUS
 10
507.1082533994
 20
372.7053543583
  0
VERTEX
  8
0
 62
7
  6
CONTINUOUS
 10
506.8899924629
 20
372.6093767836
  0
VERTEX
  8
0
 62
7
  6
CONTINUOUS
 10
506.6830608846
 20
372.5121182508
  0
VERTEX
  8
0
 62
7
  6
CONTINUOUS
 10
506.487050632
 20
372.4136305916
  0
VERTEX
  8
0
 62
7
  6
CONTINUOUS
 10
506.3016151259
 20
372.3139843977
  0
VERTEX
  8
0
 62
7
  6
CONTINUOUS
 10
506.1263860194
 20
372.2132283502
  0
VERTEX
  8
0
 62
7
  6
CONTINUOUS
 10
505.9610616039
 20
372.1114389915
  0
VERTEX
  8
0
 62
7
  6
CONTINUOUS
 10
505.8053122414
 20
372.0086681675
  0
VERTEX
  8
0
 62
7
  6
CONTINUOUS
 10
505.6588824715
 20
371.90500955
  0
VERTEX
  8
0
 62
7
  6
CONTINUOUS
 10
505.5214807962
 20
371.8005290137
  0
VERTEX
  8
0
 62
7
  6
CONTINUOUS
 10
505.3928954267
 20
371.6953520589
  0
VERTEX
  8
0
 62
7
  6
CONTINUOUS
 10
505.2728698969
 20
371.5895742601
  0
VERTEX
  8
0
 62
7
  6
CONTINUOUS
 10
505.1612273949
 20
371.4833706142
  0
VERTEX
  8
0
 62
7
  6
CONTINUOUS
 10
505.0577414823
 20
371.3768897331
  0
VERTEX
  8
0
 62
7
  6
CONTINUOUS
 10
504.9622452025
 20
371.2703657158
  0
VERTEX
  8
0
 62
7
  6
CONTINUOUS
 10
504.8745258112
 20
371.1640203313
  0
VERTEX
  8
0
 62
7
  6
CONTINUOUS
 10
504.7943909957
 20
371.0581424191
  0
VERTEX
  8
0
 62
7
  6
CONTINUOUS
 10
504.7216148738
 20
370.9530323779
  0
VERTEX
  8
0
 62
7
  6
CONTINUOUS
 10
504.6559478218
 20
370.8490148861
  0
VERTEX
  8
0
 62
7
  6
CONTINUOUS
 10
504.5971236182
 20
370.7464544243
  0
VERTEX
  8
0
 62
7
  6
CONTINUOUS
 10
504.5448177958
 20
370.6456803631
  0
VERTEX
  8
0
 62
7
  6
CONTINUOUS
 10
504.4987118309
 20
370.5470972512
  0
VERTEX
  8
0
 62
7
  6
CONTINUOUS
 10
504.4583955831
 20
370.4509701236
  0
VERTEX
  8
0
 62
7
  6
CONTINUOUS
 10
504.4234925319
 20
370.3576734146
  0
VERTEX
  8
0
 62
7
  6
CONTINUOUS
 10
504.39352974
 20
370.2673370291
  0
VERTEX
  8
0
 62
7
  6
CONTINUOUS
 10
504.3680707293
 20
370.180141556
  0
VERTEX
  8
0
 62
7
  6
CONTINUOUS
 10
504.3466889984
 20
370.0962499814
  0
VERTEX
  8
0
 62
7
  6
CONTINUOUS
 10
504.3290224711
 20
370.0160593908
  0
VERTEX
  8
0
 62
7
  6
CONTINUOUS
 10
504.3145238341
 20
369.9389656341
  0
VERTEX
  8
0
 62
7
  6
CONTINUOUS
 10
504.3028635415
 20
369.8651244342
  0
VERTEX
  8
0
 62
7
  6
CONTINUOUS
 10
504.2934391878
 20
369.7922402857
  0
VERTEX
  8
0
 62
7
  6
CONTINUOUS
 10
504.285926231
 20
369.7180849732
  0
VERTEX
  8
0
 62
7
  6
CONTINUOUS
 10
504.2803111853
 20
369.6414626986
  0
VERTEX
  8
0
 62
7
  6
CONTINUOUS
 10
504.2766775256
 20
369.5599722578
  0
VERTEX
  8
0
 62
7
  6
CONTINUOUS
 10
504.275392042
 20
369.4740194371
  0
SEQEND
  0
LINE
  8
0
 62
9
  6
CONTINUOUS
 10
534.275392042
 20
321.9740194371
 11
509.275392042
 21
321.9740194371
  0
LINE
  8
0
 62
7
  6
CONTINUOUS
 10
491.6010147609
 20
358.5566978092
 11
487.2040794088
 21
347.4094486464
  0
LINE
  8
0
 62
9
  6
CONTINUOUS
 10
492.5312638485
 20
358.189769158
 11
488.1343284964
 21
347.0425199952
  0
LINE
  8
0
 62
9
  6
CONTINUOUS
 10
505.275392042
 20
349.4740194371
 11
504.275392042
 21
349.4740194371
  0
LINE
  8
0
 62
9
  6
CONTINUOUS
 10
-136.724607958
 20
349.4740194371
 11
-135.724607958
 21
349.4740194371
  0
LINE
  8
0
 62
9
  6
CONTINUOUS
 10
-169.724607958
 20
349.4740194371
 11
-170.724607958
 21
349.4740194371
  0
LINE
  8
0
 62
9
  6
CONTINUOUS
 10
538.275392042
 20
349.4740194371
 11
539.275392042
 21
349.4740194371
  0
LINE
  8
0
 62
7
  6
CONTINUOUS
 10
-139.474607958
 20
350.9740194371
 11
-166.974607958
 21
350.9740194371
  0
LINE
  8
0
 62
7
  6
CONTINUOUS
 10
508.025392042
 20
350.9740194371
 11
535.525392042
 21
350.9740194371
  0
LINE
  8
0
 62
7
  6
CONTINUOUS
 10
-139.474607958
 20
367.9740194371
 11
-166.974607958
 21
367.9740194371
  0
LINE
  8
0
 62
7
  6
CONTINUOUS
 10
508.025392042
 20
367.9740194371
 11
535.525392042
 21
367.9740194371
  0
LINE
  8
0
 62
9
  6
CONTINUOUS
 10
505.275392042
 20
369.4740194371
 11
504.275392042
 21
369.4740194371
  0
LINE
  8
0
 62
9
  6
CONTINUOUS
 10
-136.724607958
 20
369.4740194371
 11
-135.724607958
 21
369.4740194371
  0
LINE
  8
0
 62
9
  6
CONTINUOUS
 10
-169.724607958
 20
369.4740194371
 11
-170.724607958
 21
369.4740194371
  0
LINE
  8
0
 62
9
  6
CONTINUOUS
 10
538.275392042
 20
369.4740194371
 11
539.275392042
 21
369.4740194371
  0
LINE
  8
0
 62
7
  6
CONTINUOUS
 10
487.2040794088
 20
-33.4614097723
 11
491.6010147609
 21
-44.608658935
  0
LINE
  8
0
 62
9
  6
CONTINUOUS
 10
488.1343284964
 20
-33.0944811211
 11
492.5312638485
 21
-44.2417302838
  0
LINE
  8
0
 62
9
  6
CONTINUOUS
 10
534.275392042
 20
396.9740194371
 11
509.275392042
 21
396.9740194371
  0
LINE
  8
0
 62
9
  6
CONTINUOUS
 10
-165.724607958
 20
396.9740194371
 11
-140.724607958
 21
396.9740194371
  0
LINE
  8
0
 62
9
  6
CONTINUOUS
 10
459.275392042
 20
471.9740194371
 11
459.275392042
 21
446.9740194371
  0
LINE
  8
0
 62
9
  6
CONTINUOUS
 10
459.275392042
 20
-158.0259805629
 11
459.275392042
 21
-133.0259805629
  0
LINE
  8
0
 62
9
  6
CONTINUOUS
 10
459.275392042
 20
66.9740194371
 11
459.275392042
 21
41.9740194371
  0
LINE
  8
0
 62
9
  6
CONTINUOUS
 10
459.275392042
 20
246.9740194371
 11
459.275392042
 21
271.9740194371
  0
LINE
  8
0
 62
9
  6
CONTINUOUS
 10
488.1343284964
 20
-33.0944811211
 11
487.2040794088
 21
-33.4614097723
  0
POLYLINE
  8
0
 62
9
  6
CONTINUOUS
 66
1
 70
0
  0
VERTEX
  8
0
 62
9
  6
CONTINUOUS
 10
-140.724607958
 20
346.5715508254
  0
VERTEX
  8
0
 62
9
  6
CONTINUOUS
 10
-140.4224900607
 20
346.6540212673
  0
VERTEX
  8
0
 62
9
  6
CONTINUOUS
 10
-140.1360442188
 20
346.7376792395
  0
VERTEX
  8
0
 62
9
  6
CONTINUOUS
 10
-139.8655349745
 20
346.8226017753
  0
VERTEX
  8
0
 62
9
  6
CONTINUOUS
 10
-139.610168701
 20
346.9085577749
  0
VERTEX
  8
0
 62
9
  6
CONTINUOUS
 10
-139.3693954595
 20
346.9953963299
  0
VERTEX
  8
0
 62
9
  6
CONTINUOUS
 10
-139.1427487281
 20
347.0829538994
  0
VERTEX
  8
0
 62
9
  6
CONTINUOUS
 10
-138.9297235384
 20
347.1710725704
  0
VERTEX
  8
0
 62
9
  6
CONTINUOUS
 10
-138.7298852912
 20
347.2595845515
  0
VERTEX
  8
0
 62
9
  6
CONTINUOUS
 10
-138.5427682051
 20
347.3483282188
  0
VERTEX
  8
0
 62
9
  6
CONTINUOUS
 10
-138.3679608597
 20
347.4371271574
  0
VERTEX
  8
0
 62
9
  6
CONTINUOUS
 10
-138.2050299898
 20
347.525812681
  0
VERTEX
  8
0
 62
9
  6
CONTINUOUS
 10
-138.0535753491
 20
347.6141999791
  0
VERTEX
  8
0
 62
9
  6
CONTINUOUS
 10
-137.9131857472
 20
347.7021118118
  0
VERTEX
  8
0
 62
9
  6
CONTINUOUS
 10
-137.7834607514
 20
347.7893567801
  0
VERTEX
  8
0
 62
9
  6
CONTINUOUS
 10
-137.6640010423
 20
347.8757481119
  0
VERTEX
  8
0
 62
9
  6
CONTINUOUS
 10
-137.5543920894
 20
347.9610946864
  0
VERTEX
  8
0
 62
9
  6
CONTINUOUS
 10
-137.4542333137
 20
348.045202476
  0
VERTEX
  8
0
 62
9
  6
CONTINUOUS
 10
-137.3630835412
 20
348.1278934281
  0
VERTEX
  8
0
 62
9
  6
CONTINUOUS
 10
-137.2805260926
 20
348.2089738127
  0
VERTEX
  8
0
 62
9
  6
CONTINUOUS
 10
-137.2060869043
 20
348.2882966348
  0
VERTEX
  8
0
 62
9
  6
CONTINUOUS
 10
-137.1393210777
 20
348.3656811048
  0
VERTEX
  8
0
 62
9
  6
CONTINUOUS
 10
-137.0797244374
 20
348.4410348764
  0
VERTEX
  8
0
 62
9
  6
CONTINUOUS
 10
-137.0268134391
 20
348.5142165903
  0
VERTEX
  8
0
 62
9
  6
CONTINUOUS
 10
-136.9800812899
 20
348.5851924951
  0
VERTEX
  8
0
 62
9
  6
CONTINUOUS
 10
-136.9390189234
 20
348.6538778264
  0
VERTEX
  8
0
 62
9
  6
CONTINUOUS
 10
-136.9031496157
 20
348.720284263
  0
VERTEX
  8
0
 62
9
  6
CONTINUOUS
 10
-136.8719670435
 20
348.7843856014
  0
VERTEX
  8
0
 62
9
  6
CONTINUOUS
 10
-136.8450509389
 20
348.8462107237
  0
VERTEX
  8
0
 62
9
  6
CONTINUOUS
 10
-136.8219373199
 20
348.9057453898
  0
VERTEX
  8
0
 62
9
  6
CONTINUOUS
 10
-136.8022510057
 20
348.963092763
  0
VERTEX
  8
0
 62
9
  6
CONTINUOUS
 10
-136.7855529143
 20
349.0183594541
  0
VERTEX
  8
0
 62
9
  6
CONTINUOUS
 10
-136.7715707675
 20
349.0715208798
  0
VERTEX
  8
0
 62
9
  6
CONTINUOUS
 10
-136.7599824708
 20
349.1224532475
  0
VERTEX
  8
0
 62
9
  6
CONTINUOUS
 10
-136.7504983908
 20
349.1715607964
  0
VERTEX
  8
0
 62
9
  6
CONTINUOUS
 10
-136.7428026753
 20
349.2186264699
  0
VERTEX
  8
0
 62
9
  6
CONTINUOUS
 10
-136.736651886
 20
349.2653903635
  0
VERTEX
  8
0
 62
9
  6
CONTINUOUS
 10
-136.7316381804
 20
349.3131298377
  0
VERTEX
  8
0
 62
9
  6
CONTINUOUS
 10
-136.7279389179
 20
349.3630160406
  0
VERTEX
  8
0
 62
9
  6
CONTINUOUS
 10
-136.7256006869
 20
349.4168455239
  0
VERTEX
  8
0
 62
9
  6
CONTINUOUS
 10
-136.724607958
 20
349.4740194371
  0
SEQEND
  0
POLYLINE
  8
0
 62
7
  6
CONTINUOUS
 66
1
 70
0
  0
VERTEX
  8
0
 62
7
  6
CONTINUOUS
 10
-140.724607958
 20
345.5397911525
  0
VERTEX
  8
0
 62
7
  6
CONTINUOUS
 10
-140.4394423038
 20
345.6126008828
  0
VERTEX
  8
0
 62
7
  6
CONTINUOUS
 10
-140.1290556778
 20
345.6976490562
  0
VERTEX
  8
0
 62
7
  6
CONTINUOUS
 10
-139.8334925511
 20
345.7844655868
  0
VERTEX
  8
0
 62
7
  6
CONTINUOUS
 10
-139.5520433737
 20
345.8730036798
  0
VERTEX
  8
0
 62
7
  6
CONTINUOUS
 10
-139.2841704088
 20
345.963184387
  0
VERTEX
  8
0
 62
7
  6
CONTINUOUS
 10
-139.029396609
 20
346.0549216427
  0
VERTEX
  8
0
 62
7
  6
CONTINUOUS
 10
-138.7872289635
 20
346.1481475714
  0
VERTEX
  8
0
 62
7
  6
CONTINUOUS
 10
-138.5572337165
 20
346.2427847438
  0
VERTEX
  8
0
 62
7
  6
CONTINUOUS
 10
-138.3389604353
 20
346.3387748247
  0
VERTEX
  8
0
 62
7
  6
CONTINUOUS
 10
-138.1320192699
 20
346.4360457871
  0
VERTEX
  8
0
 62
7
  6
CONTINUOUS
 10
-137.936001917
 20
346.5345458029
  0
VERTEX
  8
0
 62
7
  6
CONTINUOUS
 10
-137.7505616155
 20
346.6342042515
  0
VERTEX
  8
0
 62
7
  6
CONTINUOUS
 10
-137.5753298135
 20
346.7349724459
  0
VERTEX
  8
0
 62
7
  6
CONTINUOUS
 10
-137.4100046429
 20
346.836773819
  0
VERTEX
  8
0
 62
7
  6
CONTINUOUS
 10
-137.2542562903
 20
346.9395565212
  0
VERTEX
  8
0
 62
7
  6
CONTINUOUS
 10
-137.1078291724
 20
347.0432268456
  0
VERTEX
  8
0
 62
7
  6
CONTINUOUS
 10
-136.9704316343
 20
347.1477189154
  0
VERTEX
  8
0
 62
7
  6
CONTINUOUS
 10
-136.8418518318
 20
347.2529071453
  0
VERTEX
  8
0
 62
7
  6
CONTINUOUS
 10
-136.7218331978
 20
347.3586959087
  0
VERTEX
  8
0
 62
7
  6
CONTINUOUS
 10
-136.6101988764
 20
347.4649100833
  0
VERTEX
  8
0
 62
7
  6
CONTINUOUS
 10
-136.5067223549
 20
347.5714009433
  0
VERTEX
  8
0
 62
7
  6
CONTINUOUS
 10
-136.4112366021
 20
347.6779342385
  0
VERTEX
  8
0
 62
7
  6
CONTINUOUS
 10
-136.3235287881
 20
347.7842880346
  0
VERTEX
  8
0
 62
7
  6
CONTINUOUS
 10
-136.2434064725
 20
347.8901733352
  0
VERTEX
  8
0
 62
7
  6
CONTINUOUS
 10
-136.1706436486
 20
347.9952895512
  0
VERTEX
  8
0
 62
7
  6
CONTINUOUS
 10
-136.1049905165
 20
348.0993118573
  0
VERTEX
  8
0
 62
7
  6
CONTINUOUS
 10
-136.0461807083
 20
348.2018755483
  0
VERTEX
  8
0
 62
7
  6
CONTINUOUS
 10
-135.9938894908
 20
348.3026512439
  0
VERTEX
  8
0
 62
7
  6
CONTINUOUS
 10
-135.9477981045
 20
348.4012343558
  0
VERTEX
  8
0
 62
7
  6
CONTINUOUS
 10
-135.907496231
 20
348.4973597717
  0
VERTEX
  8
0
 62
7
  6
CONTINUOUS
 10
-135.8726071889
 20
348.590652924
  0
VERTEX
  8
0
 62
7
  6
CONTINUOUS
 10
-135.8426578169
 20
348.6809841006
  0
VERTEX
  8
0
 62
7
  6
CONTINUOUS
 10
-135.8172115203
 20
348.7681726811
  0
VERTEX
  8
0
 62
7
  6
CONTINUOUS
 10
-135.7958415152
 20
348.8520564206
  0
VERTEX
  8
0
 62
7
  6
CONTINUOUS
 10
-135.7781851364
 20
348.9322409363
  0
VERTEX
  8
0
 62
7
  6
CONTINUOUS
 10
-135.7636963377
 20
349.0093249256
  0
VERTEX
  8
0
 62
7
  6
CONTINUOUS
 10
-135.7520460789
 20
349.0831472783
  0
VERTEX
  8
0
 62
7
  6
CONTINUOUS
 10
-135.7426314462
 20
349.156003804
  0
VERTEX
  8
0
 62
7
  6
CONTINUOUS
 10
-135.7351276174
 20
349.2301201724
  0
VERTEX
  8
0
 62
7
  6
CONTINUOUS
 10
-135.7295200916
 20
349.3066945056
  0
VERTEX
  8
0
 62
7
  6
CONTINUOUS
 10
-135.7258915351
 20
349.3881301055
  0
VERTEX
  8
0
 62
7
  6
CONTINUOUS
 10
-135.724607958
 20
349.4740194371
  0
SEQEND
  0
POLYLINE
  8
0
 62
7
  6
CONTINUOUS
 66
1
 70
0
  0
VERTEX
  8
0
 62
7
  6
CONTINUOUS
 10
504.275392042
 20
-55.5259805629
  0
VERTEX
  8
0
 62
7
  6
CONTINUOUS
 10
504.2762557362
 20
-55.5964898325
  0
VERTEX
  8
0
 62
7
  6
CONTINUOUS
 10
504.279087184
 20
-55.6712690408
  0
VERTEX
  8
0
 62
7
  6
CONTINUOUS
 10
504.2841985782
 20
-55.7493756902
  0
VERTEX
  8
0
 62
7
  6
CONTINUOUS
 10
504.2920833627
 20
-55.8322072504
  0
VERTEX
  8
0
 62
7
  6
CONTINUOUS
 10
504.3033714068
 20
-55.9206102405
  0
VERTEX
  8
0
 62
7
  6
CONTINUOUS
 10
504.3187113333
 20
-56.0145493074
  0
VERTEX
  8
0
 62
7
  6
CONTINUOUS
 10
504.338845396
 20
-56.1140909911
  0
VERTEX
  8
0
 62
7
  6
CONTINUOUS
 10
504.3646096565
 20
-56.2192890455
  0
VERTEX
  8
0
 62
7
  6
CONTINUOUS
 10
504.3969461508
 20
-56.3301886714
  0
VERTEX
  8
0
 62
7
  6
CONTINUOUS
 10
504.4367597043
 20
-56.4464015734
  0
VERTEX
  8
0
 62
7
  6
CONTINUOUS
 10
504.4850684789
 20
-56.5677090137
  0
VERTEX
  8
0
 62
7
  6
CONTINUOUS
 10
504.5427290142
 20
-56.693393007
  0
VERTEX
  8
0
 62
7
  6
CONTINUOUS
 10
504.6106962185
 20
-56.8229904759
  0
VERTEX
  8
0
 62
7
  6
CONTINUOUS
 10
504.6896420213
 20
-56.955569086
  0
VERTEX
  8
0
 62
7
  6
CONTINUOUS
 10
504.7802770272
 20
-57.0904466866
  0
VERTEX
  8
0
 62
7
  6
CONTINUOUS
 10
504.8830847141
 20
-57.2267650543
  0
VERTEX
  8
0
 62
7
  6
CONTINUOUS
 10
504.9984941858
 20
-57.3637978823
  0
VERTEX
  8
0
 62
7
  6
CONTINUOUS
 10
505.1269030563
 20
-57.5009433832
  0
VERTEX
  8
0
 62
7
  6
CONTINUOUS
 10
505.2685840004
 20
-57.6376059814
  0
VERTEX
  8
0
 62
7
  6
CONTINUOUS
 10
505.423948316
 20
-57.7734333571
  0
VERTEX
  8
0
 62
7
  6
CONTINUOUS
 10
505.5932632456
 20
-57.9080137042
  0
VERTEX
  8
0
 62
7
  6
CONTINUOUS
 10
505.7770073385
 20
-58.0411561981
  0
VERTEX
  8
0
 62
7
  6
CONTINUOUS
 10
505.9755336805
 20
-58.1725956317
  0
VERTEX
  8
0
 62
7
  6
CONTINUOUS
 10
506.1894082222
 20
-58.3022210295
  0
VERTEX
  8
0
 62
7
  6
CONTINUOUS
 10
506.4191020412
 20
-58.4298535425
  0
VERTEX
  8
0
 62
7
  6
CONTINUOUS
 10
506.6652746347
 20
-58.5554097913
  0
VERTEX
  8
0
 62
7
  6
CONTINUOUS
 10
506.9285174726
 20
-58.6787487595
  0
VERTEX
  8
0
 62
7
  6
CONTINUOUS
 10
507.2095848344
 20
-58.7997853885
  0
VERTEX
  8
0
 62
7
  6
CONTINUOUS
 10
507.5091809143
 20
-58.9183851072
  0
VERTEX
  8
0
 62
7
  6
CONTINUOUS
 10
507.8281565624
 20
-59.0344463112
  0
VERTEX
  8
0
 62
7
  6
CONTINUOUS
 10
508.167321614
 20
-59.1478229884
  0
VERTEX
  8
0
 62
7
  6
CONTINUOUS
 10
508.527627446
 20
-59.2583896514
  0
VERTEX
  8
0
 62
7
  6
CONTINUOUS
 10
508.9103273928
 20
-59.3660710252
  0
VERTEX
  8
0
 62
7
  6
CONTINUOUS
 10
509.275392042
 20
-59.4601170707
  0
SEQEND
  0
POLYLINE
  8
0
 62
7
  6
CONTINUOUS
 66
1
 70
0
  0
VERTEX
  8
0
 62
7
  6
CONTINUOUS
 10
504.275392042
 20
349.4740194371
  0
VERTEX
  8
0
 62
7
  6
CONTINUOUS
 10
504.2762557361
 20
349.4035101717
  0
VERTEX
  8
0
 62
7
  6
CONTINUOUS
 10
504.2790871836
 20
349.3287309656
  0
VERTEX
  8
0
 62
7
  6
CONTINUOUS
 10
504.2841985777
 20
349.2506243159
  0
VERTEX
  8
0
 62
7
  6
CONTINUOUS
 10
504.2920833621
 20
349.1677927547
  0
VERTEX
  8
0
 62
7
  6
CONTINUOUS
 10
504.303371406
 20
349.0793897647
  0
VERTEX
  8
0
 62
7
  6
CONTINUOUS
 10
504.3187113323
 20
348.9854506982
  0
VERTEX
  8
0
 62
7
  6
CONTINUOUS
 10
504.3388453948
 20
348.8859090146
  0
VERTEX
  8
0
 62
7
  6
CONTINUOUS
 10
504.364609655
 20
348.7807109602
  0
VERTEX
  8
0
 62
7
  6
CONTINUOUS
 10
504.396946149
 20
348.6698113344
  0
VERTEX
  8
0
 62
7
  6
CONTINUOUS
 10
504.4367597021
 20
348.5535984325
  0
VERTEX
  8
0
 62
7
  6
CONTINUOUS
 10
504.4850684762
 20
348.4322909924
  0
VERTEX
  8
0
 62
7
  6
CONTINUOUS
 10
504.5427290111
 20
348.3066069993
  0
VERTEX
  8
0
 62
7
  6
CONTINUOUS
 10
504.6106962148
 20
348.1770095306
  0
VERTEX
  8
0
 62
7
  6
CONTINUOUS
 10
504.689642017
 20
348.0444309208
  0
VERTEX
  8
0
 62
7
  6
CONTINUOUS
 10
504.7802770223
 20
347.9095533202
  0
VERTEX
  8
0
 62
7
  6
CONTINUOUS
 10
504.8830847086
 20
347.7732349526
  0
VERTEX
  8
0
 62
7
  6
CONTINUOUS
 10
504.9984941797
 20
347.6362021246
  0
VERTEX
  8
0
 62
7
  6
CONTINUOUS
 10
505.1269030494
 20
347.4990566238
  0
VERTEX
  8
0
 62
7
  6
CONTINUOUS
 10
505.2685839928
 20
347.3623940255
  0
VERTEX
  8
0
 62
7
  6
CONTINUOUS
 10
505.4239483079
 20
347.2265666498
  0
VERTEX
  8
0
 62
7
  6
CONTINUOUS
 10
505.5932632368
 20
347.0919863024
  0
VERTEX
  8
0
 62
7
  6
CONTINUOUS
 10
505.7770073293
 20
346.9588438083
  0
VERTEX
  8
0
 62
7
  6
CONTINUOUS
 10
505.975533671
 20
346.8274043744
  0
VERTEX
  8
0
 62
7
  6
CONTINUOUS
 10
506.1894082124
 20
346.6977789762
  0
VERTEX
  8
0
 62
7
  6
CONTINUOUS
 10
506.4191020314
 20
346.5701464627
  0
VERTEX
  8
0
 62
7
  6
CONTINUOUS
 10
506.665274625
 20
346.4445902134
  0
VERTEX
  8
0
 62
7
  6
CONTINUOUS
 10
506.9285174632
 20
346.3212512447
  0
VERTEX
  8
0
 62
7
  6
CONTINUOUS
 10
507.2095848255
 20
346.2002146152
  0
VERTEX
  8
0
 62
7
  6
CONTINUOUS
 10
507.5091809062
 20
346.0816148959
  0
VERTEX
  8
0
 62
7
  6
CONTINUOUS
 10
507.8281565553
 20
345.9655536913
  0
VERTEX
  8
0
 62
7
  6
CONTINUOUS
 10
508.1673216081
 20
345.8521770135
  0
VERTEX
  8
0
 62
7
  6
CONTINUOUS
 10
508.5276274417
 20
345.7416103499
  0
VERTEX
  8
0
 62
7
  6
CONTINUOUS
 10
508.9103273905
 20
345.6339289754
  0
VERTEX
  8
0
 62
7
  6
CONTINUOUS
 10
509.275392042
 20
345.5398829293
  0
SEQEND
  0
POLYLINE
  8
0
 62
9
  6
CONTINUOUS
 66
1
 70
0
  0
VERTEX
  8
0
 62
9
  6
CONTINUOUS
 10
505.275392042
 20
-55.5259805629
  0
VERTEX
  8
0
 62
9
  6
CONTINUOUS
 10
505.2758372223
 20
-55.5710587827
  0
VERTEX
  8
0
 62
9
  6
CONTINUOUS
 10
505.2776717291
 20
-55.6180182095
  0
VERTEX
  8
0
 62
9
  6
CONTINUOUS
 10
505.2807525644
 20
-55.6666554212
  0
VERTEX
  8
0
 62
9
  6
CONTINUOUS
 10
505.2855087227
 20
-55.717580684
  0
VERTEX
  8
0
 62
9
  6
CONTINUOUS
 10
505.2921798993
 20
-55.7713522903
  0
VERTEX
  8
0
 62
9
  6
CONTINUOUS
 10
505.3011909949
 20
-55.8279227393
  0
VERTEX
  8
0
 62
9
  6
CONTINUOUS
 10
505.3128577985
 20
-55.8873815198
  0
VERTEX
  8
0
 62
9
  6
CONTINUOUS
 10
505.3277473415
 20
-55.9498759558
  0
VERTEX
  8
0
 62
9
  6
CONTINUOUS
 10
505.3462933537
 20
-56.0155492401
  0
VERTEX
  8
0
 62
9
  6
CONTINUOUS
 10
505.3692115294
 20
-56.0845032554
  0
VERTEX
  8
0
 62
9
  6
CONTINUOUS
 10
505.3970741646
 20
-56.1568667179
  0
VERTEX
  8
0
 62
9
  6
CONTINUOUS
 10
505.4307451829
 20
-56.2327023201
  0
VERTEX
  8
0
 62
9
  6
CONTINUOUS
 10
505.4709661176
 20
-56.3121372082
  0
VERTEX
  8
0
 62
9
  6
CONTINUOUS
 10
505.5186764353
 20
-56.3951067382
  0
VERTEX
  8
0
 62
9
  6
CONTINUOUS
 10
505.5747589356
 20
-56.4816619814
  0
VERTEX
  8
0
 62
9
  6
CONTINUOUS
 10
505.6401251523
 20
-56.5715829389
  0
VERTEX
  8
0
 62
9
  6
CONTINUOUS
 10
505.7157091827
 20
-56.6647778997
  0
VERTEX
  8
0
 62
9
  6
CONTINUOUS
 10
505.8023261354
 20
-56.7609130722
  0
VERTEX
  8
0
 62
9
  6
CONTINUOUS
 10
505.9008663275
 20
-56.8597518033
  0
VERTEX
  8
0
 62
9
  6
CONTINUOUS
 10
506.0120382307
 20
-56.9609109669
  0
VERTEX
  8
0
 62
9
  6
CONTINUOUS
 10
506.1366350119
 20
-57.0640549857
  0
VERTEX
  8
0
 62
9
  6
CONTINUOUS
 10
506.2752929024
 20
-57.1688045593
  0
VERTEX
  8
0
 62
9
  6
CONTINUOUS
 10
506.428707967
 20
-57.2747845805
  0
VERTEX
  8
0
 62
9
  6
CONTINUOUS
 10
506.5974938721
 20
-57.3816468918
  0
VERTEX
  8
0
 62
9
  6
CONTINUOUS
 10
506.7822849382
 20
-57.4890223223
  0
VERTEX
  8
0
 62
9
  6
CONTINUOUS
 10
506.9837152676
 20
-57.5965988053
  0
VERTEX
  8
0
 62
9
  6
CONTINUOUS
 10
507.2024022555
 20
-57.7040355155
  0
VERTEX
  8
0
 62
9
  6
CONTINUOUS
 10
507.4390303443
 20
-57.8110495576
  0
VERTEX
  8
0
 62
9
  6
CONTINUOUS
 10
507.6942384512
 20
-57.9173325428
  0
VERTEX
  8
0
 62
9
  6
CONTINUOUS
 10
507.9687805473
 20
-58.0226201266
  0
VERTEX
  8
0
 62
9
  6
CONTINUOUS
 10
508.2633443981
 20
-58.1266348158
  0
VERTEX
  8
0
 62
9
  6
CONTINUOUS
 10
508.5787675367
 20
-58.2291076668
  0
VERTEX
  8
0
 62
9
  6
CONTINUOUS
 10
508.9162500999
 20
-58.3296320579
  0
VERTEX
  8
0
 62
9
  6
CONTINUOUS
 10
509.275392042
 20
-58.4283435297
  0
SEQEND
  0
LINE
  8
0
 62
9
  6
CONTINUOUS
 10
494.6460721095
 20
337.4740194371
 11
494.6460721094
 21
336.4740194373
  0
LINE
  8
0
 62
9
  6
CONTINUOUS
 10
494.6460721095
 20
-23.5259805629
 11
494.6460721095
 21
-22.5259805629
  0
LINE
  8
0
 62
9
  6
CONTINUOUS
 10
494.6460721095
 20
-67.5259805629
 11
494.6460721094
 21
-68.5259805627
  0
LINE
  8
0
 62
9
  6
CONTINUOUS
 10
494.6460721095
 20
381.4740194371
 11
494.6460721095
 21
382.4740194371
  0
LINE
  8
0
 62
7
  6
CONTINUOUS
 10
504.275392042
 20
369.4740194371
 11
504.275392042
 21
349.4740194371
  0
LINE
  8
0
 62
7
  6
CONTINUOUS
 10
504.275392042
 20
-35.5259805629
 11
504.275392042
 21
-55.5259805629
  0
LINE
  8
0
 62
9
  6
CONTINUOUS
 10
505.275392042
 20
369.4740194371
 11
505.275392042
 21
349.4740194371
  0
LINE
  8
0
 62
9
  6
CONTINUOUS
 10
505.275392042
 20
-35.5259805629
 11
505.275392042
 21
-55.5259805629
  0
LINE
  8
0
 62
9
  6
CONTINUOUS
 10
492.5312638485
 20
-44.2417302838
 11
491.6010147609
 21
-44.608658935
  0
POLYLINE
  8
0
 62
9
  6
CONTINUOUS
 66
1
 70
0
  0
VERTEX
  8
0
 62
9
  6
CONTINUOUS
 10
-165.724607958
 20
372.3764880437
  0
VERTEX
  8
0
 62
9
  6
CONTINUOUS
 10
-166.0267258256
 20
372.2940176136
  0
VERTEX
  8
0
 62
9
  6
CONTINUOUS
 10
-166.3131716407
 20
372.2103596522
  0
VERTEX
  8
0
 62
9
  6
CONTINUOUS
 10
-166.583680861
 20
372.1254371257
  0
VERTEX
  8
0
 62
9
  6
CONTINUOUS
 10
-166.8390471133
 20
372.039481135
  0
VERTEX
  8
0
 62
9
  6
CONTINUOUS
 10
-167.0798203362
 20
371.9526425895
  0
VERTEX
  8
0
 62
9
  6
CONTINUOUS
 10
-167.3064670514
 20
371.8650850296
  0
VERTEX
  8
0
 62
9
  6
CONTINUOUS
 10
-167.5194922275
 20
371.7769663684
  0
VERTEX
  8
0
 62
9
  6
CONTINUOUS
 10
-167.7193304632
 20
371.688454397
  0
VERTEX
  8
0
 62
9
  6
CONTINUOUS
 10
-167.9064475401
 20
371.5997107395
  0
VERTEX
  8
0
 62
9
  6
CONTINUOUS
 10
-168.0812548783
 20
371.5109118107
  0
VERTEX
  8
0
 62
9
  6
CONTINUOUS
 10
-168.2441857431
 20
371.4222262966
  0
VERTEX
  8
0
 62
9
  6
CONTINUOUS
 10
-168.3956403807
 20
371.3338390079
  0
VERTEX
  8
0
 62
9
  6
CONTINUOUS
 10
-168.5360299812
 20
371.2459271843
  0
VERTEX
  8
0
 62
9
  6
CONTINUOUS
 10
-168.6657549773
 20
371.1586822248
  0
VERTEX
  8
0
 62
9
  6
CONTINUOUS
 10
-168.7852146884
 20
371.0722909014
  0
VERTEX
  8
0
 62
9
  6
CONTINUOUS
 10
-168.8948236449
 20
370.9869443348
  0
VERTEX
  8
0
 62
9
  6
CONTINUOUS
 10
-168.9949824255
 20
370.9028365525
  0
VERTEX
  8
0
 62
9
  6
CONTINUOUS
 10
-169.0861322043
 20
370.820145607
  0
VERTEX
  8
0
 62
9
  6
CONTINUOUS
 10
-169.1686896602
 20
370.7390652284
  0
VERTEX
  8
0
 62
9
  6
CONTINUOUS
 10
-169.2431288569
 20
370.6597424114
  0
VERTEX
  8
0
 62
9
  6
CONTINUOUS
 10
-169.3098946927
 20
370.5823579456
  0
VERTEX
  8
0
 62
9
  6
CONTINUOUS
 10
-169.3694913428
 20
370.5070041774
  0
VERTEX
  8
0
 62
9
  6
CONTINUOUS
 10
-169.4224023512
 20
370.4338224661
  0
VERTEX
  8
0
 62
9
  6
CONTINUOUS
 10
-169.4691345106
 20
370.3628465633
  0
VERTEX
  8
0
 62
9
  6
CONTINUOUS
 10
-169.5101968873
 20
370.2941612331
  0
VERTEX
  8
0
 62
9
  6
CONTINUOUS
 10
-169.5460662049
 20
370.2277547973
  0
VERTEX
  8
0
 62
9
  6
CONTINUOUS
 10
-169.5772487866
 20
370.1636534595
  0
VERTEX
  8
0
 62
9
  6
CONTINUOUS
 10
-169.6041649004
 20
370.1018283372
  0
VERTEX
  8
0
 62
9
  6
CONTINUOUS
 10
-169.6272785283
 20
370.0422936701
  0
VERTEX
  8
0
 62
9
  6
CONTINUOUS
 10
-169.6469648509
 20
369.9849462956
  0
VERTEX
  8
0
 62
9
  6
CONTINUOUS
 10
-169.6636629499
 20
369.9296796041
  0
VERTEX
  8
0
 62
9
  6
CONTINUOUS
 10
-169.6776451037
 20
369.8765181779
  0
VERTEX
  8
0
 62
9
  6
CONTINUOUS
 10
-169.6892334068
 20
369.8255858108
  0
VERTEX
  8
0
 62
9
  6
CONTINUOUS
 10
-169.6987174932
 20
369.7764782586
  0
VERTEX
  8
0
 62
9
  6
CONTINUOUS
 10
-169.7064132159
 20
369.7294125728
  0
VERTEX
  8
0
 62
9
  6
CONTINUOUS
 10
-169.7125640125
 20
369.6826486589
  0
VERTEX
  8
0
 62
9
  6
CONTINUOUS
 10
-169.7175777251
 20
369.6349091542
  0
VERTEX
  8
0
 62
9
  6
CONTINUOUS
 10
-169.7212769933
 20
369.5850229147
  0
VERTEX
  8
0
 62
9
  6
CONTINUOUS
 10
-169.7236152277
 20
369.5311933925
  0
VERTEX
  8
0
 62
9
  6
CONTINUOUS
 10
-169.724607958
 20
369.4740194371
  0
SEQEND
  0
POLYLINE
  8
0
 62
7
  6
CONTINUOUS
 66
1
 70
0
  0
VERTEX
  8
0
 62
7
  6
CONTINUOUS
 10
-165.724607958
 20
373.4082477217
  0
VERTEX
  8
0
 62
7
  6
CONTINUOUS
 10
-166.0097735768
 20
373.3354380007
  0
VERTEX
  8
0
 62
7
  6
CONTINUOUS
 10
-166.3201601706
 20
373.2503898371
  0
VERTEX
  8
0
 62
7
  6
CONTINUOUS
 10
-166.6157232685
 20
373.1635733167
  0
VERTEX
  8
0
 62
7
  6
CONTINUOUS
 10
-166.8971724201
 20
373.0750352342
  0
VERTEX
  8
0
 62
7
  6
CONTINUOUS
 10
-167.165045362
 20
372.9848545377
  0
VERTEX
  8
0
 62
7
  6
CONTINUOUS
 10
-167.4198191414
 20
372.8931172932
  0
VERTEX
  8
0
 62
7
  6
CONTINUOUS
 10
-167.661986769
 20
372.7998913758
  0
VERTEX
  8
0
 62
7
  6
CONTINUOUS
 10
-167.8919820005
 20
372.705254215
  0
VERTEX
  8
0
 62
7
  6
CONTINUOUS
 10
-168.1102552685
 20
372.609264146
  0
VERTEX
  8
0
 62
7
  6
CONTINUOUS
 10
-168.3171964227
 20
372.5119931957
  0
VERTEX
  8
0
 62
7
  6
CONTINUOUS
 10
-168.5132137664
 20
372.4134931922
  0
VERTEX
  8
0
 62
7
  6
CONTINUOUS
 10
-168.6986540605
 20
372.3138347561
  0
VERTEX
  8
0
 62
7
  6
CONTINUOUS
 10
-168.8738858569
 20
372.2130665745
  0
VERTEX
  8
0
 62
7
  6
CONTINUOUS
 10
-169.0392110237
 20
372.1112652142
  0
VERTEX
  8
0
 62
7
  6
CONTINUOUS
 10
-169.1949593742
 20
372.008482525
  0
VERTEX
  8
0
 62
7
  6
CONTINUOUS
 10
-169.3413864915
 20
371.9048122135
  0
VERTEX
  8
0
 62
7
  6
CONTINUOUS
 10
-169.4787840307
 20
371.8003201568
  0
VERTEX
  8
0
 62
7
  6
CONTINUOUS
 10
-169.6073638358
 20
371.6951319398
  0
VERTEX
  8
0
 62
7
  6
CONTINUOUS
 10
-169.727382474
 20
371.5893431891
  0
VERTEX
  8
0
 62
7
  6
CONTINUOUS
 10
-169.8390168011
 20
371.4831290269
  0
VERTEX
  8
0
 62
7
  6
CONTINUOUS
 10
-169.9424933297
 20
371.3766381789
  0
VERTEX
  8
0
 62
7
  6
CONTINUOUS
 10
-170.0379790909
 20
371.2701048951
  0
VERTEX
  8
0
 62
7
  6
CONTINUOUS
 10
-170.1256869147
 20
371.1637511094
  0
VERTEX
  8
0
 62
7
  6
CONTINUOUS
 10
-170.2058092413
 20
371.0578658184
  0
VERTEX
  8
0
 62
7
  6
CONTINUOUS
 10
-170.2785720771
 20
370.9527496109
  0
VERTEX
  8
0
 62
7
  6
CONTINUOUS
 10
-170.344225222
 20
370.848727312
  0
VERTEX
  8
0
 62
7
  6
CONTINUOUS
 10
-170.4030350438
 20
370.7461636265
  0
VERTEX
  8
0
 62
7
  6
CONTINUOUS
 10
-170.4553262751
 20
370.6453879352
  0
VERTEX
  8
0
 62
7
  6
CONTINUOUS
 10
-170.5014176749
 20
370.5468048271
  0
VERTEX
  8
0
 62
7
  6
CONTINUOUS
 10
-170.5417195621
 20
370.4506794133
  0
VERTEX
  8
0
 62
7
  6
CONTINUOUS
 10
-170.5766086184
 20
370.3573862591
  0
VERTEX
  8
0
 62
7
  6
CONTINUOUS
 10
-170.606558004
 20
370.2670550795
  0
VERTEX
  8
0
 62
7
  6
CONTINUOUS
 10
-170.6320043125
 20
370.1798664984
  0
VERTEX
  8
0
 62
7
  6
CONTINUOUS
 10
-170.6533743287
 20
370.0959827584
  0
VERTEX
  8
0
 62
7
  6
CONTINUOUS
 10
-170.6710307175
 20
370.0157982434
  0
VERTEX
  8
0
 62
7
  6
CONTINUOUS
 10
-170.6855195269
 20
369.9387142474
  0
VERTEX
  8
0
 62
7
  6
CONTINUOUS
 10
-170.697169798
 20
369.8648918697
  0
VERTEX
  8
0
 62
7
  6
CONTINUOUS
 10
-170.7065844427
 20
369.7920353058
  0
VERTEX
  8
0
 62
7
  6
CONTINUOUS
 10
-170.7140882826
 20
369.7179188857
  0
VERTEX
  8
0
 62
7
  6
CONTINUOUS
 10
-170.7196958171
 20
369.6413444928
  0
VERTEX
  8
0
 62
7
  6
CONTINUOUS
 10
-170.7233243791
 20
369.5599088326
  0
VERTEX
  8
0
 62
7
  6
CONTINUOUS
 10
-170.724607958
 20
369.4740194371
  0
SEQEND
  0
LINE
  8
0
 62
7
  6
CONTINUOUS
 10
-90.724607958
 20
446.9740194371
 11
459.275392042
 21
446.9740194371
  0
LINE
  8
0
 62
7
  6
CONTINUOUS
 10
-90.724607958
 20
471.9740194371
 11
459.275392042
 21
471.9740194371
  0
LINE
  8
0
 62
9
  6
CONTINUOUS
 10
488.1343284964
 20
347.0425199952
 11
487.2040794088
 21
347.4094486464
  0
LINE
  8
0
 62
9
  6
CONTINUOUS
 10
492.5312638485
 20
358.189769158
 11
491.6010147609
 21
358.5566978092
  0
POLYLINE
  8
0
 62
7
  6
CONTINUOUS
 66
1
 70
0
  0
VERTEX
  8
0
 62
7
  6
CONTINUOUS
 10
539.275392042
 20
-35.5259805629
  0
VERTEX
  8
0
 62
7
  6
CONTINUOUS
 10
539.2745283479
 20
-35.4554713
  0
VERTEX
  8
0
 62
7
  6
CONTINUOUS
 10
539.2716969005
 20
-35.3806920955
  0
VERTEX
  8
0
 62
7
  6
CONTINUOUS
 10
539.2665855066
 20
-35.3025854468
  0
VERTEX
  8
0
 62
7
  6
CONTINUOUS
 10
539.2587007224
 20
-35.2197538859
  0
VERTEX
  8
0
 62
7
  6
CONTINUOUS
 10
539.2474126785
 20
-35.1313508951
  0
VERTEX
  8
0
 62
7
  6
CONTINUOUS
 10
539.2320727523
 20
-35.0374118278
  0
VERTEX
  8
0
 62
7
  6
CONTINUOUS
 10
539.21193869
 20
-34.9378701444
  0
VERTEX
  8
0
 62
7
  6
CONTINUOUS
 10
539.1861744301
 20
-34.8326720904
  0
VERTEX
  8
0
 62
7
  6
CONTINUOUS
 10
539.1538379363
 20
-34.7217724644
  0
VERTEX
  8
0
 62
7
  6
CONTINUOUS
 10
539.1140243832
 20
-34.6055595624
  0
VERTEX
  8
0
 62
7
  6
CONTINUOUS
 10
539.0657156095
 20
-34.4842521225
  0
VERTEX
  8
0
 62
7
  6
CONTINUOUS
 10
539.008055075
 20
-34.3585681297
  0
VERTEX
  8
0
 62
7
  6
CONTINUOUS
 10
538.9400878717
 20
-34.2289706611
  0
VERTEX
  8
0
 62
7
  6
CONTINUOUS
 10
538.8611420699
 20
-34.0963920514
  0
VERTEX
  8
0
 62
7
  6
CONTINUOUS
 10
538.7705070651
 20
-33.9615144509
  0
VERTEX
  8
0
 62
7
  6
CONTINUOUS
 10
538.6676993793
 20
-33.8251960834
  0
VERTEX
  8
0
 62
7
  6
CONTINUOUS
 10
538.5522899089
 20
-33.6881632557
  0
VERTEX
  8
0
 62
7
  6
CONTINUOUS
 10
538.42388104
 20
-33.5510177552
  0
VERTEX
  8
0
 62
7
  6
CONTINUOUS
 10
538.2822000973
 20
-33.4143551571
  0
VERTEX
  8
0
 62
7
  6
CONTINUOUS
 10
538.126835783
 20
-33.2785277814
  0
VERTEX
  8
0
 62
7
  6
CONTINUOUS
 10
537.9575208547
 20
-33.1439474341
  0
VERTEX
  8
0
 62
7
  6
CONTINUOUS
 10
537.7737767628
 20
-33.0108049398
  0
VERTEX
  8
0
 62
7
  6
CONTINUOUS
 10
537.5752504216
 20
-32.8793655057
  0
VERTEX
  8
0
 62
7
  6
CONTINUOUS
 10
537.3613758805
 20
-32.7497401072
  0
VERTEX
  8
0
 62
7
  6
CONTINUOUS
 10
537.1316820617
 20
-32.6221075935
  0
VERTEX
  8
0
 62
7
  6
CONTINUOUS
 10
536.8855094681
 20
-32.4965513438
  0
VERTEX
  8
0
 62
7
  6
CONTINUOUS
 10
536.6222666297
 20
-32.3732123746
  0
VERTEX
  8
0
 62
7
  6
CONTINUOUS
 10
536.3411992671
 20
-32.2521757446
  0
VERTEX
  8
0
 62
7
  6
CONTINUOUS
 10
536.0416031857
 20
-32.1335760248
  0
VERTEX
  8
0
 62
7
  6
CONTINUOUS
 10
535.7226275357
 20
-32.0175148197
  0
VERTEX
  8
0
 62
7
  6
CONTINUOUS
 10
535.3834624816
 20
-31.9041381413
  0
VERTEX
  8
0
 62
7
  6
CONTINUOUS
 10
535.0231566465
 20
-31.793571477
  0
VERTEX
  8
0
 62
7
  6
CONTINUOUS
 10
534.6404566957
 20
-31.6858901019
  0
VERTEX
  8
0
 62
7
  6
CONTINUOUS
 10
534.275392042
 20
-31.5918440552
  0
SEQEND
  0
POLYLINE
  8
0
 62
9
  6
CONTINUOUS
 66
1
 70
0
  0
VERTEX
  8
0
 62
9
  6
CONTINUOUS
 10
505.275392042
 20
349.4740194371
  0
VERTEX
  8
0
 62
9
  6
CONTINUOUS
 10
505.2758372221
 20
349.4289412199
  0
VERTEX
  8
0
 62
9
  6
CONTINUOUS
 10
505.2776717289
 20
349.3819817946
  0
VERTEX
  8
0
 62
9
  6
CONTINUOUS
 10
505.2807525641
 20
349.3333445828
  0
VERTEX
  8
0
 62
9
  6
CONTINUOUS
 10
505.2855087223
 20
349.2824193195
  0
VERTEX
  8
0
 62
9
  6
CONTINUOUS
 10
505.2921798988
 20
349.2286477132
  0
VERTEX
  8
0
 62
9
  6
CONTINUOUS
 10
505.3011909943
 20
349.1720772643
  0
VERTEX
  8
0
 62
9
  6
CONTINUOUS
 10
505.3128577977
 20
349.1126184839
  0
VERTEX
  8
0
 62
9
  6
CONTINUOUS
 10
505.3277473405
 20
349.050124048
  0
VERTEX
  8
0
 62
9
  6
CONTINUOUS
 10
505.3462933525
 20
348.9844507639
  0
VERTEX
  8
0
 62
9
  6
CONTINUOUS
 10
505.3692115279
 20
348.9154967488
  0
VERTEX
  8
0
 62
9
  6
CONTINUOUS
 10
505.3970741627
 20
348.8431332866
  0
VERTEX
  8
0
 62
9
  6
CONTINUOUS
 10
505.4307451806
 20
348.7672976848
  0
VERTEX
  8
0
 62
9
  6
CONTINUOUS
 10
505.4709661147
 20
348.6878627971
  0
VERTEX
  8
0
 62
9
  6
CONTINUOUS
 10
505.5186764318
 20
348.6048932674
  0
VERTEX
  8
0
 62
9
  6
CONTINUOUS
 10
505.5747589315
 20
348.5183380245
  0
VERTEX
  8
0
 62
9
  6
CONTINUOUS
 10
505.6401251476
 20
348.4284170671
  0
VERTEX
  8
0
 62
9
  6
CONTINUOUS
 10
505.7157091774
 20
348.3352221065
  0
VERTEX
  8
0
 62
9
  6
CONTINUOUS
 10
505.8023261294
 20
348.2390869341
  0
VERTEX
  8
0
 62
9
  6
CONTINUOUS
 10
505.9008663209
 20
348.140248203
  0
VERTEX
  8
0
 62
9
  6
CONTINUOUS
 10
506.0120382234
 20
348.0390890394
  0
VERTEX
  8
0
 62
9
  6
CONTINUOUS
 10
506.136635004
 20
347.9359450205
  0
VERTEX
  8
0
 62
9
  6
CONTINUOUS
 10
506.2752928939
 20
347.8311954468
  0
VERTEX
  8
0
 62
9
  6
CONTINUOUS
 10
506.428707958
 20
347.7252154255
  0
VERTEX
  8
0
 62
9
  6
CONTINUOUS
 10
506.5974938627
 20
347.6183531139
  0
VERTEX
  8
0
 62
9
  6
CONTINUOUS
 10
506.7822849284
 20
347.5109776831
  0
VERTEX
  8
0
 62
9
  6
CONTINUOUS
 10
506.9837152576
 20
347.4034011998
  0
VERTEX
  8
0
 62
9
  6
CONTINUOUS
 10
507.2024022455
 20
347.2959644891
  0
VERTEX
  8
0
 62
9
  6
CONTINUOUS
 10
507.4390303346
 20
347.1889504465
  0
VERTEX
  8
0
 62
9
  6
CONTINUOUS
 10
507.6942384421
 20
347.0826674607
  0
VERTEX
  8
0
 62
9
  6
CONTINUOUS
 10
507.9687805391
 20
346.9773798763
  0
VERTEX
  8
0
 62
9
  6
CONTINUOUS
 10
508.2633443912
 20
346.8733651863
  0
VERTEX
  8
0
 62
9
  6
CONTINUOUS
 10
508.5787675316
 20
346.7708923347
  0
VERTEX
  8
0
 62
9
  6
CONTINUOUS
 10
508.9162500971
 20
346.6703679432
  0
VERTEX
  8
0
 62
9
  6
CONTINUOUS
 10
509.275392042
 20
346.5716564713
  0
SEQEND
  0
POLYLINE
  8
0
 62
9
  6
CONTINUOUS
 66
1
 70
0
  0
VERTEX
  8
0
 62
9
  6
CONTINUOUS
 10
538.275392042
 20
-35.5259805629
  0
VERTEX
  8
0
 62
9
  6
CONTINUOUS
 10
538.2749468618
 20
-35.4809023473
  0
VERTEX
  8
0
 62
9
  6
CONTINUOUS
 10
538.2731123551
 20
-35.4339429233
  0
VERTEX
  8
0
 62
9
  6
CONTINUOUS
 10
538.2700315201
 20
-35.3853057124
  0
VERTEX
  8
0
 62
9
  6
CONTINUOUS
 10
538.265275362
 20
-35.3343804495
  0
VERTEX
  8
0
 62
9
  6
CONTINUOUS
 10
538.2586041856
 20
-35.2806088428
  0
VERTEX
  8
0
 62
9
  6
CONTINUOUS
 10
538.2495930902
 20
-35.2240383933
  0
VERTEX
  8
0
 62
9
  6
CONTINUOUS
 10
538.237926287
 20
-35.1645796133
  0
VERTEX
  8
0
 62
9
  6
CONTINUOUS
 10
538.2230367445
 20
-35.1020851779
  0
VERTEX
  8
0
 62
9
  6
CONTINUOUS
 10
538.2044907327
 20
-35.0364118939
  0
VERTEX
  8
0
 62
9
  6
CONTINUOUS
 10
538.1815725577
 20
-34.9674578791
  0
VERTEX
  8
0
 62
9
  6
CONTINUOUS
 10
538.1537099234
 20
-34.8950944177
  0
VERTEX
  8
0
 62
9
  6
CONTINUOUS
 10
538.1200389062
 20
-34.8192588166
  0
VERTEX
  8
0
 62
9
  6
CONTINUOUS
 10
538.0798179729
 20
-34.7398239298
  0
VERTEX
  8
0
 62
9
  6
CONTINUOUS
 10
538.0321076567
 20
-34.6568544007
  0
VERTEX
  8
0
 62
9
  6
CONTINUOUS
 10
537.9760251579
 20
-34.5702991583
  0
VERTEX
  8
0
 62
9
  6
CONTINUOUS
 10
537.9106589427
 20
-34.4803782012
  0
VERTEX
  8
0
 62
9
  6
CONTINUOUS
 10
537.8350749137
 20
-34.3871832407
  0
VERTEX
  8
0
 62
9
  6
CONTINUOUS
 10
537.7484579624
 20
-34.2910480683
  0
VERTEX
  8
0
 62
9
  6
CONTINUOUS
 10
537.6499177717
 20
-34.1922093372
  0
VERTEX
  8
0
 62
9
  6
CONTINUOUS
 10
537.5387458699
 20
-34.0910501735
  0
VERTEX
  8
0
 62
9
  6
CONTINUOUS
 10
537.4141490901
 20
-33.9879061545
  0
VERTEX
  8
0
 62
9
  6
CONTINUOUS
 10
537.2754912011
 20
-33.8831565807
  0
VERTEX
  8
0
 62
9
  6
CONTINUOUS
 10
537.1220761379
 20
-33.7771765593
  0
VERTEX
  8
0
 62
9
  6
CONTINUOUS
 10
536.9532902341
 20
-33.6703142475
  0
VERTEX
  8
0
 62
9
  6
CONTINUOUS
 10
536.7684991692
 20
-33.5629388164
  0
VERTEX
  8
0
 62
9
  6
CONTINUOUS
 10
536.5670688405
 20
-33.4553623327
  0
VERTEX
  8
0
 62
9
  6
CONTINUOUS
 10
536.3483818529
 20
-33.3479256216
  0
VERTEX
  8
0
 62
9
  6
CONTINUOUS
 10
536.1117537637
 20
-33.2409115783
  0
VERTEX
  8
0
 62
9
  6
CONTINUOUS
 10
535.8565456556
 20
-33.1346285917
  0
VERTEX
  8
0
 62
9
  6
CONTINUOUS
 10
535.5820035575
 20
-33.0293410065
  0
VERTEX
  8
0
 62
9
  6
CONTINUOUS
 10
535.2874397035
 20
-32.9253263152
  0
VERTEX
  8
0
 62
9
  6
CONTINUOUS
 10
534.9720165605
 20
-32.8228534627
  0
VERTEX
  8
0
 62
9
  6
CONTINUOUS
 10
534.6345339914
 20
-32.7223290713
  0
VERTEX
  8
0
 62
9
  6
CONTINUOUS
 10
534.275392042
 20
-32.6236176003
  0
SEQEND
  0
LINE
  8
0
 62
7
  6
CONTINUOUS
 10
508.025392042
 20
-54.0259805629
 11
508.025392042
 21
-37.0259805629
  0
LINE
  8
0
 62
7
  6
CONTINUOUS
 10
508.025392042
 20
350.9740194371
 11
508.025392042
 21
367.9740194371
  0
LINE
  8
0
 62
7
  6
CONTINUOUS
 10
509.275392042
 20
396.9740194371
 11
509.275392042
 21
367.9740194371
  0
LINE
  8
0
 62
7
  6
CONTINUOUS
 10
509.275392042
 20
350.9740194371
 11
509.275392042
 21
321.9740194371
  0
LINE
  8
0
 62
7
  6
CONTINUOUS
 10
509.275392042
 20
-8.0259805629
 11
509.275392042
 21
-37.0259805629
  0
LINE
  8
0
 62
7
  6
CONTINUOUS
 10
509.275392042
 20
-54.0259805629
 11
509.275392042
 21
-83.0259805629
  0
LINE
  8
0
 62
7
  6
CONTINUOUS
 10
534.275392042
 20
396.9740194371
 11
534.275392042
 21
367.9740194371
  0
LINE
  8
0
 62
7
  6
CONTINUOUS
 10
534.275392042
 20
350.9740194371
 11
534.275392042
 21
321.9740194371
  0
LINE
  8
0
 62
7
  6
CONTINUOUS
 10
534.275392042
 20
-8.0259805629
 11
534.275392042
 21
-37.0259805629
  0
LINE
  8
0
 62
7
  6
CONTINUOUS
 10
534.275392042
 20
-54.0259805629
 11
534.275392042
 21
-83.0259805629
  0
LINE
  8
0
 62
7
  6
CONTINUOUS
 10
535.525392042
 20
-54.0259805629
 11
535.525392042
 21
-37.0259805629
  0
LINE
  8
0
 62
7
  6
CONTINUOUS
 10
535.525392042
 20
350.9740194371
 11
535.525392042
 21
367.9740194371
  0
LINE
  8
0
 62
9
  6
CONTINUOUS
 10
538.275392042
 20
-55.5259805629
 11
538.275392042
 21
-35.5259805629
  0
LINE
  8
0
 62
9
  6
CONTINUOUS
 10
538.275392042
 20
349.4740194371
 11
538.275392042
 21
369.4740194371
  0
POLYLINE
  8
0
 62
7
  6
CONTINUOUS
 66
1
 70
0
  0
VERTEX
  8
0
 62
7
  6
CONTINUOUS
 10
539.275392042
 20
369.4740194371
  0
VERTEX
  8
0
 62
7
  6
CONTINUOUS
 10
539.274528348
 20
369.5445286956
  0
VERTEX
  8
0
 62
7
  6
CONTINUOUS
 10
539.2716969008
 20
369.6193078979
  0
VERTEX
  8
0
 62
7
  6
CONTINUOUS
 10
539.266585507
 20
369.6974145475
  0
VERTEX
  8
0
 62
7
  6
CONTINUOUS
 10
539.2587007229
 20
369.7802461098
  0
VERTEX
  8
0
 62
7
  6
CONTINUOUS
 10
539.2474126792
 20
369.8686491
  0
VERTEX
  8
0
 62
7
  6
CONTINUOUS
 10
539.2320727533
 20
369.9625881666
  0
VERTEX
  8
0
 62
7
  6
CONTINUOUS
 10
539.2119386913
 20
370.0621298499
  0
VERTEX
  8
0
 62
7
  6
CONTINUOUS
 10
539.1861744316
 20
370.167327904
  0
VERTEX
  8
0
 62
7
  6
CONTINUOUS
 10
539.1538379381
 20
370.2782275299
  0
VERTEX
  8
0
 62
7
  6
CONTINUOUS
 10
539.1140243855
 20
370.3944404317
  0
VERTEX
  8
0
 62
7
  6
CONTINUOUS
 10
539.0657156121
 20
370.5157478714
  0
VERTEX
  8
0
 62
7
  6
CONTINUOUS
 10
539.0080550781
 20
370.641431864
  0
VERTEX
  8
0
 62
7
  6
CONTINUOUS
 10
538.9400878753
 20
370.7710293323
  0
VERTEX
  8
0
 62
7
  6
CONTINUOUS
 10
538.8611420741
 20
370.9036079419
  0
VERTEX
  8
0
 62
7
  6
CONTINUOUS
 10
538.7705070699
 20
371.0384855423
  0
VERTEX
  8
0
 62
7
  6
CONTINUOUS
 10
538.6676993847
 20
371.1748039098
  0
VERTEX
  8
0
 62
7
  6
CONTINUOUS
 10
538.552289915
 20
371.3118367375
  0
VERTEX
  8
0
 62
7
  6
CONTINUOUS
 10
538.4238810466
 20
371.4489822381
  0
VERTEX
  8
0
 62
7
  6
CONTINUOUS
 10
538.2822001045
 20
371.5856448363
  0
VERTEX
  8
0
 62
7
  6
CONTINUOUS
 10
538.1268357906
 20
371.7214722122
  0
VERTEX
  8
0
 62
7
  6
CONTINUOUS
 10
537.9575208628
 20
371.8560525598
  0
VERTEX
  8
0
 62
7
  6
CONTINUOUS
 10
537.7737767713
 20
371.9891950543
  0
VERTEX
  8
0
 62
7
  6
CONTINUOUS
 10
537.5752504303
 20
372.1206344888
  0
VERTEX
  8
0
 62
7
  6
CONTINUOUS
 10
537.3613758893
 20
372.2502598876
  0
VERTEX
  8
0
 62
7
  6
CONTINUOUS
 10
537.1316820705
 20
372.3778924018
  0
VERTEX
  8
0
 62
7
  6
CONTINUOUS
 10
536.8855094768
 20
372.503448652
  0
VERTEX
  8
0
 62
7
  6
CONTINUOUS
 10
536.6222666381
 20
372.6267876216
  0
VERTEX
  8
0
 62
7
  6
CONTINUOUS
 10
536.341199275
 20
372.7478242522
  0
VERTEX
  8
0
 62
7
  6
CONTINUOUS
 10
536.0416031929
 20
372.8664239725
  0
VERTEX
  8
0
 62
7
  6
CONTINUOUS
 10
535.722627542
 20
372.9824851781
  0
VERTEX
  8
0
 62
7
  6
CONTINUOUS
 10
535.3834624868
 20
373.0958618571
  0
VERTEX
  8
0
 62
7
  6
CONTINUOUS
 10
535.0231566502
 20
373.2064285219
  0
VERTEX
  8
0
 62
7
  6
CONTINUOUS
 10
534.6404566978
 20
373.3141098976
  0
VERTEX
  8
0
 62
7
  6
CONTINUOUS
 10
534.275392042
 20
373.4081559448
  0
SEQEND
  0
POLYLINE
  8
0
 62
9
  6
CONTINUOUS
 66
1
 70
0
  0
VERTEX
  8
0
 62
9
  6
CONTINUOUS
 10
538.275392042
 20
369.4740194371
  0
VERTEX
  8
0
 62
9
  6
CONTINUOUS
 10
538.2749468619
 20
369.5190976499
  0
VERTEX
  8
0
 62
9
  6
CONTINUOUS
 10
538.2731123553
 20
369.5660570726
  0
VERTEX
  8
0
 62
9
  6
CONTINUOUS
 10
538.2700315204
 20
369.6146942839
  0
VERTEX
  8
0
 62
9
  6
CONTINUOUS
 10
538.2652753623
 20
369.6656195478
  0
VERTEX
  8
0
 62
9
  6
CONTINUOUS
 10
538.2586041861
 20
369.7193911542
  0
VERTEX
  8
0
 62
9
  6
CONTINUOUS
 10
538.2495930908
 20
369.7759616033
  0
VERTEX
  8
0
 62
9
  6
CONTINUOUS
 10
538.2379262877
 20
369.8354203833
  0
VERTEX
  8
0
 62
9
  6
CONTINUOUS
 10
538.2230367453
 20
369.8979148187
  0
VERTEX
  8
0
 62
9
  6
CONTINUOUS
 10
538.2044907337
 20
369.9635881026
  0
VERTEX
  8
0
 62
9
  6
CONTINUOUS
 10
538.1815725589
 20
370.0325421174
  0
VERTEX
  8
0
 62
9
  6
CONTINUOUS
 10
538.1537099249
 20
370.1049055786
  0
VERTEX
  8
0
 62
9
  6
CONTINUOUS
 10
538.1200389081
 20
370.1807411795
  0
VERTEX
  8
0
 62
9
  6
CONTINUOUS
 10
538.0798179751
 20
370.2601760662
  0
VERTEX
  8
0
 62
9
  6
CONTINUOUS
 10
538.0321076593
 20
370.3431455951
  0
VERTEX
  8
0
 62
9
  6
CONTINUOUS
 10
537.9760251608
 20
370.4297008374
  0
VERTEX
  8
0
 62
9
  6
CONTINUOUS
 10
537.9106589461
 20
370.5196217943
  0
VERTEX
  8
0
 62
9
  6
CONTINUOUS
 10
537.8350749176
 20
370.6128167547
  0
VERTEX
  8
0
 62
9
  6
CONTINUOUS
 10
537.7484579668
 20
370.708951927
  0
VERTEX
  8
0
 62
9
  6
CONTINUOUS
 10
537.6499177766
 20
370.8077906581
  0
VERTEX
  8
0
 62
9
  6
CONTINUOUS
 10
537.5387458753
 20
370.9089498217
  0
VERTEX
  8
0
 62
9
  6
CONTINUOUS
 10
537.4141490961
 20
371.0120938408
  0
VERTEX
  8
0
 62
9
  6
CONTINUOUS
 10
537.2754912074
 20
371.1168434147
  0
VERTEX
  8
0
 62
9
  6
CONTINUOUS
 10
537.1220761446
 20
371.2228234363
  0
VERTEX
  8
0
 62
9
  6
CONTINUOUS
 10
536.953290241
 20
371.3296857483
  0
VERTEX
  8
0
 62
9
  6
CONTINUOUS
 10
536.7684991762
 20
371.4370611796
  0
VERTEX
  8
0
 62
9
  6
CONTINUOUS
 10
536.5670688475
 20
371.5446376637
  0
VERTEX
  8
0
 62
9
  6
CONTINUOUS
 10
536.3483818598
 20
371.6520743752
  0
VERTEX
  8
0
 62
9
  6
CONTINUOUS
 10
536.1117537703
 20
371.7590884188
  0
VERTEX
  8
0
 62
9
  6
CONTINUOUS
 10
535.8565456617
 20
371.8653714058
  0
VERTEX
  8
0
 62
9
  6
CONTINUOUS
 10
535.5820035629
 20
371.9706589916
  0
VERTEX
  8
0
 62
9
  6
CONTINUOUS
 10
535.2874397079
 20
372.0746736833
  0
VERTEX
  8
0
 62
9
  6
CONTINUOUS
 10
534.9720165637
 20
372.1771465363
  0
VERTEX
  8
0
 62
9
  6
CONTINUOUS
 10
534.6345339932
 20
372.2776709282
  0
VERTEX
  8
0
 62
9
  6
CONTINUOUS
 10
534.275392042
 20
372.3763823997
  0
SEQEND
  0
LINE
  8
0
 62
7
  6
CONTINUOUS
 10
539.275392042
 20
-55.5259805629
 11
539.275392042
 21
-35.5259805629
  0
LINE
  8
0
 62
7
  6
CONTINUOUS
 10
539.275392042
 20
349.4740194371
 11
539.275392042
 21
369.4740194371
  0
LINE
  8
0
 62
7
  6
CONTINUOUS
 10
491.6010147609
 20
-46.4433021908
 11
487.2040794088
 21
-57.5905513536
  0
LINE
  8
0
 62
9
  6
CONTINUOUS
 10
492.5312638485
 20
-46.810230842
 11
488.1343284964
 21
-57.9574800048
  0
LINE
  8
0
 62
7
  6
CONTINUOUS
 10
487.2040794088
 20
371.5385902277
 11
491.6010147609
 21
360.391341065
  0
LINE
  8
0
 62
9
  6
CONTINUOUS
 10
488.1343284964
 20
371.9055188789
 11
492.5312638485
 21
360.7582697162
  0
ARC
  8
0
 62
7
  6
CONTINUOUS
 10
-33.224607958
 20
116.9740194371
 40
75.0
 50
180.0
 51
270.0
  0
ARC
  8
0
 62
7
  6
CONTINUOUS
 10
-33.224607958
 20
116.9740194371
 40
50.0
 50
180.0
 51
270.0
  0
ARC
  8
0
 62
7
  6
CONTINUOUS
 10
-126.0952880255
 20
-72.5259805629
 40
50.0
 50
90.0
 51
107.0145017465
  0
ARC
  8
0
 62
7
  6
CONTINUOUS
 10
-126.0952880255
 20
-18.5259805629
 40
50.0
 50
252.9859463339
 51
270.0
  0
ARC
  8
0
 62
9
  6
CONTINUOUS
 10
-126.0952880255
 20
-18.5259805629
 40
48.9999999998
 50
252.6285571435
 51
270.0
  0
ARC
  8
0
 62
9
  6
CONTINUOUS
 10
-126.0952880255
 20
-72.5259805629
 40
48.9999999998
 50
90.0
 51
107.3720094663
  0
ARC
  8
0
 62
7
  6
CONTINUOUS
 10
-126.0952880255
 20
-30.5259805629
 40
8.0
 50
338.4736765142
 51
90.0
  0
ARC
  8
0
 62
7
  6
CONTINUOUS
 10
-126.0952880255
 20
-60.5259805629
 40
8.0
 50
270.0
 51
21.5263234858
  0
ARC
  8
0
 62
9
  6
CONTINUOUS
 10
-126.0952880255
 20
-60.5259805629
 40
7.0
 50
270.0
 51
21.5263234858
  0
ARC
  8
0
 62
9
  6
CONTINUOUS
 10
-126.0952880255
 20
-30.5259805629
 40
7.0
 50
338.4736765142
 51
90.0
  0
ARC
  8
0
 62
9
  6
CONTINUOUS
 10
-120.724607958
 20
-45.5259805629
 40
3.5
 50
158.4736765142
 51
201.5263234858
  0
ARC
  8
0
 62
7
  6
CONTINUOUS
 10
-120.724607958
 20
-45.5259805629
 40
2.5
 50
158.4736765142
 51
201.5263234858
  0
ARC
  8
0
 62
7
  6
CONTINUOUS
 10
-90.724607958
 20
396.9740194371
 40
75.0
 50
90.0
 51
180.0
  0
ARC
  8
0
 62
7
  6
CONTINUOUS
 10
-33.224607958
 20
196.9740194371
 40
75.0
 50
90.0
 51
180.0
  0
ARC
  8
0
 62
7
  6
CONTINUOUS
 10
-90.724607958
 20
396.9740194371
 40
50.0
 50
90.0
 51
180.0
  0
ARC
  8
0
 62
7
  6
CONTINUOUS
 10
-33.224607958
 20
196.9740194371
 40
50.0
 50
90.0
 51
180.0
  0
ARC
  8
0
 62
7
  6
CONTINUOUS
 10
-126.0952880255
 20
332.4740194371
 40
50.0
 50
90.0
 51
107.0145017465
  0
ARC
  8
0
 62
7
  6
CONTINUOUS
 10
-126.0952880255
 20
386.4740194371
 40
50.0
 50
252.9859463339
 51
270.0
  0
ARC
  8
0
 62
9
  6
CONTINUOUS
 10
-126.0952880255
 20
386.4740194371
 40
48.9999999998
 50
252.6285571435
 51
270.0
  0
ARC
  8
0
 62
9
  6
CONTINUOUS
 10
-126.0952880255
 20
332.4740194371
 40
48.9999999998
 50
90.0
 51
107.3720094663
  0
ARC
  8
0
 62
7
  6
CONTINUOUS
 10
-126.0952880255
 20
374.4740194371
 40
8.0
 50
338.4736765142
 51
90.0
  0
ARC
  8
0
 62
7
  6
CONTINUOUS
 10
-126.0952880255
 20
344.4740194371
 40
8.0
 50
270.0
 51
21.5263234858
  0
ARC
  8
0
 62
9
  6
CONTINUOUS
 10
-126.0952880255
 20
344.4740194371
 40
7.0
 50
270.0
 51
21.5263234858
  0
ARC
  8
0
 62
9
  6
CONTINUOUS
 10
-126.0952880255
 20
374.4740194371
 40
7.0
 50
338.4736765142
 51
90.0
  0
ARC
  8
0
 62
9
  6
CONTINUOUS
 10
-120.724607958
 20
359.4740194371
 40
3.5
 50
158.4736765142
 51
201.5263234858
  0
ARC
  8
0
 62
7
  6
CONTINUOUS
 10
-120.724607958
 20
359.4740194371
 40
2.5
 50
158.4736765142
 51
201.5263234858
  0
ARC
  8
0
 62
7
  6
CONTINUOUS
 10
459.275392042
 20
-8.0259805629
 40
75.0
 50
0.0
 51
90.0
  0
ARC
  8
0
 62
7
  6
CONTINUOUS
 10
459.275392042
 20
-83.0259805629
 40
75.0
 50
270.0
 51
360.0
  0
ARC
  8
0
 62
7
  6
CONTINUOUS
 10
459.275392042
 20
-8.0259805629
 40
50.0
 50
0.0
 51
90.0
  0
ARC
  8
0
 62
7
  6
CONTINUOUS
 10
459.275392042
 20
-83.0259805629
 40
50.0
 50
270.0
 51
360.0
  0
ARC
  8
0
 62
7
  6
CONTINUOUS
 10
494.6460721095
 20
-18.5259805629
 40
50.0
 50
270.0
 51
287.014507119
  0
ARC
  8
0
 62
7
  6
CONTINUOUS
 10
494.6460721095
 20
-72.5259805629
 40
50.0
 50
72.9859509817
 51
90.0
  0
ARC
  8
0
 62
9
  6
CONTINUOUS
 10
494.6460721095
 20
-72.5259805629
 40
48.9999999998
 50
72.6285624182
 51
90.0
  0
ARC
  8
0
 62
9
  6
CONTINUOUS
 10
494.6460721095
 20
-18.5259805629
 40
48.9999999998
 50
270.0
 51
287.3720209258
  0
ARC
  8
0
 62
7
  6
CONTINUOUS
 10
494.6460721095
 20
-60.5259805629
 40
8.0
 50
158.4736765142
 51
270.0
  0
ARC
  8
0
 62
7
  6
CONTINUOUS
 10
494.6460721095
 20
-30.5259805629
 40
8.0
 50
90.0
 51
201.5263234858
  0
ARC
  8
0
 62
9
  6
CONTINUOUS
 10
494.6460721095
 20
-60.5259805629
 40
7.0
 50
158.4736765142
 51
270.0
  0
ARC
  8
0
 62
9
  6
CONTINUOUS
 10
494.6460721095
 20
-30.5259805629
 40
7.0
 50
90.0
 51
201.5263234858
  0
ARC
  8
0
 62
9
  6
CONTINUOUS
 10
489.275392042
 20
-45.5259805629
 40
3.5
 50
338.4736765142
 51
21.5263234858
  0
ARC
  8
0
 62
7
  6
CONTINUOUS
 10
489.275392042
 20
-45.5259805629
 40
2.5
 50
338.4736765142
 51
21.5263234858
  0
ARC
  8
0
 62
7
  6
CONTINUOUS
 10
459.275392042
 20
396.9740194371
 40
75.0
 50
0.0
 51
90.0
  0
ARC
  8
0
 62
7
  6
CONTINUOUS
 10
459.275392042
 20
321.9740194371
 40
75.0
 50
270.0
 51
360.0
  0
ARC
  8
0
 62
7
  6
CONTINUOUS
 10
459.275392042
 20
396.9740194371
 40
50.0
 50
0.0
 51
90.0
  0
ARC
  8
0
 62
7
  6
CONTINUOUS
 10
459.275392042
 20
321.9740194371
 40
50.0
 50
270.0
 51
360.0
  0
ARC
  8
0
 62
7
  6
CONTINUOUS
 10
494.6460721095
 20
386.4740194371
 40
50.0
 50
270.0
 51
287.014507119
  0
ARC
  8
0
 62
7
  6
CONTINUOUS
 10
494.6460721095
 20
332.4740194371
 40
50.0
 50
72.9859509817
 51
90.0
  0
ARC
  8
0
 62
9
  6
CONTINUOUS
 10
494.6460721095
 20
332.4740194371
 40
48.9999999998
 50
72.6285624182
 51
90.0
  0
ARC
  8
0
 62
9
  6
CONTINUOUS
 10
494.6460721095
 20
386.4740194371
 40
48.9999999998
 50
270.0
 51
287.3720209258
  0
ARC
  8
0
 62
7
  6
CONTINUOUS
 10
494.6460721095
 20
344.4740194371
 40
8.0
 50
158.4736765142
 51
270.0
  0
ARC
  8
0
 62
7
  6
CONTINUOUS
 10
494.6460721095
 20
374.4740194371
 40
8.0
 50
90.0
 51
201.5263234858
  0
ARC
  8
0
 62
9
  6
CONTINUOUS
 10
494.6460721095
 20
344.4740194371
 40
7.0
 50
158.4736765142
 51
270.0
  0
ARC
  8
0
 62
9
  6
CONTINUOUS
 10
494.6460721095
 20
374.4740194371
 40
7.0
 50
90.0
 51
201.5263234858
  0
ARC
  8
0
 62
9
  6
CONTINUOUS
 10
489.275392042
 20
359.4740194371
 40
3.5
 50
338.4736765142
 51
21.5263234858
  0
ARC
  8
0
 62
7
  6
CONTINUOUS
 10
489.275392042
 20
359.4740194371
 40
2.5
 50
338.4736765142
 51
21.5263234858
  0
ENDSEC
  0
EOF
