999
DXF file: K:\Client\125_Heirloom\001\00\Final_Data\Drawings\LADDER TOWEL WARMERS\we700_2.dxf
999
Pro/ENGINEER 2017110 by Parametric Technology Corporation
  0
SECTION
  2
HEADER
  9
$EXTMAX
 10
420.0
 20
297.0
 30
0.0
  9
$EXTMIN
 10
0.0
 20
0.0
 30
0.0
  9
$LIMMIN
 10
0.0
 20
0.0
  9
$LIMMAX
 10
420.0
 20
297.0
  9
$VIEWCTR
 10
210.0
 20
148.5
  9
$VIEWSIZE
 40
297.0
  9
$CLAYER
  8
0
  9
$LTSCALE
 40
23.1
  9
$CELTYPE
  6
BYLAYER
  9
$DIMSCALE
 40
1.0
  9
$DIMASZ
 40
3.0
  9
$DIMEXO
 40
1.0
  9
$DIMDLI
 40
15.96
  9
$DIMEXE
 40
1.0
  9
$DIMCEN
 40
3.78
  9
$DIMLFAC
 40
1.0
  9
$DIMBLK
  1
_FILLED
  9
$DIMALT
 70
0
  9
$DIMALTF
 40
0.0393700787
  9
$DIMTXT
 40
3.0
  9
$AUNITS
 70
0
  9
$PDMODE
 70
3
  9
$PDSIZE
 40
5.0
  9
$TILEMODE
 70
1
  0
ENDSEC
  0
SECTION
  2
TABLES
  0
TABLE
  2
LTYPE
 70
6
  0
LTYPE
  2
BYBLOCK
 70
0
  3

 72
65
 73
0
 40
0.0
  0
LTYPE
  2
BYLAYER
 70
0
  3

 72
65
 73
0
 40
0.0
  0
LTYPE
  2
CONTINUOUS
 70
64
  3
Solid line
 72
65
 73
0
 40
0.0
  0
LTYPE
  2
CENTER
 70
64
  3
____ _ ____ _ ____ _ ____ _ ____ _ ____ _ ____
 72
65
 73
4
 40
0.6
 49
0.375
 49
-0.075
 49
0.075
 49
-0.075
  0
LTYPE
  2
HIDDEN
 70
64
  3
- - - - - - - - - - - - - - - - - - - -
 72
65
 73
2
 40
0.2
 49
0.1
 49
-0.1
  0
LTYPE
  2
PHANTOM
 70
64
  3
_____ _ _ _____ _ _ _____ _ _ _____
 72
65
 73
6
 40
0.8
 49
0.45
 49
-0.05
 49
0.1
 49
-0.05
 49
0.1
 49
-0.05
  0
LTYPE
  2
DOT
 70
64
  3
. . . . . . . . . . . . . . . . . . . .
 72
65
 73
2
 40
0.2
 49
0.1
 49
-0.1
  0
LTYPE
  2
DASHED
 70
64
  3
- - - - - - - - - - - - - - - - - - - -
 72
65
 73
2
 40
0.2
 49
0.1
 49
-0.1
  0
ENDTAB
  0
TABLE
  2
LAYER
 70
36
  0
LAYER
  2
0
 70
0
 62
7
  6
CONTINUOUS
  0
LAYER
  2
DEFAULT_1
 70
0
 62
7
  6
CENTER
  0
LAYER
  2
DEFAULT_2
 70
0
 62
8
  6
HIDDEN
  0
LAYER
  2
DEFAULT_3
 70
0
 62
7
  6
PHANTOM
  0
LAYER
  2
0000_BOM
 70
0
 62
7
  6
CONTINUOUS
  0
LAYER
  2
0000_REV_TABLE
 70
0
 62
7
  6
CONTINUOUS
  0
LAYER
  2
0000_STEVENS_NOTE
 70
0
 62
7
  6
CONTINUOUS
  0
LAYER
  2
01_DATUM_PLANES
 70
0
 62
7
  6
CONTINUOUS
  0
LAYER
  2
01_DEF_PLANES
 70
0
 62
7
  6
CONTINUOUS
  0
LAYER
  2
02_DATUM_COS
 70
0
 62
7
  6
CONTINUOUS
  0
LAYER
  2
99_SOLID
 70
0
 62
7
  6
CONTINUOUS
  0
LAYER
  2
CAD-MASTER_ZINC-PL
 70
0
 62
7
  6
CONTINUOUS
  0
LAYER
  2
CURVE
 70
0
 62
7
  6
CONTINUOUS
  0
LAYER
  2
SKEL
 70
0
 62
7
  6
CONTINUOUS
  0
LAYER
  2
SKETCH
 70
0
 62
7
  6
CONTINUOUS
  0
LAYER
  2
SURFACE
 70
0
 62
7
  6
CONTINUOUS
  0
ENDTAB
  0
TABLE
  2
STYLE
 70
1
  0
STYLE
  2
STANDARD
 70
0
 40
0.0
 41
0.75
 50
0.0
 71
0
 42
0.2
  3
txt
  4

  0
STYLE
  2
TEXTSTYLE_1
 70
0
 40
0.0
 41
0.8
 50
0.0
 71
0
 42
0.2
  3
gdt
  4

  0
ENDTAB
  0
ENDSEC
  0
SECTION
  2
BLOCKS
  0
ENDSEC
  0
SECTION
  2
ENTITIES
  0
LINE
  8
0
 62
7
  6
CONTINUOUS
 10
137.5823510191
 20
-167.4191740561
 11
162.5823029278
 21
-167.4191740561
  0
LINE
  8
0
 62
7
  6
CONTINUOUS
 10
162.5823269735
 20
-82.4191740561
 11
137.5823269735
 21
-82.4191740561
  0
LINE
  8
0
 62
7
  6
CONTINUOUS
 10
211.0823269735
 20
-67.9191740561
 11
220.0823269735
 21
-67.9191740561
  0
LINE
  8
0
 62
7
  6
CONTINUOUS
 10
220.0823269735
 20
-59.9191740561
 11
162.5798267234
 21
-59.9191740561
  0
POLYLINE
  8
0
 62
7
  6
CONTINUOUS
 66
1
 70
0
  0
VERTEX
  8
0
 62
7
  6
CONTINUOUS
 10
162.5798267234
 20
-59.9191740561
  0
VERTEX
  8
0
 62
7
  6
CONTINUOUS
 10
162.556289285
 20
-59.9179001731
  0
VERTEX
  8
0
 62
7
  6
CONTINUOUS
 10
162.5080019215
 20
-59.9138138934
  0
VERTEX
  8
0
 62
7
  6
CONTINUOUS
 10
162.4350566868
 20
-59.9069509407
  0
VERTEX
  8
0
 62
7
  6
CONTINUOUS
 10
162.337649906
 20
-59.8972041442
  0
SEQEND
  0
POLYLINE
  8
0
 62
7
  6
CONTINUOUS
 66
1
 70
0
  0
VERTEX
  8
0
 62
7
  6
CONTINUOUS
 10
151.0823271525
 20
-58.8636317252
  0
VERTEX
  8
0
 62
7
  6
CONTINUOUS
 10
151.0049392603
 20
-58.8590992876
  0
VERTEX
  8
0
 62
7
  6
CONTINUOUS
 10
150.9281506761
 20
-58.8484999628
  0
VERTEX
  8
0
 62
7
  6
CONTINUOUS
 10
150.851620226
 20
-58.8317587979
  0
VERTEX
  8
0
 62
7
  6
CONTINUOUS
 10
150.7763862605
 20
-58.8091006514
  0
VERTEX
  8
0
 62
7
  6
CONTINUOUS
 10
150.7033415556
 20
-58.7806921032
  0
VERTEX
  8
0
 62
7
  6
CONTINUOUS
 10
150.6325859659
 20
-58.7466330359
  0
VERTEX
  8
0
 62
7
  6
CONTINUOUS
 10
150.564410433
 20
-58.7070508333
  0
VERTEX
  8
0
 62
7
  6
CONTINUOUS
 10
150.4991333793
 20
-58.6620295721
  0
VERTEX
  8
0
 62
7
  6
CONTINUOUS
 10
150.4369471086
 20
-58.6115271974
  0
VERTEX
  8
0
 62
7
  6
CONTINUOUS
 10
150.3785190114
 20
-58.5560494885
  0
VERTEX
  8
0
 62
7
  6
CONTINUOUS
 10
150.3244485987
 20
-58.4958770276
  0
VERTEX
  8
0
 62
7
  6
CONTINUOUS
 10
150.2751299326
 20
-58.431643351
  0
VERTEX
  8
0
 62
7
  6
CONTINUOUS
 10
150.2311463641
 20
-58.3639929715
  0
VERTEX
  8
0
 62
7
  6
CONTINUOUS
 10
150.1925268792
 20
-58.2931735424
  0
VERTEX
  8
0
 62
7
  6
CONTINUOUS
 10
150.1594527221
 20
-58.2195815094
  0
VERTEX
  8
0
 62
7
  6
CONTINUOUS
 10
150.1320480191
 20
-58.1434150078
  0
VERTEX
  8
0
 62
7
  6
CONTINUOUS
 10
150.1104231282
 20
-58.064693824
  0
VERTEX
  8
0
 62
7
  6
CONTINUOUS
 10
150.0947991488
 20
-57.9843494501
  0
VERTEX
  8
0
 62
7
  6
CONTINUOUS
 10
150.0854659594
 20
-57.9034372349
  0
VERTEX
  8
0
 62
7
  6
CONTINUOUS
 10
150.0823269735
 20
-57.8216053956
  0
SEQEND
  0
POLYLINE
  8
0
 62
7
  6
CONTINUOUS
 66
1
 70
0
  0
VERTEX
  8
0
 62
7
  6
CONTINUOUS
 10
156.3477459267
 20
-59.2064915948
  0
VERTEX
  8
0
 62
7
  6
CONTINUOUS
 10
155.8719453354
 20
-59.159211934
  0
VERTEX
  8
0
 62
7
  6
CONTINUOUS
 10
155.3904380336
 20
-59.1139651857
  0
VERTEX
  8
0
 62
7
  6
CONTINUOUS
 10
154.905711946
 20
-59.0712672455
  0
VERTEX
  8
0
 62
7
  6
CONTINUOUS
 10
154.4203331365
 20
-59.0317197494
  0
VERTEX
  8
0
 62
7
  6
CONTINUOUS
 10
153.9354965019
 20
-58.9955859443
  0
VERTEX
  8
0
 62
7
  6
CONTINUOUS
 10
153.4531894214
 20
-58.963302813
  0
VERTEX
  8
0
 62
7
  6
CONTINUOUS
 10
152.9732597181
 20
-58.9349507835
  0
VERTEX
  8
0
 62
7
  6
CONTINUOUS
 10
152.4958794481
 20
-58.9107377537
  0
VERTEX
  8
0
 62
7
  6
CONTINUOUS
 10
152.0214447496
 20
-58.8907182974
  0
VERTEX
  8
0
 62
7
  6
CONTINUOUS
 10
151.5499029623
 20
-58.8750317721
  0
VERTEX
  8
0
 62
7
  6
CONTINUOUS
 10
151.0823271525
 20
-58.8636317252
  0
SEQEND
  0
LINE
  8
0
 62
7
  6
CONTINUOUS
 10
162.337649906
 20
-59.8972041442
 11
162.0706121083
 21
-59.8687732311
  0
LINE
  8
0
 62
7
  6
CONTINUOUS
 10
157.2770892755
 20
-59.3051160487
 11
156.3477459267
 21
-59.2064915948
  0
LINE
  8
0
 62
7
  6
CONTINUOUS
 10
162.0706121083
 20
-59.8687732311
 11
161.7085589689
 21
-59.8281278936
  0
LINE
  8
0
 62
7
  6
CONTINUOUS
 10
158.1624658604
 20
-59.4052758155
 11
157.2770892755
 21
-59.3051160487
  0
LINE
  8
0
 62
7
  6
CONTINUOUS
 10
161.7085589689
 20
-59.8281278936
 11
160.7070539118
 21
-59.7099704469
  0
LINE
  8
0
 62
7
  6
CONTINUOUS
 10
160.7070539118
 20
-59.7099704469
 11
158.1624658604
 21
-59.4052758155
  0
LINE
  8
0
 62
7
  6
CONTINUOUS
 10
150.0823269735
 20
-54.9191740561
 11
220.0823269735
 21
-54.9191740561
  0
LINE
  8
0
 62
7
  6
CONTINUOUS
 10
136.3323478784
 20
-53.4191740561
 11
150.0823269735
 21
-53.4191740561
  0
LINE
  8
0
 62
7
  6
CONTINUOUS
 10
158.1871416529
 20
-30.4302119838
 11
161.2607623284
 21
-30.0623421349
  0
LINE
  8
0
 62
7
  6
CONTINUOUS
 10
161.2607623284
 20
-30.0623421349
 11
161.9055046713
 21
-29.9878947468
  0
LINE
  8
0
 62
7
  6
CONTINUOUS
 10
157.3040755167
 20
-30.5302600646
 11
158.1871416529
 21
-30.4302119838
  0
POLYLINE
  8
0
 62
7
  6
CONTINUOUS
 66
1
 70
0
  0
VERTEX
  8
0
 62
7
  6
CONTINUOUS
 10
161.9055046713
 20
-29.9878947468
  0
VERTEX
  8
0
 62
7
  6
CONTINUOUS
 10
162.218300076
 20
-29.953623859
  0
VERTEX
  8
0
 62
7
  6
CONTINUOUS
 10
162.3390830645
 20
-29.9409971557
  0
VERTEX
  8
0
 62
7
  6
CONTINUOUS
 10
162.4359034529
 20
-29.93131511
  0
VERTEX
  8
0
 62
7
  6
CONTINUOUS
 10
162.5084126946
 20
-29.9244974391
  0
VERTEX
  8
0
 62
7
  6
CONTINUOUS
 10
162.5564131298
 20
-29.9204387059
  0
VERTEX
  8
0
 62
7
  6
CONTINUOUS
 10
162.5798267234
 20
-29.9191740561
  0
SEQEND
  0
POLYLINE
  8
0
 62
7
  6
CONTINUOUS
 66
1
 70
0
  0
VERTEX
  8
0
 62
7
  6
CONTINUOUS
 10
151.0823309729
 20
-30.9747160121
  0
VERTEX
  8
0
 62
7
  6
CONTINUOUS
 10
151.5535149687
 20
-30.9632083958
  0
VERTEX
  8
0
 62
7
  6
CONTINUOUS
 10
152.0285207692
 20
-30.9473620483
  0
VERTEX
  8
0
 62
7
  6
CONTINUOUS
 10
152.5062627583
 20
-30.9271261735
  0
VERTEX
  8
0
 62
7
  6
CONTINUOUS
 10
152.9867733242
 20
-30.9026531597
  0
VERTEX
  8
0
 62
7
  6
CONTINUOUS
 10
153.4696312631
 20
-30.8740060685
  0
VERTEX
  8
0
 62
7
  6
CONTINUOUS
 10
153.9546684349
 20
-30.8414020844
  0
VERTEX
  8
0
 62
7
  6
CONTINUOUS
 10
154.4421140932
 20
-30.8049231622
  0
VERTEX
  8
0
 62
7
  6
CONTINUOUS
 10
154.929733792
 20
-30.7650380529
  0
VERTEX
  8
0
 62
7
  6
CONTINUOUS
 10
155.4161153396
 20
-30.7220398663
  0
VERTEX
  8
0
 62
7
  6
CONTINUOUS
 10
155.8987522666
 20
-30.6765374815
  0
VERTEX
  8
0
 62
7
  6
CONTINUOUS
 10
156.375164428
 20
-30.6290617136
  0
VERTEX
  8
0
 62
7
  6
CONTINUOUS
 10
157.3040755167
 20
-30.5302600646
  0
SEQEND
  0
LINE
  8
0
 62
7
  6
CONTINUOUS
 10
136.3323478784
 20
-36.4191740561
 11
150.0823269735
 21
-36.4191740561
  0
LINE
  8
0
 62
7
  6
CONTINUOUS
 10
150.0823269735
 20
-34.9191740561
 11
220.0823269735
 21
-34.9191740561
  0
LINE
  8
0
 62
7
  6
CONTINUOUS
 10
162.5798267234
 20
-29.9191740561
 11
220.0823269735
 21
-29.9191740561
  0
LINE
  8
0
 62
7
  6
CONTINUOUS
 10
211.0823269735
 20
-21.9191740561
 11
220.0823269735
 21
-21.9191740561
  0
LINE
  8
0
 62
7
  6
CONTINUOUS
 10
162.5823269735
 20
-7.4191740561
 11
137.5823269735
 21
-7.4191740561
  0
LINE
  8
0
 62
7
  6
CONTINUOUS
 10
136.3323269735
 20
-53.4191740561
 11
136.3323269735
 21
-36.4191740561
  0
LINE
  8
0
 62
7
  6
CONTINUOUS
 10
136.3323269735
 20
351.5808259439
 11
136.3323269735
 21
368.5808259439
  0
LINE
  8
0
 62
7
  6
CONTINUOUS
 10
137.5823269735
 20
460.0808259439
 11
137.5823269735
 21
368.5808259439
  0
LINE
  8
0
 62
7
  6
CONTINUOUS
 10
137.5823269735
 20
351.5808259439
 11
137.5823269735
 21
-36.4191740561
  0
LINE
  8
0
 62
7
  6
CONTINUOUS
 10
137.5823269735
 20
-53.4191740561
 11
137.5823269735
 21
-167.4191740561
  0
LINE
  8
0
 62
7
  6
CONTINUOUS
 10
150.0823269735
 20
-57.8216423895
 11
150.0823269735
 21
-32.0168110935
  0
LINE
  8
0
 62
7
  6
CONTINUOUS
 10
150.0823269735
 20
347.1783576202
 11
150.0823269735
 21
372.9831889065
  0
LINE
  8
0
 62
7
  6
CONTINUOUS
 10
151.0823269735
 20
-58.8636317202
 11
151.0823269735
 21
-30.9747161246
  0
LINE
  8
0
 62
7
  6
CONTINUOUS
 10
151.0823269735
 20
346.1363682798
 11
151.0823269735
 21
374.0252838754
  0
POLYLINE
  8
0
 62
7
  6
CONTINUOUS
 66
1
 70
0
  0
VERTEX
  8
0
 62
7
  6
CONTINUOUS
 10
150.0823269735
 20
372.9832572835
  0
VERTEX
  8
0
 62
7
  6
CONTINUOUS
 10
150.0854660801
 20
373.065090849
  0
VERTEX
  8
0
 62
7
  6
CONTINUOUS
 10
150.0947996167
 20
373.1460050193
  0
VERTEX
  8
0
 62
7
  6
CONTINUOUS
 10
150.110424177
 20
373.2263516657
  0
VERTEX
  8
0
 62
7
  6
CONTINUOUS
 10
150.1320498608
 20
373.305075174
  0
VERTEX
  8
0
 62
7
  6
CONTINUOUS
 10
150.1594555836
 20
373.3812438476
  0
VERTEX
  8
0
 62
7
  6
CONTINUOUS
 10
150.192530884
 20
373.4548378048
  0
VERTEX
  8
0
 62
7
  6
CONTINUOUS
 10
150.2311515223
 20
373.5256586976
  0
VERTEX
  8
0
 62
7
  6
CONTINUOUS
 10
150.2751362982
 20
373.5933102277
  0
VERTEX
  8
0
 62
7
  6
CONTINUOUS
 10
150.3244562438
 20
373.6575448333
  0
VERTEX
  8
0
 62
7
  6
CONTINUOUS
 10
150.3785279716
 20
373.7177179574
  0
VERTEX
  8
0
 62
7
  6
CONTINUOUS
 10
150.4369573781
 20
373.773196036
  0
VERTEX
  8
0
 62
7
  6
CONTINUOUS
 10
150.4991449851
 20
373.8236985273
  0
VERTEX
  8
0
 62
7
  6
CONTINUOUS
 10
150.5644235196
 20
373.8687197191
  0
VERTEX
  8
0
 62
7
  6
CONTINUOUS
 10
150.6326003811
 20
373.9083015583
  0
VERTEX
  8
0
 62
7
  6
CONTINUOUS
 10
150.7033569268
 20
373.9423598364
  0
VERTEX
  8
0
 62
7
  6
CONTINUOUS
 10
150.7764021044
 20
373.970767306
  0
VERTEX
  8
0
 62
7
  6
CONTINUOUS
 10
150.8516363175
 20
373.9934246889
  0
VERTEX
  8
0
 62
7
  6
CONTINUOUS
 10
150.9281654645
 20
374.0101638682
  0
VERTEX
  8
0
 62
7
  6
CONTINUOUS
 10
151.0049498023
 20
374.0207584834
  0
VERTEX
  8
0
 62
7
  6
CONTINUOUS
 10
151.0823309739
 20
374.025283988
  0
SEQEND
  0
POLYLINE
  8
0
 62
7
  6
CONTINUOUS
 66
1
 70
0
  0
VERTEX
  8
0
 62
7
  6
CONTINUOUS
 10
150.0823269735
 20
-32.0167427165
  0
VERTEX
  8
0
 62
7
  6
CONTINUOUS
 10
150.0854660862
 20
-31.9349091302
  0
VERTEX
  8
0
 62
7
  6
CONTINUOUS
 10
150.0947996173
 20
-31.8539949767
  0
VERTEX
  8
0
 62
7
  6
CONTINUOUS
 10
150.1104241628
 20
-31.7736483903
  0
VERTEX
  8
0
 62
7
  6
CONTINUOUS
 10
150.1320498157
 20
-31.6949249682
  0
VERTEX
  8
0
 62
7
  6
CONTINUOUS
 10
150.1594554669
 20
-31.6187564201
  0
VERTEX
  8
0
 62
7
  6
CONTINUOUS
 10
150.1925307114
 20
-31.5451625429
  0
VERTEX
  8
0
 62
7
  6
CONTINUOUS
 10
150.2311513737
 20
-31.4743415649
  0
VERTEX
  8
0
 62
7
  6
CONTINUOUS
 10
150.2751362068
 20
-31.4066899017
  0
VERTEX
  8
0
 62
7
  6
CONTINUOUS
 10
150.3244562163
 20
-31.3424552007
  0
VERTEX
  8
0
 62
7
  6
CONTINUOUS
 10
150.3785280174
 20
-31.2822819955
  0
VERTEX
  8
0
 62
7
  6
CONTINUOUS
 10
150.4369575019
 20
-31.2268038557
  0
VERTEX
  8
0
 62
7
  6
CONTINUOUS
 10
150.4991451868
 20
-31.1763013217
  0
VERTEX
  8
0
 62
7
  6
CONTINUOUS
 10
150.5644238141
 20
-31.1312801002
  0
VERTEX
  8
0
 62
7
  6
CONTINUOUS
 10
150.6326007199
 20
-31.0916982622
  0
VERTEX
  8
0
 62
7
  6
CONTINUOUS
 10
150.7033571686
 20
-31.0576400505
  0
VERTEX
  8
0
 62
7
  6
CONTINUOUS
 10
150.7764022128
 20
-31.0292326566
  0
VERTEX
  8
0
 62
7
  6
CONTINUOUS
 10
150.8516363322
 20
-31.0065753058
  0
VERTEX
  8
0
 62
7
  6
CONTINUOUS
 10
150.9281654199
 20
-30.9898361397
  0
VERTEX
  8
0
 62
7
  6
CONTINUOUS
 10
151.0049497549
 20
-30.9792415272
  0
VERTEX
  8
0
 62
7
  6
CONTINUOUS
 10
151.0823309729
 20
-30.9747160121
  0
SEQEND
  0
LINE
  8
0
 62
7
  6
CONTINUOUS
 10
162.5823269735
 20
117.5808259439
 11
137.5823269735
 21
117.5808259439
  0
LINE
  8
0
 62
7
  6
CONTINUOUS
 10
162.5823269735
 20
460.0808259439
 11
162.5823269735
 21
375.0808259439
  0
LINE
  8
0
 62
7
  6
CONTINUOUS
 10
162.5823269735
 20
345.0808259439
 11
162.5823269735
 21
-29.9191740561
  0
LINE
  8
0
 62
7
  6
CONTINUOUS
 10
162.5823269735
 20
-59.9191740561
 11
162.5823269735
 21
-167.4191740561
  0
LINE
  8
0
 62
7
  6
CONTINUOUS
 10
210.0823269735
 20
-66.9191740561
 11
210.0823269735
 21
-59.9191740561
  0
LINE
  8
0
 62
7
  6
CONTINUOUS
 10
210.0823269735
 20
-29.9191740561
 11
210.0823269735
 21
-22.9191740561
  0
LINE
  8
0
 62
7
  6
CONTINUOUS
 10
210.0823269735
 20
338.0808259439
 11
210.0823269735
 21
345.0808259439
  0
LINE
  8
0
 62
7
  6
CONTINUOUS
 10
210.0823269735
 20
375.0808259439
 11
210.0823269735
 21
382.0808259439
  0
LINE
  8
0
 62
7
  6
CONTINUOUS
 10
211.0823269735
 20
-67.9191740561
 11
211.0823269735
 21
-59.9191740562
  0
LINE
  8
0
 62
7
  6
CONTINUOUS
 10
211.0823269735
 20
-29.919174056
 11
211.0823269735
 21
-21.9191740561
  0
LINE
  8
0
 62
7
  6
CONTINUOUS
 10
211.0823269735
 20
337.0808259439
 11
211.0823269735
 21
345.0808259438
  0
LINE
  8
0
 62
7
  6
CONTINUOUS
 10
211.0823269735
 20
375.080825944
 11
211.0823269735
 21
383.0808259439
  0
LINE
  8
0
 62
7
  6
CONTINUOUS
 10
220.0823269735
 20
-21.9191740561
 11
220.0823269735
 21
-67.9191740561
  0
LINE
  8
0
 62
7
  6
CONTINUOUS
 10
220.0823269735
 20
337.0808259439
 11
220.0823269735
 21
383.0808259439
  0
LINE
  8
0
 62
7
  6
CONTINUOUS
 10
162.5823269735
 20
197.5808259439
 11
137.5823269735
 21
197.5808259439
  0
LINE
  8
0
 62
7
  6
CONTINUOUS
 10
162.5823269735
 20
322.5808259439
 11
137.5823269735
 21
322.5808259439
  0
LINE
  8
0
 62
7
  6
CONTINUOUS
 10
211.0823269735
 20
337.0808259439
 11
220.0823269735
 21
337.0808259439
  0
LINE
  8
0
 62
7
  6
CONTINUOUS
 10
220.0823269735
 20
345.0808259439
 11
162.5798267234
 21
345.0808259439
  0
POLYLINE
  8
0
 62
7
  6
CONTINUOUS
 66
1
 70
0
  0
VERTEX
  8
0
 62
7
  6
CONTINUOUS
 10
162.5798267234
 20
345.0808259439
  0
VERTEX
  8
0
 62
7
  6
CONTINUOUS
 10
162.5566219813
 20
345.082074314
  0
VERTEX
  8
0
 62
7
  6
CONTINUOUS
 10
162.5090948073
 20
345.0860883144
  0
VERTEX
  8
0
 62
7
  6
CONTINUOUS
 10
162.4373023164
 20
345.0928299496
  0
VERTEX
  8
0
 62
7
  6
CONTINUOUS
 10
162.3413869764
 20
345.1024132062
  0
SEQEND
  0
POLYLINE
  8
0
 62
7
  6
CONTINUOUS
 66
1
 70
0
  0
VERTEX
  8
0
 62
7
  6
CONTINUOUS
 10
151.0823271526
 20
346.1363682747
  0
VERTEX
  8
0
 62
7
  6
CONTINUOUS
 10
151.0049392991
 20
346.140900704
  0
VERTEX
  8
0
 62
7
  6
CONTINUOUS
 10
150.9281507127
 20
346.1515000313
  0
VERTEX
  8
0
 62
7
  6
CONTINUOUS
 10
150.8516202132
 20
346.1682412072
  0
VERTEX
  8
0
 62
7
  6
CONTINUOUS
 10
150.7763861699
 20
346.1908993802
  0
VERTEX
  8
0
 62
7
  6
CONTINUOUS
 10
150.7033413545
 20
346.2193079912
  0
VERTEX
  8
0
 62
7
  6
CONTINUOUS
 10
150.6325856842
 20
346.2533671135
  0
VERTEX
  8
0
 62
7
  6
CONTINUOUS
 10
150.5644101881
 20
346.292949317
  0
VERTEX
  8
0
 62
7
  6
CONTINUOUS
 10
150.4991332112
 20
346.3379705535
  0
VERTEX
  8
0
 62
7
  6
CONTINUOUS
 10
150.4369470052
 20
346.3884728927
  0
VERTEX
  8
0
 62
7
  6
CONTINUOUS
 10
150.3785189726
 20
346.4439505508
  0
VERTEX
  8
0
 62
7
  6
CONTINUOUS
 10
150.3244486207
 20
346.5041229444
  0
VERTEX
  8
0
 62
7
  6
CONTINUOUS
 10
150.2751300077
 20
346.5683565419
  0
VERTEX
  8
0
 62
7
  6
CONTINUOUS
 10
150.2311464867
 20
346.636006811
  0
VERTEX
  8
0
 62
7
  6
CONTINUOUS
 10
150.1925270219
 20
346.7068261694
  0
VERTEX
  8
0
 62
7
  6
CONTINUOUS
 10
150.1594528186
 20
346.7804182685
  0
VERTEX
  8
0
 62
7
  6
CONTINUOUS
 10
150.1320480563
 20
346.8565848741
  0
VERTEX
  8
0
 62
7
  6
CONTINUOUS
 10
150.1104231399
 20
346.9353061292
  0
VERTEX
  8
0
 62
7
  6
CONTINUOUS
 10
150.0947991482
 20
347.0156505527
  0
VERTEX
  8
0
 62
7
  6
CONTINUOUS
 10
150.0854659543
 20
347.0965627819
  0
VERTEX
  8
0
 62
7
  6
CONTINUOUS
 10
150.0823269735
 20
347.1783946044
  0
SEQEND
  0
POLYLINE
  8
0
 62
7
  6
CONTINUOUS
 66
1
 70
0
  0
VERTEX
  8
0
 62
7
  6
CONTINUOUS
 10
156.4204673828
 20
345.786078182
  0
VERTEX
  8
0
 62
7
  6
CONTINUOUS
 10
155.9419619835
 20
345.8339837701
  0
VERTEX
  8
0
 62
7
  6
CONTINUOUS
 10
155.4569513688
 20
345.8799468279
  0
VERTEX
  8
0
 62
7
  6
CONTINUOUS
 10
154.9678941327
 20
345.9234289077
  0
VERTEX
  8
0
 62
7
  6
CONTINUOUS
 10
154.4778138418
 20
345.9637723116
  0
VERTEX
  8
0
 62
7
  6
CONTINUOUS
 10
153.9872779134
 20
346.000727528
  0
VERTEX
  8
0
 62
7
  6
CONTINUOUS
 10
153.4974979094
 20
346.0338824502
  0
VERTEX
  8
0
 62
7
  6
CONTINUOUS
 10
153.0091264895
 20
346.0630671665
  0
VERTEX
  8
0
 62
7
  6
CONTINUOUS
 10
152.522865351
 20
346.0879966221
  0
VERTEX
  8
0
 62
7
  6
CONTINUOUS
 10
152.0393025599
 20
346.1086041397
  0
VERTEX
  8
0
 62
7
  6
CONTINUOUS
 10
151.5587898131
 20
346.124707812
  0
VERTEX
  8
0
 62
7
  6
CONTINUOUS
 10
151.0823271526
 20
346.1363682747
  0
SEQEND
  0
LINE
  8
0
 62
7
  6
CONTINUOUS
 10
162.3413869764
 20
345.1024132062
 11
162.0780854695
 21
345.1304085472
  0
LINE
  8
0
 62
7
  6
CONTINUOUS
 10
157.3500756555
 20
345.6868347022
 11
156.4204673828
 21
345.786078182
  0
LINE
  8
0
 62
7
  6
CONTINUOUS
 10
162.0780854695
 20
345.1304085472
 11
161.7207982535
 21
345.170471569
  0
LINE
  8
0
 62
7
  6
CONTINUOUS
 10
158.2274582594
 20
345.5871808847
 11
157.3500756555
 21
345.6868347022
  0
LINE
  8
0
 62
7
  6
CONTINUOUS
 10
161.7207982535
 20
345.170471569
 11
160.736439141
 21
345.2864969095
  0
LINE
  8
0
 62
7
  6
CONTINUOUS
 10
160.736439141
 20
345.2864969095
 11
158.2274582594
 21
345.5871808847
  0
LINE
  8
0
 62
7
  6
CONTINUOUS
 10
150.0823269735
 20
350.0808259439
 11
220.0823269735
 21
350.0808259439
  0
LINE
  8
0
 62
7
  6
CONTINUOUS
 10
136.3323478784
 20
351.5808259439
 11
150.0823269735
 21
351.5808259439
  0
LINE
  8
0
 62
7
  6
CONTINUOUS
 10
136.3323478784
 20
368.5808259439
 11
150.0823269735
 21
368.5808259439
  0
LINE
  8
0
 62
7
  6
CONTINUOUS
 10
150.0823269735
 20
370.0808259439
 11
220.0823269735
 21
370.0808259439
  0
LINE
  8
0
 62
7
  6
CONTINUOUS
 10
158.1985226305
 20
374.5711106318
 11
161.0009225887
 21
374.9068150857
  0
LINE
  8
0
 62
7
  6
CONTINUOUS
 10
161.0009225887
 20
374.9068150857
 11
161.714706829
 21
374.9904834722
  0
LINE
  8
0
 62
7
  6
CONTINUOUS
 10
157.3188654924
 20
374.4713692941
 11
158.1985226305
 21
374.5711106318
  0
LINE
  8
0
 62
7
  6
CONTINUOUS
 10
161.714706829
 20
374.9904834722
 11
162.0757561929
 21
375.0309884308
  0
POLYLINE
  8
0
 62
7
  6
CONTINUOUS
 66
1
 70
0
  0
VERTEX
  8
0
 62
7
  6
CONTINUOUS
 10
162.0757561929
 20
375.0309884308
  0
VERTEX
  8
0
 62
7
  6
CONTINUOUS
 10
162.3405383906
 20
375.0591518423
  0
VERTEX
  8
0
 62
7
  6
CONTINUOUS
 10
162.4367657772
 20
375.0687734883
  0
VERTEX
  8
0
 62
7
  6
CONTINUOUS
 10
162.5087859423
 20
375.0755359563
  0
VERTEX
  8
0
 62
7
  6
CONTINUOUS
 10
162.5565194169
 20
375.0795677159
  0
VERTEX
  8
0
 62
7
  6
CONTINUOUS
 10
162.5798267234
 20
375.0808259439
  0
SEQEND
  0
POLYLINE
  8
0
 62
7
  6
CONTINUOUS
 66
1
 70
0
  0
VERTEX
  8
0
 62
7
  6
CONTINUOUS
 10
151.0823309739
 20
374.025283988
  0
VERTEX
  8
0
 62
7
  6
CONTINUOUS
 10
151.5541835916
 20
374.0368044467
  0
VERTEX
  8
0
 62
7
  6
CONTINUOUS
 10
152.030410456
 20
374.0527096184
  0
VERTEX
  8
0
 62
7
  6
CONTINUOUS
 10
152.5100401598
 20
374.0730541029
  0
VERTEX
  8
0
 62
7
  6
CONTINUOUS
 10
152.9926980518
 20
374.0976741006
  0
VERTEX
  8
0
 62
7
  6
CONTINUOUS
 10
153.4778247171
 20
374.1265184902
  0
VERTEX
  8
0
 62
7
  6
CONTINUOUS
 10
153.9645876339
 20
374.1593038353
  0
VERTEX
  8
0
 62
7
  6
CONTINUOUS
 10
154.4520699141
 20
374.1958509091
  0
VERTEX
  8
0
 62
7
  6
CONTINUOUS
 10
154.9395150625
 20
374.2357959615
  0
VERTEX
  8
0
 62
7
  6
CONTINUOUS
 10
155.4267223331
 20
374.2789325364
  0
VERTEX
  8
0
 62
7
  6
CONTINUOUS
 10
155.9105580773
 20
374.3246095249
  0
VERTEX
  8
0
 62
7
  6
CONTINUOUS
 10
156.3886107969
 20
374.3723132037
  0
VERTEX
  8
0
 62
7
  6
CONTINUOUS
 10
157.3188654924
 20
374.4713692941
  0
SEQEND
  0
LINE
  8
0
 62
7
  6
CONTINUOUS
 10
162.5798267234
 20
375.0808259439
 11
220.0823269735
 21
375.0808259439
  0
LINE
  8
0
 62
7
  6
CONTINUOUS
 10
211.0823269735
 20
383.0808259439
 11
220.0823269735
 21
383.0808259439
  0
LINE
  8
0
 62
7
  6
CONTINUOUS
 10
162.5823269735
 20
397.5808259439
 11
137.5823269735
 21
397.5808259439
  0
ARC
  8
0
 62
7
  6
CONTINUOUS
 10
150.0823269735
 20
-144.9191740561
 40
12.5
 50
180.0
 51
360.0
  0
ARC
  8
0
 62
7
  6
CONTINUOUS
 10
150.0823269735
 20
55.0808259439
 40
12.5
 50
0.0
 51
180.0
  0
ARC
  8
0
 62
7
  6
CONTINUOUS
 10
150.0823269735
 20
260.0808259439
 40
12.5
 50
180.0
 51
360.0
  0
ARC
  8
0
 62
7
  6
CONTINUOUS
 10
150.0823269735
 20
460.0808259439
 40
12.5
 50
0.0
 51
180.0
  0
ARC
  8
0
 62
7
  6
CONTINUOUS
 10
211.0823269735
 20
-66.9191740559
 40
1.0
 50
180.000000013
 51
270.0
  0
ARC
  8
0
 62
7
  6
CONTINUOUS
 10
211.0823269735
 20
-22.9191740561
 40
1.0
 50
90.0
 51
180.0
  0
ARC
  8
0
 62
7
  6
CONTINUOUS
 10
211.0823269735
 20
338.0808259441
 40
1.0
 50
180.000000013
 51
270.0
  0
ARC
  8
0
 62
7
  6
CONTINUOUS
 10
211.0823269735
 20
382.0808259439
 40
1.0
 50
90.0
 51
180.0
  0
ENDSEC
  0
EOF
