999
DXF file: K:\Client\125_Heirloom\001\00\Final_Data\Drawings\LADDER TOWEL WARMERS\we700_3.dxf
999
Pro/ENGINEER 2017110 by Parametric Technology Corporation
  0
SECTION
  2
HEADER
  9
$EXTMAX
 10
420.0
 20
297.0
 30
0.0
  9
$EXTMIN
 10
0.0
 20
0.0
 30
0.0
  9
$LIMMIN
 10
0.0
 20
0.0
  9
$LIMMAX
 10
420.0
 20
297.0
  9
$VIEWCTR
 10
210.0
 20
148.5
  9
$VIEWSIZE
 40
297.0
  9
$CLAYER
  8
0
  9
$LTSCALE
 40
23.1
  9
$CELTYPE
  6
BYLAYER
  9
$DIMSCALE
 40
1.0
  9
$DIMASZ
 40
3.0
  9
$DIMEXO
 40
1.0
  9
$DIMDLI
 40
15.96
  9
$DIMEXE
 40
1.0
  9
$DIMCEN
 40
3.78
  9
$DIMLFAC
 40
1.0
  9
$DIMBLK
  1
_FILLED
  9
$DIMALT
 70
0
  9
$DIMALTF
 40
0.0393700787
  9
$DIMTXT
 40
3.0
  9
$AUNITS
 70
0
  9
$PDMODE
 70
3
  9
$PDSIZE
 40
5.0
  9
$TILEMODE
 70
1
  0
ENDSEC
  0
SECTION
  2
TABLES
  0
TABLE
  2
LTYPE
 70
6
  0
LTYPE
  2
BYBLOCK
 70
0
  3

 72
65
 73
0
 40
0.0
  0
LTYPE
  2
BYLAYER
 70
0
  3

 72
65
 73
0
 40
0.0
  0
LTYPE
  2
CONTINUOUS
 70
64
  3
Solid line
 72
65
 73
0
 40
0.0
  0
LTYPE
  2
CENTER
 70
64
  3
____ _ ____ _ ____ _ ____ _ ____ _ ____ _ ____
 72
65
 73
4
 40
0.6
 49
0.375
 49
-0.075
 49
0.075
 49
-0.075
  0
LTYPE
  2
HIDDEN
 70
64
  3
- - - - - - - - - - - - - - - - - - - -
 72
65
 73
2
 40
0.2
 49
0.1
 49
-0.1
  0
LTYPE
  2
PHANTOM
 70
64
  3
_____ _ _ _____ _ _ _____ _ _ _____
 72
65
 73
6
 40
0.8
 49
0.45
 49
-0.05
 49
0.1
 49
-0.05
 49
0.1
 49
-0.05
  0
LTYPE
  2
DOT
 70
64
  3
. . . . . . . . . . . . . . . . . . . .
 72
65
 73
2
 40
0.2
 49
0.1
 49
-0.1
  0
LTYPE
  2
DASHED
 70
64
  3
- - - - - - - - - - - - - - - - - - - -
 72
65
 73
2
 40
0.2
 49
0.1
 49
-0.1
  0
ENDTAB
  0
TABLE
  2
LAYER
 70
36
  0
LAYER
  2
0
 70
0
 62
7
  6
CONTINUOUS
  0
LAYER
  2
DEFAULT_1
 70
0
 62
7
  6
CENTER
  0
LAYER
  2
DEFAULT_2
 70
0
 62
8
  6
HIDDEN
  0
LAYER
  2
DEFAULT_3
 70
0
 62
7
  6
PHANTOM
  0
LAYER
  2
0000_BOM
 70
0
 62
7
  6
CONTINUOUS
  0
LAYER
  2
0000_REV_TABLE
 70
0
 62
7
  6
CONTINUOUS
  0
LAYER
  2
0000_STEVENS_NOTE
 70
0
 62
7
  6
CONTINUOUS
  0
LAYER
  2
01_DATUM_PLANES
 70
0
 62
7
  6
CONTINUOUS
  0
LAYER
  2
01_DEF_PLANES
 70
0
 62
7
  6
CONTINUOUS
  0
LAYER
  2
02_DATUM_COS
 70
0
 62
7
  6
CONTINUOUS
  0
LAYER
  2
99_SOLID
 70
0
 62
7
  6
CONTINUOUS
  0
LAYER
  2
CAD-MASTER_ZINC-PL
 70
0
 62
7
  6
CONTINUOUS
  0
LAYER
  2
CURVE
 70
0
 62
7
  6
CONTINUOUS
  0
LAYER
  2
SKEL
 70
0
 62
7
  6
CONTINUOUS
  0
LAYER
  2
SKETCH
 70
0
 62
7
  6
CONTINUOUS
  0
LAYER
  2
SURFACE
 70
0
 62
7
  6
CONTINUOUS
  0
ENDTAB
  0
TABLE
  2
STYLE
 70
1
  0
STYLE
  2
STANDARD
 70
0
 40
0.0
 41
0.75
 50
0.0
 71
0
 42
0.2
  3
txt
  4

  0
STYLE
  2
TEXTSTYLE_1
 70
0
 40
0.0
 41
0.8
 50
0.0
 71
0
 42
0.2
  3
gdt
  4

  0
ENDTAB
  0
ENDSEC
  0
SECTION
  2
BLOCKS
  0
ENDSEC
  0
SECTION
  2
ENTITIES
  0
LINE
  8
0
 62
7
  6
CONTINUOUS
 10
-168.9672956164
 20
193.5874807131
 11
-168.9672956164
 21
124.5874807131
  0
LINE
  8
0
 62
7
  6
CONTINUOUS
 10
-151.7172956164
 20
193.5874807131
 11
-151.7172956164
 21
136.084980463
  0
LINE
  8
0
 62
7
  6
CONTINUOUS
 10
-151.4672956164
 20
193.5874807131
 11
-151.4672956163
 21
184.5874807119
  0
LINE
  8
0
 62
7
  6
CONTINUOUS
 10
-151.2172956164
 20
136.084980463
 11
-151.2172956164
 21
183.5874807131
  0
LINE
  8
0
 62
7
  6
CONTINUOUS
 10
-133.9672956164
 20
183.5874807131
 11
-133.9672956164
 21
136.0874807131
  0
LINE
  8
0
 62
7
  6
CONTINUOUS
 10
-124.3379756839
 20
183.5874807131
 11
-124.3379756839
 21
193.5874807131
  0
LINE
  8
0
 62
7
  6
CONTINUOUS
 10
-116.3379756839
 20
193.5874807131
 11
-116.3379756839
 21
184.5874807131
  0
LINE
  8
0
 62
7
  6
CONTINUOUS
 10
-88.9672956164
 20
136.0874807131
 11
-88.9672956164
 21
111.0874807131
  0
LINE
  8
0
 62
7
  6
CONTINUOUS
 10
-151.4672956164
 20
111.0874807131
 11
523.5327043836
 21
111.0874807131
  0
LINE
  8
0
 62
7
  6
CONTINUOUS
 10
540.0327043836
 20
123.5874807131
 11
536.0327043836
 21
123.5874807131
  0
LINE
  8
0
 62
7
  6
CONTINUOUS
 10
-163.9672956164
 20
123.5874807131
 11
-167.9672956164
 21
123.5874807131
  0
LINE
  8
0
 62
7
  6
CONTINUOUS
 10
541.0327043836
 20
124.5874807131
 11
535.992639042
 21
124.5874807131
  0
LINE
  8
0
 62
7
  6
CONTINUOUS
 10
-163.9272313578
 20
124.5874807131
 11
-168.9672956164
 21
124.5874807131
  0
LINE
  8
0
 62
7
  6
CONTINUOUS
 10
-151.4672956164
 20
136.0874807131
 11
523.5327043836
 21
136.0874807131
  0
POLYLINE
  8
0
 62
7
  6
CONTINUOUS
 66
1
 70
0
  0
VERTEX
  8
0
 62
7
  6
CONTINUOUS
 10
-149.5768346122
 20
183.5874807131
  0
VERTEX
  8
0
 62
7
  6
CONTINUOUS
 10
-149.7438807484
 20
183.5916742272
  0
VERTEX
  8
0
 62
7
  6
CONTINUOUS
 10
-149.9013023388
 20
183.6016788966
  0
VERTEX
  8
0
 62
7
  6
CONTINUOUS
 10
-150.0488325383
 20
183.6178417419
  0
VERTEX
  8
0
 62
7
  6
CONTINUOUS
 10
-150.187271882
 20
183.6391217013
  0
VERTEX
  8
0
 62
7
  6
CONTINUOUS
 10
-150.3170687073
 20
183.6646526264
  0
VERTEX
  8
0
 62
7
  6
CONTINUOUS
 10
-150.4390127617
 20
183.6942567982
  0
VERTEX
  8
0
 62
7
  6
CONTINUOUS
 10
-150.5540213137
 20
183.7275209539
  0
VERTEX
  8
0
 62
7
  6
CONTINUOUS
 10
-150.6621601373
 20
183.7642855753
  0
VERTEX
  8
0
 62
7
  6
CONTINUOUS
 10
-150.7640061573
 20
183.8044239579
  0
VERTEX
  8
0
 62
7
  6
CONTINUOUS
 10
-150.8589431893
 20
183.8474243981
  0
VERTEX
  8
0
 62
7
  6
CONTINUOUS
 10
-150.9465067375
 20
183.8928431934
  0
VERTEX
  8
0
 62
7
  6
CONTINUOUS
 10
-151.0268186619
 20
183.9403496356
  0
VERTEX
  8
0
 62
7
  6
CONTINUOUS
 10
-151.0997520387
 20
183.9895193139
  0
VERTEX
  8
0
 62
7
  6
CONTINUOUS
 10
-151.1655887235
 20
184.0401896334
  0
VERTEX
  8
0
 62
7
  6
CONTINUOUS
 10
-151.2244208732
 20
184.0919639625
  0
VERTEX
  8
0
 62
7
  6
CONTINUOUS
 10
-151.2766906604
 20
184.1451200005
  0
VERTEX
  8
0
 62
7
  6
CONTINUOUS
 10
-151.3230120016
 20
184.200010742
  0
VERTEX
  8
0
 62
7
  6
CONTINUOUS
 10
-151.3629618226
 20
184.2560136696
  0
VERTEX
  8
0
 62
7
  6
CONTINUOUS
 10
-151.3963066018
 20
184.3128893806
  0
VERTEX
  8
0
 62
7
  6
CONTINUOUS
 10
-151.4230915978
 20
184.3698415266
  0
VERTEX
  8
0
 62
7
  6
CONTINUOUS
 10
-151.4430954622
 20
184.4260749647
  0
VERTEX
  8
0
 62
7
  6
CONTINUOUS
 10
-151.4568844948
 20
184.4813466752
  0
VERTEX
  8
0
 62
7
  6
CONTINUOUS
 10
-151.4650127775
 20
184.5350850826
  0
VERTEX
  8
0
 62
7
  6
CONTINUOUS
 10
-151.4672956163
 20
184.5874807119
  0
SEQEND
  0
LINE
  8
0
 62
7
  6
CONTINUOUS
 10
523.2827043836
 20
183.5874807131
 11
489.4033997917
 21
183.5874807131
  0
LINE
  8
0
 62
7
  6
CONTINUOUS
 10
-117.3379910242
 20
183.5874807131
 11
-151.2172956164
 21
183.5874807131
  0
LINE
  8
0
 62
7
  6
CONTINUOUS
 10
523.5327043835
 20
184.5874807131
 11
488.4033844511
 21
184.5874807131
  0
LINE
  8
0
 62
7
  6
CONTINUOUS
 10
-116.3379756839
 20
184.5874807131
 11
-151.4672956163
 21
184.5874807131
  0
LINE
  8
0
 62
7
  6
CONTINUOUS
 10
-116.3379919628
 20
193.5874807131
 11
-168.9672956164
 21
193.5874807131
  0
LINE
  8
0
 62
7
  6
CONTINUOUS
 10
488.40340073
 20
193.5874807131
 11
541.0327043836
 21
193.5874807131
  0
LINE
  8
0
 62
7
  6
CONTINUOUS
 10
461.0327043836
 20
136.0874807131
 11
461.0327043836
 21
111.0874807131
  0
LINE
  8
0
 62
7
  6
CONTINUOUS
 10
488.4033844511
 20
184.5874807131
 11
488.4033844511
 21
193.5874807131
  0
LINE
  8
0
 62
7
  6
CONTINUOUS
 10
496.4033844511
 20
183.5874807131
 11
496.4033844511
 21
193.5874807131
  0
LINE
  8
0
 62
7
  6
CONTINUOUS
 10
506.0327043836
 20
183.5874807131
 11
506.0327043836
 21
136.0874807131
  0
LINE
  8
0
 62
7
  6
CONTINUOUS
 10
523.2827043836
 20
183.5874807131
 11
523.2827043836
 21
136.084980463
  0
LINE
  8
0
 62
7
  6
CONTINUOUS
 10
523.5327043836
 20
193.5874807131
 11
523.5327043835
 21
184.5874807119
  0
LINE
  8
0
 62
7
  6
CONTINUOUS
 10
523.7827043836
 20
136.084980463
 11
523.7827043836
 21
193.5874807131
  0
LINE
  8
0
 62
7
  6
CONTINUOUS
 10
541.0327043836
 20
193.5874807131
 11
541.0327043836
 21
124.5874807131
  0
POLYLINE
  8
0
 62
7
  6
CONTINUOUS
 66
1
 70
0
  0
VERTEX
  8
0
 62
7
  6
CONTINUOUS
 10
523.5327043835
 20
184.5874807119
  0
VERTEX
  8
0
 62
7
  6
CONTINUOUS
 10
523.5304182127
 20
184.5350776393
  0
VERTEX
  8
0
 62
7
  6
CONTINUOUS
 10
523.5222935921
 20
184.481348353
  0
VERTEX
  8
0
 62
7
  6
CONTINUOUS
 10
523.5085138291
 20
184.4261047528
  0
VERTEX
  8
0
 62
7
  6
CONTINUOUS
 10
523.4885290017
 20
184.3699111397
  0
VERTEX
  8
0
 62
7
  6
CONTINUOUS
 10
523.4617783318
 20
184.3130066098
  0
VERTEX
  8
0
 62
7
  6
CONTINUOUS
 10
523.4284776951
 20
184.2561786781
  0
VERTEX
  8
0
 62
7
  6
CONTINUOUS
 10
523.3885832624
 20
184.2002175477
  0
VERTEX
  8
0
 62
7
  6
CONTINUOUS
 10
523.3423133694
 20
184.1453542511
  0
VERTEX
  8
0
 62
7
  6
CONTINUOUS
 10
523.2900805271
 20
184.0922002446
  0
VERTEX
  8
0
 62
7
  6
CONTINUOUS
 10
523.2312583804
 20
184.04040446
  0
VERTEX
  8
0
 62
7
  6
CONTINUOUS
 10
523.1653785706
 20
183.9896790176
  0
VERTEX
  8
0
 62
7
  6
CONTINUOUS
 10
523.0923796203
 20
183.9404458086
  0
VERTEX
  8
0
 62
7
  6
CONTINUOUS
 10
523.0119988358
 20
183.8928903107
  0
VERTEX
  8
0
 62
7
  6
CONTINUOUS
 10
522.9243715079
 20
183.8474338848
  0
VERTEX
  8
0
 62
7
  6
CONTINUOUS
 10
522.8293837061
 20
183.80441185
  0
VERTEX
  8
0
 62
7
  6
CONTINUOUS
 10
522.727520401
 20
183.76426781
  0
VERTEX
  8
0
 62
7
  6
CONTINUOUS
 10
522.6194429699
 20
183.7275220348
  0
VERTEX
  8
0
 62
7
  6
CONTINUOUS
 10
522.5045082621
 20
183.6942798437
  0
VERTEX
  8
0
 62
7
  6
CONTINUOUS
 10
522.3825911851
 20
183.6646779546
  0
VERTEX
  8
0
 62
7
  6
CONTINUOUS
 10
522.2527989417
 20
183.6391424415
  0
VERTEX
  8
0
 62
7
  6
CONTINUOUS
 10
522.114344255
 20
183.6178556728
  0
VERTEX
  8
0
 62
7
  6
CONTINUOUS
 10
521.9667854718
 20
183.6016854831
  0
VERTEX
  8
0
 62
7
  6
CONTINUOUS
 10
521.8093305034
 20
183.5916765746
  0
VERTEX
  8
0
 62
7
  6
CONTINUOUS
 10
521.6422433793
 20
183.5874807131
  0
SEQEND
  0
ARC
  8
0
 62
7
  6
CONTINUOUS
 10
523.5327043836
 20
123.5874807131
 40
13.75
 50
245.4117814587
 51
360.0
  0
ARC
  8
0
 62
7
  6
CONTINUOUS
 10
-151.4672956164
 20
123.5874807131
 40
13.75
 50
180.0
 51
294.5882185413
  0
ARC
  8
0
 62
7
  6
CONTINUOUS
 10
523.5327043836
 20
123.5874807131
 40
12.5
 50
270.0
 51
90.0
  0
ARC
  8
0
 62
7
  6
CONTINUOUS
 10
-151.4672956164
 20
123.5874807131
 40
12.5
 50
90.0
 51
270.0
  0
ARC
  8
0
 62
7
  6
CONTINUOUS
 10
-117.3379756839
 20
184.5874807131
 40
1.0
 50
270.0
 51
360.0
  0
ARC
  8
0
 62
7
  6
CONTINUOUS
 10
489.4033844511
 20
184.5874807131
 40
1.0
 50
180.0
 51
270.0
  0
ARC
  8
0
 62
7
  6
CONTINUOUS
 10
-167.9672956164
 20
124.5874807131
 40
1.0
 50
180.0
 51
270.0
  0
ARC
  8
0
 62
7
  6
CONTINUOUS
 10
540.0327043836
 20
124.5874807131
 40
1.0
 50
270.0
 51
360.0
  0
ENDSEC
  0
EOF
