999
DXF file: K:\Client\125_Heirloom\001\00\Final_Data\Drawings\TOILETS\forme-373125_1.dxf
999
Pro/ENGINEER 2017110 by Parametric Technology Corporation
  0
SECTION
  2
HEADER
  9
$EXTMAX
 10
420.0
 20
297.0
 30
0.0
  9
$EXTMIN
 10
0.0
 20
0.0
 30
0.0
  9
$LIMMIN
 10
0.0
 20
0.0
  9
$LIMMAX
 10
420.0
 20
297.0
  9
$VIEWCTR
 10
210.0
 20
148.5
  9
$VIEWSIZE
 40
297.0
  9
$CLAYER
  8
0
  9
$LTSCALE
 40
23.1
  9
$CELTYPE
  6
BYLAYER
  9
$DIMSCALE
 40
1.0
  9
$DIMASZ
 40
3.0
  9
$DIMEXO
 40
1.0
  9
$DIMDLI
 40
15.96
  9
$DIMEXE
 40
1.0
  9
$DIMCEN
 40
3.78
  9
$DIMLFAC
 40
1.0
  9
$DIMBLK
  1
_FILLED
  9
$DIMALT
 70
0
  9
$DIMALTF
 40
0.0393700787
  9
$DIMTXT
 40
3.0
  9
$AUNITS
 70
0
  9
$PDMODE
 70
3
  9
$PDSIZE
 40
5.0
  9
$TILEMODE
 70
1
  0
ENDSEC
  0
SECTION
  2
TABLES
  0
TABLE
  2
LTYPE
 70
6
  0
LTYPE
  2
BYBLOCK
 70
0
  3

 72
65
 73
0
 40
0.0
  0
LTYPE
  2
BYLAYER
 70
0
  3

 72
65
 73
0
 40
0.0
  0
LTYPE
  2
CONTINUOUS
 70
64
  3
Solid line
 72
65
 73
0
 40
0.0
  0
LTYPE
  2
CENTER
 70
64
  3
____ _ ____ _ ____ _ ____ _ ____ _ ____ _ ____
 72
65
 73
4
 40
0.6
 49
0.375
 49
-0.075
 49
0.075
 49
-0.075
  0
LTYPE
  2
HIDDEN
 70
64
  3
- - - - - - - - - - - - - - - - - - - -
 72
65
 73
2
 40
0.2
 49
0.1
 49
-0.1
  0
LTYPE
  2
PHANTOM
 70
64
  3
_____ _ _ _____ _ _ _____ _ _ _____
 72
65
 73
6
 40
0.8
 49
0.45
 49
-0.05
 49
0.1
 49
-0.05
 49
0.1
 49
-0.05
  0
LTYPE
  2
DOT
 70
64
  3
. . . . . . . . . . . . . . . . . . . .
 72
65
 73
2
 40
0.2
 49
0.1
 49
-0.1
  0
LTYPE
  2
DASHED
 70
64
  3
- - - - - - - - - - - - - - - - - - - -
 72
65
 73
2
 40
0.2
 49
0.1
 49
-0.1
  0
ENDTAB
  0
TABLE
  2
LAYER
 70
36
  0
LAYER
  2
0
 70
0
 62
7
  6
CONTINUOUS
  0
LAYER
  2
DEFAULT_1
 70
0
 62
7
  6
CENTER
  0
LAYER
  2
DEFAULT_2
 70
0
 62
8
  6
HIDDEN
  0
LAYER
  2
DEFAULT_3
 70
0
 62
7
  6
PHANTOM
  0
LAYER
  2
0000_BOM
 70
0
 62
7
  6
CONTINUOUS
  0
LAYER
  2
0000_REV_TABLE
 70
0
 62
7
  6
CONTINUOUS
  0
LAYER
  2
0000_STEVENS_NOTE
 70
0
 62
7
  6
CONTINUOUS
  0
LAYER
  2
01_DATUM_PLANES
 70
0
 62
7
  6
CONTINUOUS
  0
LAYER
  2
01_DEF_PLANES
 70
0
 62
7
  6
CONTINUOUS
  0
LAYER
  2
02_DATUM_COS
 70
0
 62
7
  6
CONTINUOUS
  0
LAYER
  2
90_IMP_FEAT
 70
0
 62
7
  6
CONTINUOUS
  0
LAYER
  2
95_STL
 70
0
 62
7
  6
CONTINUOUS
  0
LAYER
  2
99_SOLID
 70
0
 62
7
  6
CONTINUOUS
  0
LAYER
  2
CAD-MASTER_ZINC-PL
 70
0
 62
7
  6
CONTINUOUS
  0
LAYER
  2
CURVE
 70
0
 62
7
  6
CONTINUOUS
  0
LAYER
  2
SHELL
 70
0
 62
7
  6
CONTINUOUS
  0
LAYER
  2
SKEL
 70
0
 62
7
  6
CONTINUOUS
  0
LAYER
  2
SKETCH
 70
0
 62
7
  6
CONTINUOUS
  0
LAYER
  2
SURFACE
 70
0
 62
7
  6
CONTINUOUS
  0
ENDTAB
  0
TABLE
  2
STYLE
 70
1
  0
STYLE
  2
STANDARD
 70
0
 40
0.0
 41
0.75
 50
0.0
 71
0
 42
0.2
  3
txt
  4

  0
STYLE
  2
TEXTSTYLE_1
 70
0
 40
0.0
 41
0.8
 50
0.0
 71
0
 42
0.2
  3
gdt
  4

  0
ENDTAB
  0
ENDSEC
  0
SECTION
  2
BLOCKS
  0
BLOCK
  8
0
 62
5
  6
CONTINUOUS
  2
PLUMBING_BL1
 70
64
 10
184.275392042
 20
-242.3611223241
  0
CIRCLE
  8
0
 62
5
  6
CONTINUOUS
 10
184.275392042
 20
-242.3611223241
 40
12.5
  0
LINE
  8
0
 62
5
  6
CONTINUOUS
 10
196.775392042
 20
-229.8611223241
 11
171.775392042
 21
-254.8611223241
  0
LINE
  8
0
 62
5
  6
CONTINUOUS
 10
184.275392042
 20
-242.3611223241
 11
171.775392042
 21
-229.8611223241
  0
LINE
  8
0
 62
5
  6
CONTINUOUS
 10
184.275392042
 20
-242.3611223241
 11
196.775392042
 21
-254.8611223241
  0
ENDBLK
  8
0
  6
BYBLOCK
 62
0
  0
BLOCK
  8
0
 62
1
  6
CONTINUOUS
  2
PLUMBING_BL0
 70
64
 10
184.275392042
 20
-62.3611223241
  0
CIRCLE
  8
0
 62
1
  6
CONTINUOUS
 10
184.275392042
 20
-62.3611223241
 40
12.5
  0
LINE
  8
0
 62
1
  6
CONTINUOUS
 10
196.775392042
 20
-49.8611223241
 11
171.775392042
 21
-74.8611223241
  0
LINE
  8
0
 62
1
  6
CONTINUOUS
 10
184.275392042
 20
-62.3611223241
 11
171.775392042
 21
-49.8611223241
  0
LINE
  8
0
 62
1
  6
CONTINUOUS
 10
184.275392042
 20
-62.3611223241
 11
196.775392042
 21
-74.8611223241
  0
ENDBLK
  8
0
  6
BYBLOCK
 62
0
  0
ENDSEC
  0
SECTION
  2
ENTITIES
  0
INSERT
  8
0
 62
1
  6
CONTINUOUS
  2
PLUMBING_BL0
 10
184.275392042
 20
-62.3611223241
  0
INSERT
  8
0
 62
5
  6
CONTINUOUS
  2
PLUMBING_BL1
 10
184.275392042
 20
-242.3611223241
  0
POLYLINE
  8
0
 62
7
  6
CONTINUOUS
 66
1
 70
0
  0
VERTEX
  8
0
 62
7
  6
CONTINUOUS
 10
209.9179645489
 20
537.4005205994
  0
VERTEX
  8
0
 62
7
  6
CONTINUOUS
 10
201.5071111796
 20
537.4813830689
  0
VERTEX
  8
0
 62
7
  6
CONTINUOUS
 10
193.095892931
 20
537.5305180351
  0
VERTEX
  8
0
 62
7
  6
CONTINUOUS
 10
184.6844893363
 20
537.5479250527
  0
VERTEX
  8
0
 62
7
  6
CONTINUOUS
 10
176.2730799287
 20
537.5336036761
  0
VERTEX
  8
0
 62
7
  6
CONTINUOUS
 10
167.8618442415
 20
537.4875534598
  0
VERTEX
  8
0
 62
7
  6
CONTINUOUS
 10
159.4509618078
 20
537.4097739585
  0
SEQEND
  0
LINE
  8
0
 62
7
  6
CONTINUOUS
 10
334.3579055543
 20
-242.3611223241
 11
34.1928785296
 21
-242.3611223241
  0
POLYLINE
  8
0
 62
7
  6
CONTINUOUS
 66
1
 70
0
  0
VERTEX
  8
0
 62
7
  6
CONTINUOUS
 10
-4.0475878883
 20
529.9383583033
  0
VERTEX
  8
0
 62
7
  6
CONTINUOUS
 10
-4.4477003503
 20
529.0918557418
  0
VERTEX
  8
0
 62
7
  6
CONTINUOUS
 10
-4.7482012327
 20
528.1976331116
  0
VERTEX
  8
0
 62
7
  6
CONTINUOUS
 10
-4.9421758953
 20
527.2697858928
  0
VERTEX
  8
0
 62
7
  6
CONTINUOUS
 10
-4.9829932504
 20
526.9494441367
  0
SEQEND
  0
LINE
  8
0
 62
7
  6
CONTINUOUS
 10
-4.0488378845
 20
529.9360692335
 11
-4.0475773998
 21
529.9383775032
  0
LINE
  8
0
 62
7
  6
CONTINUOUS
 10
165.651159066
 20
544.0308943465
 11
162.812406675
 21
540.3683319847
  0
POLYLINE
  8
0
 62
7
  6
CONTINUOUS
 66
1
 70
0
  0
VERTEX
  8
0
 62
7
  6
CONTINUOUS
 10
-8.3510198187
 20
495.4578522104
  0
VERTEX
  8
0
 62
7
  6
CONTINUOUS
 10
-8.3659470525
 20
495.0272065964
  0
VERTEX
  8
0
 62
7
  6
CONTINUOUS
 10
-8.3136947772
 20
494.5705108056
  0
VERTEX
  8
0
 62
7
  6
CONTINUOUS
 10
-8.1926280948
 20
494.128119385
  0
VERTEX
  8
0
 62
7
  6
CONTINUOUS
 10
-8.0049908282
 20
493.7083432193
  0
VERTEX
  8
0
 62
7
  6
CONTINUOUS
 10
-7.7555053892
 20
493.3222994705
  0
VERTEX
  8
0
 62
7
  6
CONTINUOUS
 10
-7.4499586153
 20
492.9788843089
  0
VERTEX
  8
0
 62
7
  6
CONTINUOUS
 10
-7.0954737843
 20
492.686136743
  0
VERTEX
  8
0
 62
7
  6
CONTINUOUS
 10
-6.7007502637
 20
492.4511541342
  0
VERTEX
  8
0
 62
7
  6
CONTINUOUS
 10
-6.2742400749
 20
492.279020231
  0
VERTEX
  8
0
 62
7
  6
CONTINUOUS
 10
-5.8232757452
 20
492.17362016
  0
VERTEX
  8
0
 62
7
  6
CONTINUOUS
 10
-5.3680309762
 20
492.1388776759
  0
SEQEND
  0
LINE
  8
0
 62
7
  6
CONTINUOUS
 10
-8.3510326472
 20
495.457972266
 11
-4.9829902127
 21
526.9490043707
  0
LINE
  8
0
 62
7
  6
CONTINUOUS
 10
-4.9828418131
 20
526.9503795155
 11
-4.9828678347
 21
526.9501485977
  0
LINE
  8
0
 62
7
  6
CONTINUOUS
 10
3.4765475303
 20
159.6119671204
 11
3.476286552
 21
159.6147092964
  0
LINE
  8
0
 62
7
  6
CONTINUOUS
 10
2.5101601306
 20
208.4078694136
 11
-5.9317903635
 21
489.0486682141
  0
POLYLINE
  8
0
 62
7
  6
CONTINUOUS
 66
1
 70
0
  0
VERTEX
  8
0
 62
7
  6
CONTINUOUS
 10
1.6801525421
 20
160.8048614522
  0
VERTEX
  8
0
 62
7
  6
CONTINUOUS
 10
2.9813394011
 20
105.2395193776
  0
VERTEX
  8
0
 62
7
  6
CONTINUOUS
 10
5.2223694104
 20
52.6452600118
  0
VERTEX
  8
0
 62
7
  6
CONTINUOUS
 10
9.1753667305
 20
5.5481550657
  0
VERTEX
  8
0
 62
7
  6
CONTINUOUS
 10
14.1379590906
 20
-38.47704612
  0
VERTEX
  8
0
 62
7
  6
CONTINUOUS
 10
17.9687762609
 20
-80.5877090924
  0
VERTEX
  8
0
 62
7
  6
CONTINUOUS
 10
20.3154377177
 20
-125.3719884367
  0
VERTEX
  8
0
 62
7
  6
CONTINUOUS
 10
22.7367989046
 20
-177.9143229694
  0
VERTEX
  8
0
 62
7
  6
CONTINUOUS
 10
26.2046009247
 20
-234.7940238694
  0
SEQEND
  0
POLYLINE
  8
0
 62
7
  6
CONTINUOUS
 66
1
 70
0
  0
VERTEX
  8
0
 62
7
  6
CONTINUOUS
 10
1.4734216993
 20
179.3205325147
  0
VERTEX
  8
0
 62
7
  6
CONTINUOUS
 10
1.4742481532
 20
178.9238957363
  0
VERTEX
  8
0
 62
7
  6
CONTINUOUS
 10
1.584149389
 20
177.8002501582
  0
VERTEX
  8
0
 62
7
  6
CONTINUOUS
 10
1.8487941961
 20
176.7106053638
  0
VERTEX
  8
0
 62
7
  6
CONTINUOUS
 10
2.2625370685
 20
175.6700320755
  0
VERTEX
  8
0
 62
7
  6
CONTINUOUS
 10
2.8184678791
 20
174.6960129658
  0
VERTEX
  8
0
 62
7
  6
CONTINUOUS
 10
3.5049908257
 20
173.8094816713
  0
VERTEX
  8
0
 62
7
  6
CONTINUOUS
 10
4.3087323865
 20
173.0276338769
  0
VERTEX
  8
0
 62
7
  6
CONTINUOUS
 10
5.214018256
 20
172.3657641959
  0
VERTEX
  8
0
 62
7
  6
CONTINUOUS
 10
6.2021482965
 20
171.8373519491
  0
VERTEX
  8
0
 62
7
  6
CONTINUOUS
 10
7.2554469749
 20
171.4518920488
  0
VERTEX
  8
0
 62
7
  6
CONTINUOUS
 10
8.3783477801
 20
171.2138959726
  0
SEQEND
  0
LINE
  8
0
 62
7
  6
CONTINUOUS
 10
2.0793547916
 20
205.9984413868
 11
1.4734160884
 21
179.3205382953
  0
LINE
  8
0
 62
7
  6
CONTINUOUS
 10
2.0803893428
 20
205.9980600667
 11
1.4744644682
 21
179.3205144833
  0
LINE
  8
0
 62
7
  6
CONTINUOUS
 10
2.5501689437
 20
158.8863770051
 11
2.5502224756
 21
158.8865431731
  0
POLYLINE
  8
0
 62
7
  6
CONTINUOUS
 66
1
 70
0
  0
VERTEX
  8
0
 62
7
  6
CONTINUOUS
 10
60.9899672404
 20
0.1703228546
  0
VERTEX
  8
0
 62
7
  6
CONTINUOUS
 10
61.1209861041
 20
-0.0452520851
  0
VERTEX
  8
0
 62
7
  6
CONTINUOUS
 10
61.2827464368
 20
-0.3342723337
  0
SEQEND
  0
LINE
  8
0
 62
7
  6
CONTINUOUS
 10
3.3483560918
 20
157.8280434663
 11
3.4367878508
 21
157.4326976034
  0
POLYLINE
  8
0
 62
7
  6
CONTINUOUS
 66
1
 70
0
  0
VERTEX
  8
0
 62
7
  6
CONTINUOUS
 10
4.3047685944
 20
157.9544556981
  0
VERTEX
  8
0
 62
7
  6
CONTINUOUS
 10
4.5718948888
 20
156.7268398628
  0
VERTEX
  8
0
 62
7
  6
CONTINUOUS
 10
4.8313419565
 20
155.5287476355
  0
VERTEX
  8
0
 62
7
  6
CONTINUOUS
 10
5.0823415398
 20
154.3640323294
  0
VERTEX
  8
0
 62
7
  6
CONTINUOUS
 10
5.3244023368
 20
153.2353376424
  0
VERTEX
  8
0
 62
7
  6
CONTINUOUS
 10
5.5582368481
 20
152.1397076254
  0
VERTEX
  8
0
 62
7
  6
CONTINUOUS
 10
5.784378914
 20
151.0750157558
  0
VERTEX
  8
0
 62
7
  6
CONTINUOUS
 10
6.00288895
 20
150.0414199767
  0
VERTEX
  8
0
 62
7
  6
CONTINUOUS
 10
6.2142718399
 20
149.0369573461
  0
SEQEND
  0
LINE
  8
0
 62
7
  6
CONTINUOUS
 10
4.3075837117
 20
157.9520921937
 11
4.3069521979
 21
157.9550442691
  0
POLYLINE
  8
0
 62
7
  6
CONTINUOUS
 66
1
 70
0
  0
VERTEX
  8
0
 62
7
  6
CONTINUOUS
 10
6.2142718399
 20
149.0369573461
  0
VERTEX
  8
0
 62
7
  6
CONTINUOUS
 10
6.4177257333
 20
148.0658589078
  0
VERTEX
  8
0
 62
7
  6
CONTINUOUS
 10
6.6128382795
 20
147.130531561
  0
VERTEX
  8
0
 62
7
  6
CONTINUOUS
 10
6.7989683115
 20
146.2344922405
  0
VERTEX
  8
0
 62
7
  6
CONTINUOUS
 10
6.9756828763
 20
145.3802656866
  0
VERTEX
  8
0
 62
7
  6
CONTINUOUS
 10
7.1419588648
 20
144.573238383
  0
VERTEX
  8
0
 62
7
  6
CONTINUOUS
 10
7.2973446225
 20
143.8160366465
  0
VERTEX
  8
0
 62
7
  6
CONTINUOUS
 10
7.4397153254
 20
143.1194720831
  0
VERTEX
  8
0
 62
7
  6
CONTINUOUS
 10
7.5679946896
 20
142.4892961262
  0
VERTEX
  8
0
 62
7
  6
CONTINUOUS
 10
7.6786631698
 20
141.9433504502
  0
VERTEX
  8
0
 62
7
  6
CONTINUOUS
 10
7.7677467601
 20
141.5019650976
  0
VERTEX
  8
0
 62
7
  6
CONTINUOUS
 10
7.8357323418
 20
141.1635257138
  0
VERTEX
  8
0
 62
7
  6
CONTINUOUS
 10
7.8770590175
 20
140.9567069644
  0
VERTEX
  8
0
 62
7
  6
CONTINUOUS
 10
7.9060037133
 20
140.8110285846
  0
VERTEX
  8
0
 62
7
  6
CONTINUOUS
 10
7.9359069229
 20
140.6597717402
  0
VERTEX
  8
0
 62
7
  6
CONTINUOUS
 10
7.9634007908
 20
140.5200232496
  0
VERTEX
  8
0
 62
7
  6
CONTINUOUS
 10
7.989756004
 20
140.3854489312
  0
VERTEX
  8
0
 62
7
  6
CONTINUOUS
 10
8.0143054818
 20
140.2595473794
  0
VERTEX
  8
0
 62
7
  6
CONTINUOUS
 10
8.0368995654
 20
140.143195631
  0
VERTEX
  8
0
 62
7
  6
CONTINUOUS
 10
8.0572620491
 20
140.0379268831
  0
VERTEX
  8
0
 62
7
  6
CONTINUOUS
 10
8.0752016534
 20
139.9448417638
  0
SEQEND
  0
POLYLINE
  8
0
 62
7
  6
CONTINUOUS
 66
1
 70
0
  0
VERTEX
  8
0
 62
7
  6
CONTINUOUS
 10
8.0752016534
 20
139.9448417638
  0
VERTEX
  8
0
 62
7
  6
CONTINUOUS
 10
8.1023177022
 20
139.80344448
  0
VERTEX
  8
0
 62
7
  6
CONTINUOUS
 10
8.105016502
 20
139.7893015718
  0
SEQEND
  0
LINE
  8
0
 62
7
  6
CONTINUOUS
 10
8.0838448819
 20
139.9022901706
 11
8.1169016139
 21
139.7258720115
  0
POLYLINE
  8
0
 62
7
  6
CONTINUOUS
 66
1
 70
0
  0
VERTEX
  8
0
 62
7
  6
CONTINUOUS
 10
8.1169016139
 20
139.7258720115
  0
VERTEX
  8
0
 62
7
  6
CONTINUOUS
 10
8.1792856676
 20
139.3930601862
  0
VERTEX
  8
0
 62
7
  6
CONTINUOUS
 10
8.2821035646
 20
138.8457080493
  0
VERTEX
  8
0
 62
7
  6
CONTINUOUS
 10
8.4254625206
 20
138.0857101809
  0
VERTEX
  8
0
 62
7
  6
CONTINUOUS
 10
8.6157572192
 20
137.0833138474
  0
VERTEX
  8
0
 62
7
  6
CONTINUOUS
 10
8.8439609709
 20
135.8914834852
  0
VERTEX
  8
0
 62
7
  6
CONTINUOUS
 10
9.1052622455
 20
134.5409549371
  0
VERTEX
  8
0
 62
7
  6
CONTINUOUS
 10
9.393548682
 20
133.0687233798
  0
VERTEX
  8
0
 62
7
  6
CONTINUOUS
 10
9.7021109489
 20
131.513643134
  0
VERTEX
  8
0
 62
7
  6
CONTINUOUS
 10
10.026795883
 20
129.9002885142
  0
VERTEX
  8
0
 62
7
  6
CONTINUOUS
 10
10.3596143695
 20
128.2707139738
  0
VERTEX
  8
0
 62
7
  6
CONTINUOUS
 10
10.703863004
 20
126.6105692441
  0
VERTEX
  8
0
 62
7
  6
CONTINUOUS
 10
11.060042925
 20
124.9195895734
  0
VERTEX
  8
0
 62
7
  6
CONTINUOUS
 10
11.4286530576
 20
123.1976182536
  0
VERTEX
  8
0
 62
7
  6
CONTINUOUS
 10
11.8103868908
 20
121.4437090574
  0
VERTEX
  8
0
 62
7
  6
CONTINUOUS
 10
12.2052795441
 20
119.6600190827
  0
VERTEX
  8
0
 62
7
  6
CONTINUOUS
 10
12.6135336291
 20
117.8479136064
  0
VERTEX
  8
0
 62
7
  6
CONTINUOUS
 10
13.0353353114
 20
116.0088152526
  0
VERTEX
  8
0
 62
7
  6
CONTINUOUS
 10
13.4710113096
 20
114.1435056342
  0
VERTEX
  8
0
 62
7
  6
CONTINUOUS
 10
13.9202898523
 20
112.2552700178
  0
VERTEX
  8
0
 62
7
  6
CONTINUOUS
 10
14.3831181186
 20
110.3463284924
  0
VERTEX
  8
0
 62
7
  6
CONTINUOUS
 10
14.8589987405
 20
108.4205784035
  0
VERTEX
  8
0
 62
7
  6
CONTINUOUS
 10
15.3475268065
 20
106.4813104807
  0
VERTEX
  8
0
 62
7
  6
CONTINUOUS
 10
15.8480846651
 20
104.5324232127
  0
VERTEX
  8
0
 62
7
  6
CONTINUOUS
 10
16.3597250803
 20
102.5787887049
  0
VERTEX
  8
0
 62
7
  6
CONTINUOUS
 10
16.8826660205
 20
100.6205963302
  0
VERTEX
  8
0
 62
7
  6
CONTINUOUS
 10
17.4168130264
 20
98.6591573136
  0
VERTEX
  8
0
 62
7
  6
CONTINUOUS
 10
17.9620079849
 20
96.6959051393
  0
VERTEX
  8
0
 62
7
  6
CONTINUOUS
 10
18.5182521311
 20
94.731595296
  0
VERTEX
  8
0
 62
7
  6
CONTINUOUS
 10
19.0847952277
 20
92.7694851565
  0
VERTEX
  8
0
 62
7
  6
CONTINUOUS
 10
19.6602241699
 20
90.8147887036
  0
VERTEX
  8
0
 62
7
  6
CONTINUOUS
 10
20.2461771409
 20
88.8622174644
  0
VERTEX
  8
0
 62
7
  6
CONTINUOUS
 10
20.8429966466
 20
86.9110476058
  0
VERTEX
  8
0
 62
7
  6
CONTINUOUS
 10
21.453456005
 20
84.9529475255
  0
VERTEX
  8
0
 62
7
  6
CONTINUOUS
 10
22.0810203482
 20
82.9780804563
  0
VERTEX
  8
0
 62
7
  6
CONTINUOUS
 10
22.724808342
 20
80.9906603394
  0
VERTEX
  8
0
 62
7
  6
CONTINUOUS
 10
23.384953875
 20
78.9915718075
  0
VERTEX
  8
0
 62
7
  6
CONTINUOUS
 10
24.0618334367
 20
76.9809449763
  0
VERTEX
  8
0
 62
7
  6
CONTINUOUS
 10
24.7555621713
 20
74.959678701
  0
VERTEX
  8
0
 62
7
  6
CONTINUOUS
 10
25.467042002
 20
72.9263431713
  0
VERTEX
  8
0
 62
7
  6
CONTINUOUS
 10
26.1969190819
 20
70.8802105309
  0
VERTEX
  8
0
 62
7
  6
CONTINUOUS
 10
26.9460495092
 20
68.8200541983
  0
VERTEX
  8
0
 62
7
  6
CONTINUOUS
 10
27.7153320504
 20
66.7446722911
  0
VERTEX
  8
0
 62
7
  6
CONTINUOUS
 10
28.5055222383
 20
64.6533801591
  0
VERTEX
  8
0
 62
7
  6
CONTINUOUS
 10
29.3175258412
 20
62.5452140612
  0
VERTEX
  8
0
 62
7
  6
CONTINUOUS
 10
30.1520187443
 20
60.4199221016
  0
VERTEX
  8
0
 62
7
  6
CONTINUOUS
 10
31.0098823267
 20
58.2768254336
  0
VERTEX
  8
0
 62
7
  6
CONTINUOUS
 10
31.8915965394
 20
56.1163353847
  0
VERTEX
  8
0
 62
7
  6
CONTINUOUS
 10
32.7978305523
 20
53.938435678
  0
VERTEX
  8
0
 62
7
  6
CONTINUOUS
 10
33.7289258148
 20
51.7437446395
  0
VERTEX
  8
0
 62
7
  6
CONTINUOUS
 10
34.6846459612
 20
49.5340489822
  0
VERTEX
  8
0
 62
7
  6
CONTINUOUS
 10
35.6671306568
 20
47.3057002165
  0
VERTEX
  8
0
 62
7
  6
CONTINUOUS
 10
36.6780181968
 20
45.0564807468
  0
VERTEX
  8
0
 62
7
  6
CONTINUOUS
 10
37.7190960271
 20
42.7841423591
  0
VERTEX
  8
0
 62
7
  6
CONTINUOUS
 10
38.793060701
 20
40.4847527869
  0
VERTEX
  8
0
 62
7
  6
CONTINUOUS
 10
39.8993825477
 20
38.1614240381
  0
VERTEX
  8
0
 62
7
  6
CONTINUOUS
 10
41.0382953573
 20
35.8155121022
  0
VERTEX
  8
0
 62
7
  6
CONTINUOUS
 10
42.2100118981
 20
33.4482569805
  0
VERTEX
  8
0
 62
7
  6
CONTINUOUS
 10
43.4143114501
 20
31.0612580947
  0
VERTEX
  8
0
 62
7
  6
CONTINUOUS
 10
44.6517729745
 20
28.6543180299
  0
VERTEX
  8
0
 62
7
  6
CONTINUOUS
 10
45.9226925475
 20
26.2277716543
  0
VERTEX
  8
0
 62
7
  6
CONTINUOUS
 10
47.2275592641
 20
23.7815525509
  0
VERTEX
  8
0
 62
7
  6
CONTINUOUS
 10
48.5668115842
 20
21.3156717037
  0
VERTEX
  8
0
 62
7
  6
CONTINUOUS
 10
49.9408408576
 20
18.8302036507
  0
VERTEX
  8
0
 62
7
  6
CONTINUOUS
 10
51.3499754302
 20
16.3253086989
  0
VERTEX
  8
0
 62
7
  6
CONTINUOUS
 10
52.7946785537
 20
13.8006590991
  0
VERTEX
  8
0
 62
7
  6
CONTINUOUS
 10
54.2745609745
 20
11.2567546301
  0
VERTEX
  8
0
 62
7
  6
CONTINUOUS
 10
55.7912074806
 20
8.690628539
  0
VERTEX
  8
0
 62
7
  6
CONTINUOUS
 10
57.3456319804
 20
6.10045613
  0
VERTEX
  8
0
 62
7
  6
CONTINUOUS
 10
58.9395164756
 20
3.4834888507
  0
VERTEX
  8
0
 62
7
  6
CONTINUOUS
 10
60.5752961092
 20
0.836030949
  0
VERTEX
  8
0
 62
7
  6
CONTINUOUS
 10
61.0006862339
 20
0.1536035094
  0
SEQEND
  0
LINE
  8
0
 62
7
  6
CONTINUOUS
 10
4.1351585431
 20
158.8869476772
 11
4.1351964874
 21
158.8867421017
  0
POLYLINE
  8
0
 62
7
  6
CONTINUOUS
 66
1
 70
0
  0
VERTEX
  8
0
 62
7
  6
CONTINUOUS
 10
4.1158075588
 20
153.9838035507
  0
VERTEX
  8
0
 62
7
  6
CONTINUOUS
 10
4.1411028899
 20
153.8403001168
  0
VERTEX
  8
0
 62
7
  6
CONTINUOUS
 10
4.1673853694
 20
153.6856234173
  0
SEQEND
  0
POLYLINE
  8
0
 62
7
  6
CONTINUOUS
 66
1
 70
0
  0
VERTEX
  8
0
 62
7
  6
CONTINUOUS
 10
2.5501689437
 20
158.8863770051
  0
VERTEX
  8
0
 62
7
  6
CONTINUOUS
 10
2.6162152252
 20
158.4877851513
  0
VERTEX
  8
0
 62
7
  6
CONTINUOUS
 10
3.1640278043
 20
156.3530948123
  0
VERTEX
  8
0
 62
7
  6
CONTINUOUS
 10
3.5180727937
 20
155.4078605129
  0
SEQEND
  0
POLYLINE
  8
0
 62
7
  6
CONTINUOUS
 66
1
 70
0
  0
VERTEX
  8
0
 62
7
  6
CONTINUOUS
 10
4.1351585431
 20
158.8869476772
  0
VERTEX
  8
0
 62
7
  6
CONTINUOUS
 10
4.1537640401
 20
158.7676578995
  0
VERTEX
  8
0
 62
7
  6
CONTINUOUS
 10
4.3075837117
 20
157.9520921937
  0
SEQEND
  0
LINE
  8
0
 62
7
  6
CONTINUOUS
 10
156.5211152616
 20
538.2124846055
 11
156.2132481015
 21
537.3666265349
  0
POLYLINE
  8
0
 62
7
  6
CONTINUOUS
 66
1
 70
0
  0
VERTEX
  8
0
 62
7
  6
CONTINUOUS
 10
3.3926786816
 20
162.5013904517
  0
VERTEX
  8
0
 62
7
  6
CONTINUOUS
 10
2.921249852
 20
161.6653303394
  0
VERTEX
  8
0
 62
7
  6
CONTINUOUS
 10
2.618934353
 20
160.7575407683
  0
VERTEX
  8
0
 62
7
  6
CONTINUOUS
 10
2.4949581157
 20
159.805341026
  0
VERTEX
  8
0
 62
7
  6
CONTINUOUS
 10
2.5487563352
 20
158.8888828448
  0
SEQEND
  0
POLYLINE
  8
0
 62
7
  6
CONTINUOUS
 66
1
 70
0
  0
VERTEX
  8
0
 62
7
  6
CONTINUOUS
 10
7.1389024507
 20
171.4945420982
  0
VERTEX
  8
0
 62
7
  6
CONTINUOUS
 10
5.9293369797
 20
170.0718334177
  0
VERTEX
  8
0
 62
7
  6
CONTINUOUS
 10
4.8485574503
 20
168.3902522165
  0
VERTEX
  8
0
 62
7
  6
CONTINUOUS
 10
4.001198337
 20
166.5804708327
  0
VERTEX
  8
0
 62
7
  6
CONTINUOUS
 10
3.4017613429
 20
164.6734190095
  0
VERTEX
  8
0
 62
7
  6
CONTINUOUS
 10
3.0615897368
 20
162.7069475233
  0
VERTEX
  8
0
 62
7
  6
CONTINUOUS
 10
3.0292399599
 20
161.8568464623
  0
SEQEND
  0
LINE
  8
0
 62
7
  6
CONTINUOUS
 10
3.5314202939
 20
155.4051480705
 11
3.5289343183
 21
155.4109583277
  0
POLYLINE
  8
0
 62
7
  6
CONTINUOUS
 66
1
 70
0
  0
VERTEX
  8
0
 62
7
  6
CONTINUOUS
 10
3.5289343183
 20
155.4109583277
  0
VERTEX
  8
0
 62
7
  6
CONTINUOUS
 10
4.1643030394
 20
153.8658725359
  0
VERTEX
  8
0
 62
7
  6
CONTINUOUS
 10
5.3162263746
 20
151.0288258361
  0
VERTEX
  8
0
 62
7
  6
CONTINUOUS
 10
6.319856346
 20
148.5147682846
  0
VERTEX
  8
0
 62
7
  6
CONTINUOUS
 10
6.3280464643
 20
148.4939037913
  0
SEQEND
  0
LINE
  8
0
 62
7
  6
CONTINUOUS
 10
3.8989099993
 20
156.5783250779
 11
3.8918361998
 21
156.6014783345
  0
POLYLINE
  8
0
 62
7
  6
CONTINUOUS
 66
1
 70
0
  0
VERTEX
  8
0
 62
7
  6
CONTINUOUS
 10
6.2005642194
 20
171.8381990499
  0
VERTEX
  8
0
 62
7
  6
CONTINUOUS
 10
5.8592039689
 20
171.5258334041
  0
VERTEX
  8
0
 62
7
  6
CONTINUOUS
 10
4.6360051976
 20
170.0809053439
  0
VERTEX
  8
0
 62
7
  6
CONTINUOUS
 10
3.6069472655
 20
168.4955549446
  0
VERTEX
  8
0
 62
7
  6
CONTINUOUS
 10
2.7831037548
 20
166.7904016869
  0
VERTEX
  8
0
 62
7
  6
CONTINUOUS
 10
2.1799508483
 20
164.9904346029
  0
VERTEX
  8
0
 62
7
  6
CONTINUOUS
 10
1.8086048002
 20
163.1233534648
  0
VERTEX
  8
0
 62
7
  6
CONTINUOUS
 10
1.6766300916
 20
161.2137287238
  0
VERTEX
  8
0
 62
7
  6
CONTINUOUS
 10
1.6801523838
 20
160.8048614487
  0
SEQEND
  0
LINE
  8
0
 62
7
  6
CONTINUOUS
 10
184.5156857562
 20
545.6889215527
 11
184.5156857562
 21
546.3087875328
  0
LINE
  8
0
 62
7
  6
CONTINUOUS
 10
185.0156857562
 20
546.1056053691
 11
185.0156857562
 21
545.4346574694
  0
POLYLINE
  8
0
 62
7
  6
CONTINUOUS
 66
1
 70
0
  0
VERTEX
  8
0
 62
7
  6
CONTINUOUS
 10
7.4914588318
 20
164.6388791277
  0
VERTEX
  8
0
 62
7
  6
CONTINUOUS
 10
6.5471811134
 20
164.5487566772
  0
VERTEX
  8
0
 62
7
  6
CONTINUOUS
 10
5.6166453148
 20
164.2737730843
  0
VERTEX
  8
0
 62
7
  6
CONTINUOUS
 10
4.7649256892
 20
163.8295758685
  0
VERTEX
  8
0
 62
7
  6
CONTINUOUS
 10
4.0150351672
 20
163.231834097
  0
VERTEX
  8
0
 62
7
  6
CONTINUOUS
 10
3.3926786816
 20
162.5013904517
  0
SEQEND
  0
POLYLINE
  8
0
 62
7
  6
CONTINUOUS
 66
1
 70
0
  0
VERTEX
  8
0
 62
7
  6
CONTINUOUS
 10
9.0774778812
 20
164.6388906025
  0
VERTEX
  8
0
 62
7
  6
CONTINUOUS
 10
8.2791595539
 20
164.5745565332
  0
VERTEX
  8
0
 62
7
  6
CONTINUOUS
 10
7.489131953
 20
164.3795016927
  0
VERTEX
  8
0
 62
7
  6
CONTINUOUS
 10
6.7466779458
 20
164.0617678507
  0
VERTEX
  8
0
 62
7
  6
CONTINUOUS
 10
6.0659648939
 20
163.6293341729
  0
VERTEX
  8
0
 62
7
  6
CONTINUOUS
 10
5.4631432196
 20
163.0925838733
  0
VERTEX
  8
0
 62
7
  6
CONTINUOUS
 10
4.9545837234
 20
162.4658927177
  0
VERTEX
  8
0
 62
7
  6
CONTINUOUS
 10
4.5534830385
 20
161.7655566172
  0
VERTEX
  8
0
 62
7
  6
CONTINUOUS
 10
4.2701726134
 20
161.009428932
  0
VERTEX
  8
0
 62
7
  6
CONTINUOUS
 10
4.1125835365
 20
160.2202731831
  0
VERTEX
  8
0
 62
7
  6
CONTINUOUS
 10
4.0837420959
 20
159.4136903856
  0
VERTEX
  8
0
 62
7
  6
CONTINUOUS
 10
4.1352517597
 20
158.8887996404
  0
SEQEND
  0
POLYLINE
  8
0
 62
7
  6
CONTINUOUS
 66
1
 70
0
  0
VERTEX
  8
0
 62
7
  6
CONTINUOUS
 10
359.0794315392
 20
171.1388776759
  0
VERTEX
  8
0
 62
7
  6
CONTINUOUS
 10
360.1918882385
 20
171.2166027003
  0
VERTEX
  8
0
 62
7
  6
CONTINUOUS
 10
361.2953413741
 20
171.4518921536
  0
VERTEX
  8
0
 62
7
  6
CONTINUOUS
 10
362.3486409318
 20
171.8373520692
  0
VERTEX
  8
0
 62
7
  6
CONTINUOUS
 10
363.3367716698
 20
172.365764228
  0
VERTEX
  8
0
 62
7
  6
CONTINUOUS
 10
364.2420581274
 20
173.0276337086
  0
VERTEX
  8
0
 62
7
  6
CONTINUOUS
 10
365.045800179
 20
173.8094811638
  0
VERTEX
  8
0
 62
7
  6
CONTINUOUS
 10
365.7323235665
 20
174.6960119933
  0
VERTEX
  8
0
 62
7
  6
CONTINUOUS
 10
366.2882547832
 20
175.6700304966
  0
VERTEX
  8
0
 62
7
  6
CONTINUOUS
 10
366.7019980701
 20
176.7106030703
  0
VERTEX
  8
0
 62
7
  6
CONTINUOUS
 10
366.9666433198
 20
177.8002470025
  0
VERTEX
  8
0
 62
7
  6
CONTINUOUS
 10
367.0765450833
 20
178.9238915487
  0
VERTEX
  8
0
 62
7
  6
CONTINUOUS
 10
367.0773716442
 20
179.3205328464
  0
SEQEND
  0
LINE
  8
0
 62
7
  6
CONTINUOUS
 10
360.2583308439
 20
164.6410578327
 11
360.3679616873
 21
164.641105525
  0
LINE
  8
0
 62
7
  6
CONTINUOUS
 10
359.0885571325
 20
164.6407328207
 11
359.472126786
 21
164.6408017616
  0
LINE
  8
0
 62
7
  6
CONTINUOUS
 10
219.2753921147
 20
164.621279957
 11
149.2753884261
 21
164.6214483725
  0
LINE
  8
0
 62
7
  6
CONTINUOUS
 10
359.328716069
 20
164.6408297448
 11
359.9058853979
 21
164.6408779168
  0
LINE
  8
0
 62
7
  6
CONTINUOUS
 10
359.9058853979
 20
164.6408779168
 11
361.0493190674
 21
164.6409677573
  0
LINE
  8
0
 62
7
  6
CONTINUOUS
 10
350.2684713267
 20
164.6402445886
 11
359.0885571325
 21
164.6407328207
  0
LINE
  8
0
 62
7
  6
CONTINUOUS
 10
18.2821562424
 20
164.6402445929
 11
54.2705677016
 21
164.639127103
  0
LINE
  8
0
 62
7
  6
CONTINUOUS
 10
314.280176369
 20
164.639127102
 11
350.2684713267
 21
164.6402445886
  0
LINE
  8
0
 62
7
  6
CONTINUOUS
 10
54.2705677016
 20
164.639127103
 11
149.2753921385
 21
164.6364017576
  0
LINE
  8
0
 62
7
  6
CONTINUOUS
 10
219.2753919454
 20
164.6364017576
 11
314.280176369
 21
164.639127102
  0
LINE
  8
0
 62
7
  6
CONTINUOUS
 10
360.3679616873
 20
164.641105525
 11
279.492096582
 21
164.6388564474
  0
LINE
  8
0
 62
7
  6
CONTINUOUS
 10
89.0586875019
 20
164.6388564473
 11
8.1828223966
 21
164.641105525
  0
LINE
  8
0
 62
7
  6
CONTINUOUS
 10
217.4465326581
 20
164.6387162851
 11
151.1042514258
 21
164.6388759284
  0
LINE
  8
0
 62
7
  6
CONTINUOUS
 10
8.2925221365
 20
164.6410578305
 11
7.5012951149
 21
164.6409677626
  0
LINE
  8
0
 62
7
  6
CONTINUOUS
 10
359.079221061
 20
171.1388776759
 11
9.4715630229
 21
171.1388776759
  0
LINE
  8
0
 62
7
  6
CONTINUOUS
 10
9.0786572521
 20
164.6408017611
 11
9.4622269514
 21
164.6407328207
  0
LINE
  8
0
 62
7
  6
CONTINUOUS
 10
8.6448981893
 20
164.6408779168
 11
9.2220681936
 21
164.6408297448
  0
LINE
  8
0
 62
7
  6
CONTINUOUS
 10
7.50129476
 20
164.6409677618
 11
8.6448981893
 21
164.6408779168
  0
LINE
  8
0
 62
7
  6
CONTINUOUS
 10
9.4622269514
 20
164.6407328207
 11
18.2821562424
 21
164.6402445929
  0
LINE
  8
0
 62
7
  6
CONTINUOUS
 10
361.0493186471
 20
164.6409677581
 11
360.2583308564
 21
164.6410578327
  0
LINE
  8
0
 62
7
  6
CONTINUOUS
 10
8.1828223966
 20
164.641105525
 11
8.2925221475
 21
164.6410578305
  0
LINE
  8
0
 62
7
  6
CONTINUOUS
 10
8.3745923034
 20
171.2144595463
 11
9.4715582817
 21
171.1388776759
  0
POLYLINE
  8
0
 62
7
  6
CONTINUOUS
 66
1
 70
0
  0
VERTEX
  8
0
 62
7
  6
CONTINUOUS
 10
11.7666571394
 20
213.9139011681
  0
VERTEX
  8
0
 62
7
  6
CONTINUOUS
 10
11.7107862678
 20
213.9117007348
  0
VERTEX
  8
0
 62
7
  6
CONTINUOUS
 10
11.4214412157
 20
213.9000053657
  0
VERTEX
  8
0
 62
7
  6
CONTINUOUS
 10
11.1435392063
 20
213.8882848333
  0
VERTEX
  8
0
 62
7
  6
CONTINUOUS
 10
10.8818237836
 20
213.876767989
  0
VERTEX
  8
0
 62
7
  6
CONTINUOUS
 10
10.6398393448
 20
213.8656427407
  0
VERTEX
  8
0
 62
7
  6
CONTINUOUS
 10
10.4194916334
 20
213.8550334939
  0
VERTEX
  8
0
 62
7
  6
CONTINUOUS
 10
10.2220665788
 20
213.8450320549
  0
VERTEX
  8
0
 62
7
  6
CONTINUOUS
 10
10.0466495132
 20
213.8356151381
  0
VERTEX
  8
0
 62
7
  6
CONTINUOUS
 10
9.8924125973
 20
213.8267648685
  0
VERTEX
  8
0
 62
7
  6
CONTINUOUS
 10
9.7512266914
 20
213.8179888194
  0
VERTEX
  8
0
 62
7
  6
CONTINUOUS
 10
9.6159608873
 20
213.8086839457
  0
VERTEX
  8
0
 62
7
  6
CONTINUOUS
 10
9.4743497653
 20
213.7975802764
  0
VERTEX
  8
0
 62
7
  6
CONTINUOUS
 10
9.3059191316
 20
213.781955029
  0
VERTEX
  8
0
 62
7
  6
CONTINUOUS
 10
9.1146261123
 20
213.7604188371
  0
VERTEX
  8
0
 62
7
  6
CONTINUOUS
 10
8.8930946741
 20
213.729973642
  0
VERTEX
  8
0
 62
7
  6
CONTINUOUS
 10
8.6625294881
 20
213.6917313991
  0
VERTEX
  8
0
 62
7
  6
CONTINUOUS
 10
8.4536166064
 20
213.6511467417
  0
VERTEX
  8
0
 62
7
  6
CONTINUOUS
 10
8.2439840309
 20
213.6046268134
  0
VERTEX
  8
0
 62
7
  6
CONTINUOUS
 10
8.0210063104
 20
213.5486365557
  0
VERTEX
  8
0
 62
7
  6
CONTINUOUS
 10
7.788322339
 20
213.4828863001
  0
VERTEX
  8
0
 62
7
  6
CONTINUOUS
 10
7.5434371284
 20
213.4053910804
  0
VERTEX
  8
0
 62
7
  6
CONTINUOUS
 10
7.2929617375
 20
213.3170470868
  0
VERTEX
  8
0
 62
7
  6
CONTINUOUS
 10
7.0422831462
 20
213.2191070017
  0
VERTEX
  8
0
 62
7
  6
CONTINUOUS
 10
6.7928311808
 20
213.1118047706
  0
VERTEX
  8
0
 62
7
  6
CONTINUOUS
 10
6.5480342456
 20
212.9965331797
  0
VERTEX
  8
0
 62
7
  6
CONTINUOUS
 10
6.307077952
 20
212.872949316
  0
VERTEX
  8
0
 62
7
  6
CONTINUOUS
 10
6.0705061851
 20
212.7413227072
  0
VERTEX
  8
0
 62
7
  6
CONTINUOUS
 10
5.8376635703
 20
212.6012334381
  0
VERTEX
  8
0
 62
7
  6
CONTINUOUS
 10
5.6079594203
 20
212.4521395483
  0
VERTEX
  8
0
 62
7
  6
CONTINUOUS
 10
5.3819937152
 20
212.2941876324
  0
VERTEX
  8
0
 62
7
  6
CONTINUOUS
 10
5.1600927496
 20
212.1273680115
  0
VERTEX
  8
0
 62
7
  6
CONTINUOUS
 10
4.9425724238
 20
211.9516624534
  0
VERTEX
  8
0
 62
7
  6
CONTINUOUS
 10
4.7297770708
 20
211.7670734021
  0
VERTEX
  8
0
 62
7
  6
CONTINUOUS
 10
4.5220457979
 20
211.5735973123
  0
VERTEX
  8
0
 62
7
  6
CONTINUOUS
 10
4.3197475203
 20
211.3712559156
  0
VERTEX
  8
0
 62
7
  6
CONTINUOUS
 10
4.1232463461
 20
211.1600647351
  0
VERTEX
  8
0
 62
7
  6
CONTINUOUS
 10
3.9329385145
 20
210.9400714849
  0
VERTEX
  8
0
 62
7
  6
CONTINUOUS
 10
3.7492146149
 20
210.7113166027
  0
VERTEX
  8
0
 62
7
  6
CONTINUOUS
 10
3.5724992348
 20
210.4738811616
  0
VERTEX
  8
0
 62
7
  6
CONTINUOUS
 10
3.4032102339
 20
210.2278379003
  0
VERTEX
  8
0
 62
7
  6
CONTINUOUS
 10
3.2417964878
 20
209.9733037456
  0
VERTEX
  8
0
 62
7
  6
CONTINUOUS
 10
3.0887138234
 20
209.7104110405
  0
VERTEX
  8
0
 62
7
  6
CONTINUOUS
 10
2.9444477698
 20
209.4393521811
  0
VERTEX
  8
0
 62
7
  6
CONTINUOUS
 10
2.8094637863
 20
209.1602940941
  0
VERTEX
  8
0
 62
7
  6
CONTINUOUS
 10
2.684277463
 20
208.8735226605
  0
VERTEX
  8
0
 62
7
  6
CONTINUOUS
 10
2.5693215512
 20
208.5791438659
  0
VERTEX
  8
0
 62
7
  6
CONTINUOUS
 10
2.4650921468
 20
208.2773959708
  0
VERTEX
  8
0
 62
7
  6
CONTINUOUS
 10
2.3720745556
 20
207.9684754267
  0
VERTEX
  8
0
 62
7
  6
CONTINUOUS
 10
2.2907937828
 20
207.6526924222
  0
VERTEX
  8
0
 62
7
  6
CONTINUOUS
 10
2.2217666804
 20
207.3303251875
  0
VERTEX
  8
0
 62
7
  6
CONTINUOUS
 10
2.1655385491
 20
207.0017825329
  0
VERTEX
  8
0
 62
7
  6
CONTINUOUS
 10
2.1226435475
 20
206.6674425538
  0
VERTEX
  8
0
 62
7
  6
CONTINUOUS
 10
2.0936288083
 20
206.3278324562
  0
VERTEX
  8
0
 62
7
  6
CONTINUOUS
 10
2.0793511482
 20
205.9984309093
  0
SEQEND
  0
POLYLINE
  8
0
 62
7
  6
CONTINUOUS
 66
1
 70
0
  0
VERTEX
  8
0
 62
7
  6
CONTINUOUS
 10
149.1653733747
 20
217.5523695981
  0
VERTEX
  8
0
 62
7
  6
CONTINUOUS
 10
126.8201912339
 20
217.1988166204
  0
VERTEX
  8
0
 62
7
  6
CONTINUOUS
 10
103.6168619047
 20
216.7338189247
  0
VERTEX
  8
0
 62
7
  6
CONTINUOUS
 10
80.4155297396
 20
216.1691298435
  0
VERTEX
  8
0
 62
7
  6
CONTINUOUS
 10
57.216837143
 20
215.504760864
  0
VERTEX
  8
0
 62
7
  6
CONTINUOUS
 10
34.0214263522
 20
214.7407345201
  0
VERTEX
  8
0
 62
7
  6
CONTINUOUS
 10
11.7666571394
 20
213.9139011681
  0
SEQEND
  0
LINE
  8
0
 62
7
  6
CONTINUOUS
 10
149.1653814816
 20
217.5517801602
 11
149.2753920418
 21
217.5532920841
  0
LINE
  8
0
 62
7
  6
CONTINUOUS
 10
149.2753839409
 20
217.5538815229
 11
149.1653733836
 21
217.5523695984
  0
POLYLINE
  8
0
 62
7
  6
CONTINUOUS
 66
1
 70
0
  0
VERTEX
  8
0
 62
7
  6
CONTINUOUS
 10
219.2754001368
 20
217.5538815126
  0
VERTEX
  8
0
 62
7
  6
CONTINUOUS
 10
208.1701083214
 20
217.6821937406
  0
VERTEX
  8
0
 62
7
  6
CONTINUOUS
 10
196.2034762687
 20
217.7662887218
  0
VERTEX
  8
0
 62
7
  6
CONTINUOUS
 10
184.2365758568
 20
217.7941989402
  0
VERTEX
  8
0
 62
7
  6
CONTINUOUS
 10
172.269676653
 20
217.7659242388
  0
VERTEX
  8
0
 62
7
  6
CONTINUOUS
 10
160.3030482245
 20
217.6814647862
  0
VERTEX
  8
0
 62
7
  6
CONTINUOUS
 10
149.275383947
 20
217.5538815126
  0
SEQEND
  0
LINE
  8
0
 62
7
  6
CONTINUOUS
 10
219.2753920419
 20
217.5532920844
 11
219.3854026023
 21
217.5517801602
  0
LINE
  8
0
 62
7
  6
CONTINUOUS
 10
219.3854107032
 20
217.5523695984
 11
219.2754001457
 21
217.5538815229
  0
POLYLINE
  8
0
 62
7
  6
CONTINUOUS
 66
1
 70
0
  0
VERTEX
  8
0
 62
7
  6
CONTINUOUS
 10
356.7841269445
 20
213.9139011681
  0
VERTEX
  8
0
 62
7
  6
CONTINUOUS
 10
334.5293577412
 20
214.7407345198
  0
VERTEX
  8
0
 62
7
  6
CONTINUOUS
 10
311.3339469521
 20
215.5047608636
  0
VERTEX
  8
0
 62
7
  6
CONTINUOUS
 10
288.135254356
 20
216.1691298432
  0
VERTEX
  8
0
 62
7
  6
CONTINUOUS
 10
264.9339221902
 20
216.7338189244
  0
VERTEX
  8
0
 62
7
  6
CONTINUOUS
 10
241.7305928593
 20
217.1988166202
  0
VERTEX
  8
0
 62
7
  6
CONTINUOUS
 10
219.3854107092
 20
217.5523695981
  0
SEQEND
  0
POLYLINE
  8
0
 62
7
  6
CONTINUOUS
 66
1
 70
0
  0
VERTEX
  8
0
 62
7
  6
CONTINUOUS
 10
185.0156857562
 20
545.4840917259
  0
VERTEX
  8
0
 62
7
  6
CONTINUOUS
 10
185.0193999036
 20
545.4648241136
  0
VERTEX
  8
0
 62
7
  6
CONTINUOUS
 10
185.0309748173
 20
545.4446808825
  0
VERTEX
  8
0
 62
7
  6
CONTINUOUS
 10
185.0490136448
 20
545.4257853575
  0
SEQEND
  0
POLYLINE
  8
0
 62
7
  6
CONTINUOUS
 66
1
 70
0
  0
VERTEX
  8
0
 62
7
  6
CONTINUOUS
 10
364.4155323242
 20
158.8887996404
  0
VERTEX
  8
0
 62
7
  6
CONTINUOUS
 10
364.4693532299
 20
159.8050859875
  0
VERTEX
  8
0
 62
7
  6
CONTINUOUS
 10
364.3454480773
 20
160.7572096313
  0
VERTEX
  8
0
 62
7
  6
CONTINUOUS
 10
364.0432334903
 20
161.6649439853
  0
VERTEX
  8
0
 62
7
  6
CONTINUOUS
 10
363.5719314736
 20
162.5009748268
  0
VERTEX
  8
0
 62
7
  6
CONTINUOUS
 10
362.9497251924
 20
163.231417914
  0
VERTEX
  8
0
 62
7
  6
CONTINUOUS
 10
362.2000009602
 20
163.8291966438
  0
VERTEX
  8
0
 62
7
  6
CONTINUOUS
 10
361.3484710943
 20
164.2734684231
  0
VERTEX
  8
0
 62
7
  6
CONTINUOUS
 10
360.4181548342
 20
164.5485773651
  0
VERTEX
  8
0
 62
7
  6
CONTINUOUS
 10
359.4733062149
 20
164.6388906026
  0
SEQEND
  0
POLYLINE
  8
0
 62
7
  6
CONTINUOUS
 66
1
 70
0
  0
VERTEX
  8
0
 62
7
  6
CONTINUOUS
 10
364.3322418382
 20
153.3745269798
  0
VERTEX
  8
0
 62
7
  6
CONTINUOUS
 10
364.3417467041
 20
153.4337305851
  0
VERTEX
  8
0
 62
7
  6
CONTINUOUS
 10
364.4353815554
 20
153.9842100472
  0
SEQEND
  0
LINE
  8
0
 62
7
  6
CONTINUOUS
 10
364.2432010999
 20
157.9520955407
 11
364.415633238
 21
158.8869983675
  0
LINE
  8
0
 62
7
  6
CONTINUOUS
 10
360.4457153687
 20
139.7890302827
 11
360.4650662385
 21
139.8922964381
  0
POLYLINE
  8
0
 62
7
  6
CONTINUOUS
 66
1
 70
0
  0
VERTEX
  8
0
 62
7
  6
CONTINUOUS
 10
360.4457153687
 20
139.7890302827
  0
VERTEX
  8
0
 62
7
  6
CONTINUOUS
 10
360.4669193411
 20
139.899766598
  0
VERTEX
  8
0
 62
7
  6
CONTINUOUS
 10
360.4827310063
 20
139.9819744999
  0
VERTEX
  8
0
 62
7
  6
CONTINUOUS
 10
360.5009963895
 20
140.0766137597
  0
VERTEX
  8
0
 62
7
  6
CONTINUOUS
 10
360.5215684741
 20
140.1828178124
  0
VERTEX
  8
0
 62
7
  6
CONTINUOUS
 10
360.544218234
 20
140.2992976216
  0
VERTEX
  8
0
 62
7
  6
CONTINUOUS
 10
360.5688354057
 20
140.4253774862
  0
VERTEX
  8
0
 62
7
  6
CONTINUOUS
 10
360.5952757436
 20
140.560206376
  0
VERTEX
  8
0
 62
7
  6
CONTINUOUS
 10
360.6234120569
 20
140.7030213379
  0
VERTEX
  8
0
 62
7
  6
CONTINUOUS
 10
360.649759536
 20
140.8361451546
  0
VERTEX
  8
0
 62
7
  6
CONTINUOUS
 10
360.6842447273
 20
141.0094706383
  0
VERTEX
  8
0
 62
7
  6
CONTINUOUS
 10
360.7347000157
 20
141.2615219939
  0
VERTEX
  8
0
 62
7
  6
CONTINUOUS
 10
360.8044908579
 20
141.6084469623
  0
VERTEX
  8
0
 62
7
  6
CONTINUOUS
 10
360.9019825961
 20
142.0908975996
  0
VERTEX
  8
0
 62
7
  6
CONTINUOUS
 10
361.0202823865
 20
142.6737534831
  0
VERTEX
  8
0
 62
7
  6
CONTINUOUS
 10
361.1557271117
 20
143.3382716285
  0
VERTEX
  8
0
 62
7
  6
CONTINUOUS
 10
361.3067367469
 20
144.0761001711
  0
VERTEX
  8
0
 62
7
  6
CONTINUOUS
 10
361.4707592864
 20
144.8742180774
  0
VERTEX
  8
0
 62
7
  6
CONTINUOUS
 10
361.6469382956
 20
145.727942654
  0
VERTEX
  8
0
 62
7
  6
CONTINUOUS
 10
361.833725064
 20
146.629267944
  0
VERTEX
  8
0
 62
7
  6
CONTINUOUS
 10
362.0305931478
 20
147.5751614737
  0
SEQEND
  0
POLYLINE
  8
0
 62
7
  6
CONTINUOUS
 66
1
 70
0
  0
VERTEX
  8
0
 62
7
  6
CONTINUOUS
 10
362.0305931478
 20
147.5751614737
  0
VERTEX
  8
0
 62
7
  6
CONTINUOUS
 10
362.2366260275
 20
148.5607268806
  0
VERTEX
  8
0
 62
7
  6
CONTINUOUS
 10
362.4514223269
 20
149.5835566565
  0
VERTEX
  8
0
 62
7
  6
CONTINUOUS
 10
362.6742105341
 20
150.6394998657
  0
VERTEX
  8
0
 62
7
  6
CONTINUOUS
 10
362.9051630667
 20
151.72889678
  0
VERTEX
  8
0
 62
7
  6
CONTINUOUS
 10
363.1439334907
 20
152.849631334
  0
VERTEX
  8
0
 62
7
  6
CONTINUOUS
 10
363.3913001867
 20
154.0049205985
  0
VERTEX
  8
0
 62
7
  6
CONTINUOUS
 10
363.6481276989
 20
155.1983998053
  0
VERTEX
  8
0
 62
7
  6
CONTINUOUS
 10
363.9137781221
 20
156.4267090131
  0
VERTEX
  8
0
 62
7
  6
CONTINUOUS
 10
364.1879504047
 20
157.6881095174
  0
VERTEX
  8
0
 62
7
  6
CONTINUOUS
 10
364.2460160888
 20
157.9544584453
  0
SEQEND
  0
POLYLINE
  8
0
 62
7
  6
CONTINUOUS
 66
1
 70
0
  0
VERTEX
  8
0
 62
7
  6
CONTINUOUS
 10
365.032711299
 20
155.4078605342
  0
VERTEX
  8
0
 62
7
  6
CONTINUOUS
 10
365.4145420988
 20
156.4364377383
  0
VERTEX
  8
0
 62
7
  6
CONTINUOUS
 10
365.9486453891
 20
158.5674090822
  0
VERTEX
  8
0
 62
7
  6
CONTINUOUS
 10
366.0006151261
 20
158.8863769124
  0
SEQEND
  0
POLYLINE
  8
0
 62
7
  6
CONTINUOUS
 66
1
 70
0
  0
VERTEX
  8
0
 62
7
  6
CONTINUOUS
 10
362.2220867601
 20
148.491177792
  0
VERTEX
  8
0
 62
7
  6
CONTINUOUS
 10
363.1713608143
 20
150.8717462075
  0
VERTEX
  8
0
 62
7
  6
CONTINUOUS
 10
364.3274854544
 20
153.7217226598
  0
SEQEND
  0
LINE
  8
0
 62
7
  6
CONTINUOUS
 10
364.3274854544
 20
153.7217226598
 11
365.0219037024
 21
155.4110889113
  0
LINE
  8
0
 62
7
  6
CONTINUOUS
 10
365.0219037024
 20
155.4110889113
 11
365.0194319701
 21
155.4053121765
  0
POLYLINE
  8
0
 62
7
  6
CONTINUOUS
 66
1
 70
0
  0
VERTEX
  8
0
 62
7
  6
CONTINUOUS
 10
307.6222720964
 20
0.4709761079
  0
VERTEX
  8
0
 62
7
  6
CONTINUOUS
 10
307.3782033082
 20
-0.0968628977
  0
VERTEX
  8
0
 62
7
  6
CONTINUOUS
 10
307.2647584654
 20
-0.3406717256
  0
VERTEX
  8
0
 62
7
  6
CONTINUOUS
 10
307.429753049
 20
-0.0453282491
  0
VERTEX
  8
0
 62
7
  6
CONTINUOUS
 10
307.5608275948
 20
0.1703400609
  0
SEQEND
  0
POLYLINE
  8
0
 62
7
  6
CONTINUOUS
 66
1
 70
0
  0
VERTEX
  8
0
 62
7
  6
CONTINUOUS
 10
365.5835871204
 20
161.7659505143
  0
VERTEX
  8
0
 62
7
  6
CONTINUOUS
 10
365.1823780863
 20
162.4663110363
  0
VERTEX
  8
0
 62
7
  6
CONTINUOUS
 10
364.6736945406
 20
163.0930050585
  0
VERTEX
  8
0
 62
7
  6
CONTINUOUS
 10
364.0707337311
 20
163.6297349614
  0
VERTEX
  8
0
 62
7
  6
CONTINUOUS
 10
363.3898722507
 20
164.062118746
  0
VERTEX
  8
0
 62
7
  6
CONTINUOUS
 10
362.6472543441
 20
164.3797729523
  0
VERTEX
  8
0
 62
7
  6
CONTINUOUS
 10
361.8570423419
 20
164.5747100774
  0
VERTEX
  8
0
 62
7
  6
CONTINUOUS
 10
361.0593252516
 20
164.6388791276
  0
SEQEND
  0
LINE
  8
0
 62
7
  6
CONTINUOUS
 10
212.0296688223
 20
538.2124846055
 11
212.3370696976
 21
537.3679076418
  0
LINE
  8
0
 62
7
  6
CONTINUOUS
 10
366.0005615957
 20
158.8865430811
 11
366.0006151261
 21
158.8863769124
  0
POLYLINE
  8
0
 62
7
  6
CONTINUOUS
 66
1
 70
0
  0
VERTEX
  8
0
 62
7
  6
CONTINUOUS
 10
365.52122224
 20
161.8748162088
  0
VERTEX
  8
0
 62
7
  6
CONTINUOUS
 10
365.4866041244
 20
162.7313993919
  0
VERTEX
  8
0
 62
7
  6
CONTINUOUS
 10
365.1482733719
 20
164.676508361
  0
VERTEX
  8
0
 62
7
  6
CONTINUOUS
 10
364.5562782104
 20
166.5632476637
  0
VERTEX
  8
0
 62
7
  6
CONTINUOUS
 10
363.7215741486
 20
168.3551061486
  0
VERTEX
  8
0
 62
7
  6
CONTINUOUS
 10
362.6580849101
 20
170.0221976908
  0
VERTEX
  8
0
 62
7
  6
CONTINUOUS
 10
361.4169608216
 20
171.4963993611
  0
SEQEND
  0
POLYLINE
  8
0
 62
7
  6
CONTINUOUS
 66
1
 70
0
  0
VERTEX
  8
0
 62
7
  6
CONTINUOUS
 10
374.482551628
 20
489.0486834093
  0
VERTEX
  8
0
 62
7
  6
CONTINUOUS
 10
374.4656526603
 20
489.4693293607
  0
VERTEX
  8
0
 62
7
  6
CONTINUOUS
 10
374.355784119
 20
490.0062468403
  0
VERTEX
  8
0
 62
7
  6
CONTINUOUS
 10
374.1512537419
 20
490.5119294843
  0
VERTEX
  8
0
 62
7
  6
CONTINUOUS
 10
373.8582553455
 20
490.9725849072
  0
VERTEX
  8
0
 62
7
  6
CONTINUOUS
 10
373.4868488701
 20
491.3723139757
  0
VERTEX
  8
0
 62
7
  6
CONTINUOUS
 10
373.0487612135
 20
491.69841771
  0
VERTEX
  8
0
 62
7
  6
CONTINUOUS
 10
372.5575523119
 20
491.9401805109
  0
VERTEX
  8
0
 62
7
  6
CONTINUOUS
 10
372.0249447443
 20
492.089688639
  0
VERTEX
  8
0
 62
7
  6
CONTINUOUS
 10
371.4839147518
 20
492.1388776759
  0
SEQEND
  0
POLYLINE
  8
0
 62
7
  6
CONTINUOUS
 66
1
 70
0
  0
VERTEX
  8
0
 62
7
  6
CONTINUOUS
 10
366.4714241352
 20
205.9984138952
  0
VERTEX
  8
0
 62
7
  6
CONTINUOUS
 10
366.4663112801
 20
206.1555169201
  0
VERTEX
  8
0
 62
7
  6
CONTINUOUS
 10
366.4367736803
 20
206.5823121232
  0
VERTEX
  8
0
 62
7
  6
CONTINUOUS
 10
366.3853289439
 20
207.0011518803
  0
VERTEX
  8
0
 62
7
  6
CONTINUOUS
 10
366.3129981902
 20
207.4111649337
  0
VERTEX
  8
0
 62
7
  6
CONTINUOUS
 10
366.2208394078
 20
207.8114134749
  0
VERTEX
  8
0
 62
7
  6
CONTINUOUS
 10
366.109860658
 20
208.2012875093
  0
VERTEX
  8
0
 62
7
  6
CONTINUOUS
 10
365.9810943853
 20
208.5801059776
  0
VERTEX
  8
0
 62
7
  6
CONTINUOUS
 10
365.8354802884
 20
208.947477728
  0
VERTEX
  8
0
 62
7
  6
CONTINUOUS
 10
365.6740059387
 20
209.3028707922
  0
VERTEX
  8
0
 62
7
  6
CONTINUOUS
 10
365.4975198816
 20
209.6460576543
  0
VERTEX
  8
0
 62
7
  6
CONTINUOUS
 10
365.3070406135
 20
209.9764757632
  0
VERTEX
  8
0
 62
7
  6
CONTINUOUS
 10
365.1034904865
 20
210.2938004622
  0
VERTEX
  8
0
 62
7
  6
CONTINUOUS
 10
364.8877948007
 20
210.5977281873
  0
VERTEX
  8
0
 62
7
  6
CONTINUOUS
 10
364.6608057706
 20
210.8880783178
  0
VERTEX
  8
0
 62
7
  6
CONTINUOUS
 10
364.4233884768
 20
211.1646620771
  0
VERTEX
  8
0
 62
7
  6
CONTINUOUS
 10
364.1763277145
 20
211.4273940796
  0
VERTEX
  8
0
 62
7
  6
CONTINUOUS
 10
363.9204248992
 20
211.6761730765
  0
VERTEX
  8
0
 62
7
  6
CONTINUOUS
 10
363.6564034079
 20
211.9109791033
  0
VERTEX
  8
0
 62
7
  6
CONTINUOUS
 10
363.3850014704
 20
212.131778744
  0
VERTEX
  8
0
 62
7
  6
CONTINUOUS
 10
363.1068838292
 20
212.3386014007
  0
VERTEX
  8
0
 62
7
  6
CONTINUOUS
 10
362.8227368011
 20
212.5314601974
  0
VERTEX
  8
0
 62
7
  6
CONTINUOUS
 10
362.5330499954
 20
212.7104939979
  0
VERTEX
  8
0
 62
7
  6
CONTINUOUS
 10
362.2388512781
 20
212.8755254377
  0
VERTEX
  8
0
 62
7
  6
CONTINUOUS
 10
361.9404385192
 20
213.0268218929
  0
VERTEX
  8
0
 62
7
  6
CONTINUOUS
 10
361.6403818245
 20
213.1636126405
  0
VERTEX
  8
0
 62
7
  6
CONTINUOUS
 10
361.3405962403
 20
213.2857639898
  0
VERTEX
  8
0
 62
7
  6
CONTINUOUS
 10
361.0433759019
 20
213.3932416484
  0
VERTEX
  8
0
 62
7
  6
CONTINUOUS
 10
360.750989861
 20
213.4862920823
  0
VERTEX
  8
0
 62
7
  6
CONTINUOUS
 10
360.4649776924
 20
213.5655945661
  0
VERTEX
  8
0
 62
7
  6
CONTINUOUS
 10
360.189561442
 20
213.6313520825
  0
VERTEX
  8
0
 62
7
  6
CONTINUOUS
 10
359.9178033911
 20
213.6863233936
  0
VERTEX
  8
0
 62
7
  6
CONTINUOUS
 10
359.6291795489
 20
213.7342202388
  0
VERTEX
  8
0
 62
7
  6
CONTINUOUS
 10
359.3634950746
 20
213.7690908176
  0
VERTEX
  8
0
 62
7
  6
CONTINUOUS
 10
359.1566851578
 20
213.7904885784
  0
VERTEX
  8
0
 62
7
  6
CONTINUOUS
 10
358.9745070451
 20
213.8057292786
  0
VERTEX
  8
0
 62
7
  6
CONTINUOUS
 10
358.7935503665
 20
213.8183819828
  0
VERTEX
  8
0
 62
7
  6
CONTINUOUS
 10
358.5912467499
 20
213.8306996741
  0
VERTEX
  8
0
 62
7
  6
CONTINUOUS
 10
358.350153365
 20
213.8439120148
  0
VERTEX
  8
0
 62
7
  6
CONTINUOUS
 10
358.0623664091
 20
213.8584049292
  0
VERTEX
  8
0
 62
7
  6
CONTINUOUS
 10
357.7264007858
 20
213.8741700549
  0
VERTEX
  8
0
 62
7
  6
CONTINUOUS
 10
357.3501367574
 20
213.8907358783
  0
VERTEX
  8
0
 62
7
  6
CONTINUOUS
 10
356.9459600977
 20
213.9074767335
  0
VERTEX
  8
0
 62
7
  6
CONTINUOUS
 10
356.7841269443
 20
213.9139011647
  0
SEQEND
  0
LINE
  8
0
 62
7
  6
CONTINUOUS
 10
366.4714293074
 20
205.9984407199
 11
367.0773679955
 21
179.3205382953
  0
POLYLINE
  8
0
 62
7
  6
CONTINUOUS
 66
1
 70
0
  0
VERTEX
  8
0
 62
7
  6
CONTINUOUS
 10
366.8706317001
 20
160.8048614487
  0
VERTEX
  8
0
 62
7
  6
CONTINUOUS
 10
366.8741540315
 20
161.2137209718
  0
VERTEX
  8
0
 62
7
  6
CONTINUOUS
 10
366.7421801496
 20
163.1233469863
  0
VERTEX
  8
0
 62
7
  6
CONTINUOUS
 10
366.3708346209
 20
164.9904293916
  0
VERTEX
  8
0
 62
7
  6
CONTINUOUS
 10
365.7676819483
 20
166.7903977137
  0
VERTEX
  8
0
 62
7
  6
CONTINUOUS
 10
364.9438383904
 20
168.4955521534
  0
VERTEX
  8
0
 62
7
  6
CONTINUOUS
 10
363.9147801388
 20
170.0809036577
  0
VERTEX
  8
0
 62
7
  6
CONTINUOUS
 10
362.6915807908
 20
171.5258327018
  0
VERTEX
  8
0
 62
7
  6
CONTINUOUS
 10
362.3502216326
 20
171.8381973637
  0
SEQEND
  0
LINE
  8
0
 62
7
  6
CONTINUOUS
 10
366.0405439788
 20
208.4052107704
 11
374.4825744474
 21
489.0486682141
  0
POLYLINE
  8
0
 62
7
  6
CONTINUOUS
 66
1
 70
0
  0
VERTEX
  8
0
 62
7
  6
CONTINUOUS
 10
342.3461831592
 20
-234.7940238695
  0
VERTEX
  8
0
 62
7
  6
CONTINUOUS
 10
345.8139851806
 20
-177.9143229466
  0
VERTEX
  8
0
 62
7
  6
CONTINUOUS
 10
348.2353463676
 20
-125.3719884032
  0
VERTEX
  8
0
 62
7
  6
CONTINUOUS
 10
350.5820078251
 20
-80.587709063
  0
VERTEX
  8
0
 62
7
  6
CONTINUOUS
 10
354.4128249955
 20
-38.4770461002
  0
VERTEX
  8
0
 62
7
  6
CONTINUOUS
 10
359.3754173548
 20
5.5481550789
  0
VERTEX
  8
0
 62
7
  6
CONTINUOUS
 10
363.328414674
 20
52.6452600191
  0
VERTEX
  8
0
 62
7
  6
CONTINUOUS
 10
365.5694446829
 20
105.2395193804
  0
VERTEX
  8
0
 62
7
  6
CONTINUOUS
 10
366.8706315418
 20
160.8048614522
  0
SEQEND
  0
POLYLINE
  8
0
 62
7
  6
CONTINUOUS
 66
1
 70
0
  0
VERTEX
  8
0
 62
7
  6
CONTINUOUS
 10
366.0020277487
 20
158.8888828447
  0
VERTEX
  8
0
 62
7
  6
CONTINUOUS
 10
366.0535342324
 20
159.4139153119
  0
VERTEX
  8
0
 62
7
  6
CONTINUOUS
 10
366.0246459961
 20
160.2205676378
  0
VERTEX
  8
0
 62
7
  6
CONTINUOUS
 10
365.8669875694
 20
161.0097805394
  0
VERTEX
  8
0
 62
7
  6
CONTINUOUS
 10
365.5835871204
 20
161.7659505143
  0
SEQEND
  0
POLYLINE
  8
0
 62
7
  6
CONTINUOUS
 66
1
 70
0
  0
VERTEX
  8
0
 62
7
  6
CONTINUOUS
 10
307.5517014048
 20
0.1561714235
  0
VERTEX
  8
0
 62
7
  6
CONTINUOUS
 10
307.7986067931
 20
0.5519747542
  0
VERTEX
  8
0
 62
7
  6
CONTINUOUS
 10
309.2669141536
 20
2.9230243647
  0
VERTEX
  8
0
 62
7
  6
CONTINUOUS
 10
310.6996403611
 20
5.2663257559
  0
VERTEX
  8
0
 62
7
  6
CONTINUOUS
 10
312.0988861943
 20
7.5849454143
  0
VERTEX
  8
0
 62
7
  6
CONTINUOUS
 10
313.4660331772
 20
9.8809749045
  0
VERTEX
  8
0
 62
7
  6
CONTINUOUS
 10
314.8023203691
 20
12.1564250887
  0
VERTEX
  8
0
 62
7
  6
CONTINUOUS
 10
316.1092290241
 20
14.4138634009
  0
VERTEX
  8
0
 62
7
  6
CONTINUOUS
 10
317.3870438598
 20
16.6538952554
  0
VERTEX
  8
0
 62
7
  6
CONTINUOUS
 10
318.6365761248
 20
18.8779681884
  0
VERTEX
  8
0
 62
7
  6
CONTINUOUS
 10
319.8580092809
 20
21.085983753
  0
VERTEX
  8
0
 62
7
  6
CONTINUOUS
 10
321.0517319841
 20
23.2780888846
  0
VERTEX
  8
0
 62
7
  6
CONTINUOUS
 10
322.2183317016
 20
25.4548008757
  0
VERTEX
  8
0
 62
7
  6
CONTINUOUS
 10
323.3583504645
 20
27.6165707501
  0
VERTEX
  8
0
 62
7
  6
CONTINUOUS
 10
324.4722768129
 20
29.7637622762
  0
VERTEX
  8
0
 62
7
  6
CONTINUOUS
 10
325.5606525721
 20
31.8968561119
  0
VERTEX
  8
0
 62
7
  6
CONTINUOUS
 10
326.6238280526
 20
34.015968384
  0
VERTEX
  8
0
 62
7
  6
CONTINUOUS
 10
327.6623626605
 20
36.1216382052
  0
VERTEX
  8
0
 62
7
  6
CONTINUOUS
 10
328.6762192353
 20
38.2130531886
  0
VERTEX
  8
0
 62
7
  6
CONTINUOUS
 10
329.6656481615
 20
40.2896643296
  0
VERTEX
  8
0
 62
7
  6
CONTINUOUS
 10
330.6309323566
 20
42.3509289607
  0
VERTEX
  8
0
 62
7
  6
CONTINUOUS
 10
331.5719518352
 20
44.3953975981
  0
VERTEX
  8
0
 62
7
  6
CONTINUOUS
 10
332.4902335876
 20
46.425208085
  0
VERTEX
  8
0
 62
7
  6
CONTINUOUS
 10
333.3863662322
 20
48.4405481986
  0
VERTEX
  8
0
 62
7
  6
CONTINUOUS
 10
334.2627762959
 20
50.4459518902
  0
VERTEX
  8
0
 62
7
  6
CONTINUOUS
 10
335.1220308718
 20
52.4466614584
  0
VERTEX
  8
0
 62
7
  6
CONTINUOUS
 10
335.9636596354
 20
54.4410555828
  0
VERTEX
  8
0
 62
7
  6
CONTINUOUS
 10
336.7880658292
 20
56.4295311179
  0
VERTEX
  8
0
 62
7
  6
CONTINUOUS
 10
337.5952071743
 20
58.4112710416
  0
VERTEX
  8
0
 62
7
  6
CONTINUOUS
 10
338.3851146023
 20
60.3854938419
  0
VERTEX
  8
0
 62
7
  6
CONTINUOUS
 10
339.1582027093
 20
62.3523776476
  0
VERTEX
  8
0
 62
7
  6
CONTINUOUS
 10
339.9147357169
 20
64.3117560018
  0
VERTEX
  8
0
 62
7
  6
CONTINUOUS
 10
340.6551372929
 20
66.263909971
  0
VERTEX
  8
0
 62
7
  6
CONTINUOUS
 10
341.379722176
 20
68.2088813714
  0
VERTEX
  8
0
 62
7
  6
CONTINUOUS
 10
342.0889922406
 20
70.1472655759
  0
VERTEX
  8
0
 62
7
  6
CONTINUOUS
 10
342.7833387767
 20
72.079424415
  0
VERTEX
  8
0
 62
7
  6
CONTINUOUS
 10
343.4632869134
 20
74.0061604269
  0
VERTEX
  8
0
 62
7
  6
CONTINUOUS
 10
344.1294174127
 20
75.9285253625
  0
VERTEX
  8
0
 62
7
  6
CONTINUOUS
 10
344.7818379788
 20
77.8461904546
  0
VERTEX
  8
0
 62
7
  6
CONTINUOUS
 10
345.4207891497
 20
79.7590965148
  0
VERTEX
  8
0
 62
7
  6
CONTINUOUS
 10
346.0465879114
 20
81.6674146841
  0
VERTEX
  8
0
 62
7
  6
CONTINUOUS
 10
346.6595000506
 20
83.5711777603
  0
VERTEX
  8
0
 62
7
  6
CONTINUOUS
 10
347.2598930612
 20
85.4707548252
  0
VERTEX
  8
0
 62
7
  6
CONTINUOUS
 10
347.8469406853
 20
87.362668454
  0
VERTEX
  8
0
 62
7
  6
CONTINUOUS
 10
348.4244418344
 20
89.2585149153
  0
VERTEX
  8
0
 62
7
  6
CONTINUOUS
 10
348.9954932032
 20
91.1684451752
  0
VERTEX
  8
0
 62
7
  6
CONTINUOUS
 10
349.5603937347
 20
93.0938041112
  0
VERTEX
  8
0
 62
7
  6
CONTINUOUS
 10
350.1208055939
 20
95.0407773367
  0
VERTEX
  8
0
 62
7
  6
CONTINUOUS
 10
350.6753687444
 20
97.005175189
  0
VERTEX
  8
0
 62
7
  6
CONTINUOUS
 10
351.223407767
 20
98.98491618
  0
VERTEX
  8
0
 62
7
  6
CONTINUOUS
 10
351.7647927138
 20
100.9797314558
  0
VERTEX
  8
0
 62
7
  6
CONTINUOUS
 10
352.2995053893
 20
102.9897088299
  0
VERTEX
  8
0
 62
7
  6
CONTINUOUS
 10
352.8266822182
 20
105.0116237464
  0
VERTEX
  8
0
 62
7
  6
CONTINUOUS
 10
353.3465532282
 20
107.046267327
  0
VERTEX
  8
0
 62
7
  6
CONTINUOUS
 10
353.8561419459
 20
109.0815206538
  0
VERTEX
  8
0
 62
7
  6
CONTINUOUS
 10
354.3535376354
 20
111.1086201132
  0
VERTEX
  8
0
 62
7
  6
CONTINUOUS
 10
354.8367625769
 20
113.1178019442
  0
VERTEX
  8
0
 62
7
  6
CONTINUOUS
 10
355.3040105047
 20
115.0992779004
  0
VERTEX
  8
0
 62
7
  6
CONTINUOUS
 10
355.7537838312
 20
117.0439003079
  0
VERTEX
  8
0
 62
7
  6
CONTINUOUS
 10
356.1845381966
 20
118.9417148
  0
VERTEX
  8
0
 62
7
  6
CONTINUOUS
 10
356.5953564995
 20
120.7849921365
  0
VERTEX
  8
0
 62
7
  6
CONTINUOUS
 10
356.9842852171
 20
122.5608634219
  0
VERTEX
  8
0
 62
7
  6
CONTINUOUS
 10
357.3533718238
 20
124.2745663636
  0
VERTEX
  8
0
 62
7
  6
CONTINUOUS
 10
357.703399435
 20
125.9259562655
  0
VERTEX
  8
0
 62
7
  6
CONTINUOUS
 10
358.0358442039
 20
127.518482347
  0
VERTEX
  8
0
 62
7
  6
CONTINUOUS
 10
358.3516604589
 20
129.0534852018
  0
VERTEX
  8
0
 62
7
  6
CONTINUOUS
 10
358.6527614685
 20
130.5373550303
  0
VERTEX
  8
0
 62
7
  6
CONTINUOUS
 10
358.9417092819
 20
131.9802740069
  0
VERTEX
  8
0
 62
7
  6
CONTINUOUS
 10
359.2170109706
 20
133.3724512143
  0
VERTEX
  8
0
 62
7
  6
CONTINUOUS
 10
359.4822123839
 20
134.7296674359
  0
VERTEX
  8
0
 62
7
  6
CONTINUOUS
 10
359.7248713877
 20
135.9853269389
  0
VERTEX
  8
0
 62
7
  6
CONTINUOUS
 10
359.9347569404
 20
137.0818974172
  0
VERTEX
  8
0
 62
7
  6
CONTINUOUS
 10
360.1104527587
 20
138.0071165135
  0
VERTEX
  8
0
 62
7
  6
CONTINUOUS
 10
360.2446450911
 20
138.7180150156
  0
VERTEX
  8
0
 62
7
  6
CONTINUOUS
 10
360.3445262083
 20
139.2493115765
  0
VERTEX
  8
0
 62
7
  6
CONTINUOUS
 10
360.4457153687
 20
139.7890302827
  0
SEQEND
  0
LINE
  8
0
 62
7
  6
CONTINUOUS
 10
191.2654049322
 20
543.1863697337
 11
190.758080348
 21
544.0309136158
  0
POLYLINE
  8
0
 62
7
  6
CONTINUOUS
 66
1
 70
0
  0
VERTEX
  8
0
 62
7
  6
CONTINUOUS
 10
191.1787920259
 20
543.8534807585
  0
VERTEX
  8
0
 62
7
  6
CONTINUOUS
 10
191.4879494917
 20
543.3336380565
  0
VERTEX
  8
0
 62
7
  6
CONTINUOUS
 10
191.806928189
 20
542.7952136169
  0
VERTEX
  8
0
 62
7
  6
CONTINUOUS
 10
192.135750567
 20
542.2381903377
  0
VERTEX
  8
0
 62
7
  6
CONTINUOUS
 10
192.4743492775
 20
541.6626195255
  0
VERTEX
  8
0
 62
7
  6
CONTINUOUS
 10
192.8226569722
 20
541.0685524875
  0
VERTEX
  8
0
 62
7
  6
CONTINUOUS
 10
193.1806961006
 20
540.4559721213
  0
SEQEND
  0
POLYLINE
  8
0
 62
7
  6
CONTINUOUS
 66
1
 70
0
  0
VERTEX
  8
0
 62
7
  6
CONTINUOUS
 10
192.9379602016
 20
540.3677912705
  0
VERTEX
  8
0
 62
7
  6
CONTINUOUS
 10
192.355344859
 20
541.354808561
  0
VERTEX
  8
0
 62
7
  6
CONTINUOUS
 10
191.7978264359
 20
542.2943347154
  0
VERTEX
  8
0
 62
7
  6
CONTINUOUS
 10
191.2654049322
 20
543.1863697337
  0
SEQEND
  0
LINE
  8
0
 62
7
  6
CONTINUOUS
 10
376.9018167311
 20
495.457972266
 11
373.5337131798
 21
526.9495758102
  0
LINE
  8
0
 62
7
  6
CONTINUOUS
 10
376.9018228183
 20
495.4579153508
 11
376.901828803
 21
495.4578569103
  0
POLYLINE
  8
0
 62
7
  6
CONTINUOUS
 66
1
 70
0
  0
VERTEX
  8
0
 62
7
  6
CONTINUOUS
 10
373.533708362
 20
526.9494546907
  0
VERTEX
  8
0
 62
7
  6
CONTINUOUS
 10
373.4948484839
 20
527.2565620338
  0
VERTEX
  8
0
 62
7
  6
CONTINUOUS
 10
373.3056671636
 20
528.1727780484
  0
VERTEX
  8
0
 62
7
  6
CONTINUOUS
 10
373.0125638956
 20
529.0566590225
  0
VERTEX
  8
0
 62
7
  6
CONTINUOUS
 10
372.5990862758
 20
529.9370504444
  0
SEQEND
  0
LINE
  8
0
 62
7
  6
CONTINUOUS
 10
202.7840930518
 20
543.8534805954
 11
205.4174089078
 21
540.4559727424
  0
POLYLINE
  8
0
 62
7
  6
CONTINUOUS
 66
1
 70
0
  0
VERTEX
  8
0
 62
7
  6
CONTINUOUS
 10
373.9188150601
 20
492.1388776759
  0
VERTEX
  8
0
 62
7
  6
CONTINUOUS
 10
374.3740598248
 20
492.1736201593
  0
VERTEX
  8
0
 62
7
  6
CONTINUOUS
 10
374.8250241517
 20
492.2790202288
  0
VERTEX
  8
0
 62
7
  6
CONTINUOUS
 10
375.2515343399
 20
492.4511541304
  0
VERTEX
  8
0
 62
7
  6
CONTINUOUS
 10
375.6462578612
 20
492.6861367381
  0
VERTEX
  8
0
 62
7
  6
CONTINUOUS
 10
376.0007426935
 20
492.9788843033
  0
VERTEX
  8
0
 62
7
  6
CONTINUOUS
 10
376.306289469
 20
493.322299465
  0
VERTEX
  8
0
 62
7
  6
CONTINUOUS
 10
376.5557749096
 20
493.7083432146
  0
VERTEX
  8
0
 62
7
  6
CONTINUOUS
 10
376.7434121775
 20
494.1281193817
  0
VERTEX
  8
0
 62
7
  6
CONTINUOUS
 10
376.8644788608
 20
494.5705108037
  0
VERTEX
  8
0
 62
7
  6
CONTINUOUS
 10
376.9167311364
 20
495.0272065958
  0
VERTEX
  8
0
 62
7
  6
CONTINUOUS
 10
376.9018039026
 20
495.4578522104
  0
SEQEND
  0
LINE
  8
0
 62
7
  6
CONTINUOUS
 10
-5.3672907063
 20
492.1388776759
 11
373.9180745862
 21
492.1388776759
  0
POLYLINE
  8
0
 62
7
  6
CONTINUOUS
 66
1
 70
0
  0
VERTEX
  8
0
 62
7
  6
CONTINUOUS
 10
372.5996037407
 20
529.9361026258
  0
VERTEX
  8
0
 62
7
  6
CONTINUOUS
 10
372.3367458027
 20
530.3956533461
  0
VERTEX
  8
0
 62
7
  6
CONTINUOUS
 10
371.9852440019
 20
530.9473274533
  0
VERTEX
  8
0
 62
7
  6
CONTINUOUS
 10
371.5740570289
 20
531.513963105
  0
VERTEX
  8
0
 62
7
  6
CONTINUOUS
 10
371.0682122703
 20
532.1144528169
  0
VERTEX
  8
0
 62
7
  6
CONTINUOUS
 10
370.434625058
 20
532.7453171415
  0
VERTEX
  8
0
 62
7
  6
CONTINUOUS
 10
369.6288322586
 20
533.3936274931
  0
VERTEX
  8
0
 62
7
  6
CONTINUOUS
 10
368.6004455544
 20
534.0242375843
  0
VERTEX
  8
0
 62
7
  6
CONTINUOUS
 10
367.3447245157
 20
534.5554220977
  0
VERTEX
  8
0
 62
7
  6
CONTINUOUS
 10
365.8783521168
 20
534.8989253759
  0
VERTEX
  8
0
 62
7
  6
CONTINUOUS
 10
364.8424442091
 20
534.9799067922
  0
SEQEND
  0
LINE
  8
0
 62
7
  6
CONTINUOUS
 10
372.5990959854
 20
529.9370326626
 11
372.5996037407
 21
529.9361026258
  0
LINE
  8
0
 62
7
  6
CONTINUOUS
 10
162.812406675
 20
540.3683319847
 11
157.1973998492
 21
538.8351489743
  0
POLYLINE
  8
0
 62
7
  6
CONTINUOUS
 66
1
 70
0
  0
VERTEX
  8
0
 62
7
  6
CONTINUOUS
 10
-2.9331306679
 20
492.1388776759
  0
VERTEX
  8
0
 62
7
  6
CONTINUOUS
 10
-3.4741600683
 20
492.0896887476
  0
VERTEX
  8
0
 62
7
  6
CONTINUOUS
 10
-4.0067670757
 20
491.9401809526
  0
VERTEX
  8
0
 62
7
  6
CONTINUOUS
 10
-4.4979755536
 20
491.6984186735
  0
VERTEX
  8
0
 62
7
  6
CONTINUOUS
 10
-4.9360629596
 20
491.3723156139
  0
VERTEX
  8
0
 62
7
  6
CONTINUOUS
 10
-5.3074693973
 20
490.9725873211
  0
VERTEX
  8
0
 62
7
  6
CONTINUOUS
 10
-5.6004679888
 20
490.511932727
  0
VERTEX
  8
0
 62
7
  6
CONTINUOUS
 10
-5.8049988108
 20
490.0062508938
  0
VERTEX
  8
0
 62
7
  6
CONTINUOUS
 10
-5.9148680433
 20
489.469334171
  0
VERTEX
  8
0
 62
7
  6
CONTINUOUS
 10
-5.9317675441
 20
489.0486834093
  0
SEQEND
  0
LINE
  8
0
 62
7
  6
CONTINUOUS
 10
187.9662724059
 20
544.8143537181
 11
187.1162830742
 21
545.0104625711
  0
LINE
  8
0
 62
7
  6
CONTINUOUS
 10
185.1579125478
 20
545.3995210305
 11
185.0480407847
 21
545.4260199927
  0
LINE
  8
0
 62
7
  6
CONTINUOUS
 10
188.8569669852
 20
544.587670216
 11
187.9662724059
 21
544.8143537181
  0
LINE
  8
0
 62
7
  6
CONTINUOUS
 10
185.0480407847
 20
545.4260199927
 11
184.9476590433
 21
545.4528178349
  0
LINE
  8
0
 62
7
  6
CONTINUOUS
 10
205.4174089078
 20
540.4559727424
 11
211.3533842347
 21
538.8351489743
  0
POLYLINE
  8
0
 62
7
  6
CONTINUOUS
 66
1
 70
0
  0
VERTEX
  8
0
 62
7
  6
CONTINUOUS
 10
184.9476590433
 20
545.4528178349
  0
VERTEX
  8
0
 62
7
  6
CONTINUOUS
 10
184.8571305206
 20
545.4798171638
  0
VERTEX
  8
0
 62
7
  6
CONTINUOUS
 10
184.7767919928
 20
545.5069163332
  0
VERTEX
  8
0
 62
7
  6
CONTINUOUS
 10
184.7068300129
 20
545.5340512564
  0
VERTEX
  8
0
 62
7
  6
CONTINUOUS
 10
184.6473499433
 20
545.5611991855
  0
VERTEX
  8
0
 62
7
  6
CONTINUOUS
 10
184.5988610821
 20
545.5881344579
  0
VERTEX
  8
0
 62
7
  6
CONTINUOUS
 10
184.561432034
 20
545.6147651988
  0
VERTEX
  8
0
 62
7
  6
CONTINUOUS
 10
184.5354016697
 20
545.6406672958
  0
VERTEX
  8
0
 62
7
  6
CONTINUOUS
 10
184.5204785044
 20
545.6653291693
  0
VERTEX
  8
0
 62
7
  6
CONTINUOUS
 10
184.5156857562
 20
545.6889213457
  0
SEQEND
  0
POLYLINE
  8
0
 62
7
  6
CONTINUOUS
 66
1
 70
0
  0
VERTEX
  8
0
 62
7
  6
CONTINUOUS
 10
190.758080348
 20
544.0309136158
  0
VERTEX
  8
0
 62
7
  6
CONTINUOUS
 10
189.7874700824
 20
544.3260374209
  0
VERTEX
  8
0
 62
7
  6
CONTINUOUS
 10
188.8569671422
 20
544.587670176
  0
SEQEND
  0
LINE
  8
0
 62
7
  6
CONTINUOUS
 10
190.7938786951
 20
543.9713200617
 11
191.1787920259
 21
543.8534807585
  0
POLYLINE
  8
0
 62
7
  6
CONTINUOUS
 66
1
 70
0
  0
VERTEX
  8
0
 62
7
  6
CONTINUOUS
 10
3.7083923337
 20
534.9799075439
  0
VERTEX
  8
0
 62
7
  6
CONTINUOUS
 10
2.7198509977
 20
534.9054797836
  0
VERTEX
  8
0
 62
7
  6
CONTINUOUS
 10
1.2468609282
 20
534.5688158032
  0
VERTEX
  8
0
 62
7
  6
CONTINUOUS
 10
-0.0185559185
 20
534.0403594814
  0
VERTEX
  8
0
 62
7
  6
CONTINUOUS
 10
-1.0565900681
 20
533.4088769107
  0
VERTEX
  8
0
 62
7
  6
CONTINUOUS
 10
-1.8697714524
 20
532.7580086126
  0
VERTEX
  8
0
 62
7
  6
CONTINUOUS
 10
-2.5088304684
 20
532.1238543602
  0
VERTEX
  8
0
 62
7
  6
CONTINUOUS
 10
-3.0182955603
 20
531.520359217
  0
VERTEX
  8
0
 62
7
  6
CONTINUOUS
 10
-3.4318756154
 20
530.9511397902
  0
VERTEX
  8
0
 62
7
  6
CONTINUOUS
 10
-3.7849970665
 20
530.3972620103
  0
VERTEX
  8
0
 62
7
  6
CONTINUOUS
 10
-4.0488378845
 20
529.9360692335
  0
SEQEND
  0
LINE
  8
0
 62
7
  6
CONTINUOUS
 10
3.70711613
 20
534.978261669
 11
149.2754318417
 21
537.2732173688
  0
LINE
  8
0
 62
7
  6
CONTINUOUS
 10
159.4509577659
 20
537.4101377135
 11
149.275430557
 21
537.2733664645
  0
LINE
  8
0
 62
7
  6
CONTINUOUS
 10
162.812406675
 20
540.3683319847
 11
192.9406927485
 21
540.3683319847
  0
LINE
  8
0
 62
7
  6
CONTINUOUS
 10
192.8859085517
 20
540.4559727424
 11
205.4174089078
 21
540.4559727424
  0
LINE
  8
0
 62
7
  6
CONTINUOUS
 10
191.178789754
 20
543.8534805954
 11
202.7840930518
 21
543.8534805954
  0
LINE
  8
0
 62
7
  6
CONTINUOUS
 10
165.651159066
 20
544.0308943465
 11
190.7579737044
 21
544.0308943465
  0
LINE
  8
0
 62
7
  6
CONTINUOUS
 10
209.9179684577
 20
537.4008612301
 11
219.2753534885
 21
537.2733664651
  0
LINE
  8
0
 62
7
  6
CONTINUOUS
 10
219.2753506979
 20
537.2732173932
 11
364.8436679485
 21
534.9782616691
  0
POLYLINE
  8
0
 62
7
  6
CONTINUOUS
 66
1
 70
0
  0
VERTEX
  8
0
 62
7
  6
CONTINUOUS
 10
185.540812022
 20
545.3226064239
  0
VERTEX
  8
0
 62
7
  6
CONTINUOUS
 10
185.4046995353
 20
545.347773255
  0
VERTEX
  8
0
 62
7
  6
CONTINUOUS
 10
185.276927167
 20
545.3733977936
  0
SEQEND
  0
LINE
  8
0
 62
7
  6
CONTINUOUS
 10
186.3078960406
 20
545.1803713428
 11
185.540812022
 21
545.3226218978
  0
LINE
  8
0
 62
7
  6
CONTINUOUS
 10
187.1162830742
 20
545.0104625711
 11
186.3078960406
 21
545.1803713428
  0
LINE
  8
0
 62
7
  6
CONTINUOUS
 10
185.276927167
 20
545.3733977936
 11
185.1579125478
 21
545.3995210305
  0
ARC
  8
0
 62
7
  6
CONTINUOUS
 10
184.275392042
 20
469.045921923
 40
77.2632392753
 50
89.8218061009
 51
103.9484663514
  0
ARC
  8
0
 62
7
  6
CONTINUOUS
 10
184.275392042
 20
469.045921923
 40
77.0632392753
 50
76.1031020349
 51
89.4495902558
  0
ARC
  8
0
 62
7
  6
CONTINUOUS
 10
34.1928785296
 20
-234.3611223241
 40
8.0
 50
183.101944454
 51
270.0
  0
ARC
  8
0
 62
7
  6
CONTINUOUS
 10
334.3579055543
 20
-234.3611223241
 40
8.0
 50
270.0
 51
356.8980555452
  0
ARC
  8
0
 62
7
  6
CONTINUOUS
 10
157.4608078824
 20
537.8704644622
 40
1.0
 50
105.2723793093
 51
160.0
  0
ARC
  8
0
 62
7
  6
CONTINUOUS
 10
211.0899762015
 20
537.8704644622
 40
1.0
 50
20.0
 51
74.7276206907
  0
ENDSEC
  0
EOF
