999
DXF file: K:\Client\125_Heirloom\001\00\Final_Data\Drawings\TOILETS\forme-373125_2.dxf
999
Pro/ENGINEER 2017110 by Parametric Technology Corporation
  0
SECTION
  2
HEADER
  9
$EXTMAX
 10
420.0
 20
297.0
 30
0.0
  9
$EXTMIN
 10
0.0
 20
0.0
 30
0.0
  9
$LIMMIN
 10
0.0
 20
0.0
  9
$LIMMAX
 10
420.0
 20
297.0
  9
$VIEWCTR
 10
210.0
 20
148.5
  9
$VIEWSIZE
 40
297.0
  9
$CLAYER
  8
0
  9
$LTSCALE
 40
23.1
  9
$CELTYPE
  6
BYLAYER
  9
$DIMSCALE
 40
1.0
  9
$DIMASZ
 40
3.0
  9
$DIMEXO
 40
1.0
  9
$DIMDLI
 40
15.96
  9
$DIMEXE
 40
1.0
  9
$DIMCEN
 40
3.78
  9
$DIMLFAC
 40
1.0
  9
$DIMBLK
  1
_FILLED
  9
$DIMALT
 70
0
  9
$DIMALTF
 40
0.0393700787
  9
$DIMTXT
 40
3.0
  9
$AUNITS
 70
0
  9
$PDMODE
 70
3
  9
$PDSIZE
 40
5.0
  9
$TILEMODE
 70
1
  0
ENDSEC
  0
SECTION
  2
TABLES
  0
TABLE
  2
LTYPE
 70
6
  0
LTYPE
  2
BYBLOCK
 70
0
  3

 72
65
 73
0
 40
0.0
  0
LTYPE
  2
BYLAYER
 70
0
  3

 72
65
 73
0
 40
0.0
  0
LTYPE
  2
CONTINUOUS
 70
64
  3
Solid line
 72
65
 73
0
 40
0.0
  0
LTYPE
  2
CENTER
 70
64
  3
____ _ ____ _ ____ _ ____ _ ____ _ ____ _ ____
 72
65
 73
4
 40
0.6
 49
0.375
 49
-0.075
 49
0.075
 49
-0.075
  0
LTYPE
  2
HIDDEN
 70
64
  3
- - - - - - - - - - - - - - - - - - - -
 72
65
 73
2
 40
0.2
 49
0.1
 49
-0.1
  0
LTYPE
  2
PHANTOM
 70
64
  3
_____ _ _ _____ _ _ _____ _ _ _____
 72
65
 73
6
 40
0.8
 49
0.45
 49
-0.05
 49
0.1
 49
-0.05
 49
0.1
 49
-0.05
  0
LTYPE
  2
DOT
 70
64
  3
. . . . . . . . . . . . . . . . . . . .
 72
65
 73
2
 40
0.2
 49
0.1
 49
-0.1
  0
LTYPE
  2
DASHED
 70
64
  3
- - - - - - - - - - - - - - - - - - - -
 72
65
 73
2
 40
0.2
 49
0.1
 49
-0.1
  0
ENDTAB
  0
TABLE
  2
LAYER
 70
36
  0
LAYER
  2
0
 70
0
 62
7
  6
CONTINUOUS
  0
LAYER
  2
DEFAULT_1
 70
0
 62
7
  6
CENTER
  0
LAYER
  2
DEFAULT_2
 70
0
 62
8
  6
HIDDEN
  0
LAYER
  2
DEFAULT_3
 70
0
 62
7
  6
PHANTOM
  0
LAYER
  2
0000_BOM
 70
0
 62
7
  6
CONTINUOUS
  0
LAYER
  2
0000_REV_TABLE
 70
0
 62
7
  6
CONTINUOUS
  0
LAYER
  2
0000_STEVENS_NOTE
 70
0
 62
7
  6
CONTINUOUS
  0
LAYER
  2
01_DATUM_PLANES
 70
0
 62
7
  6
CONTINUOUS
  0
LAYER
  2
01_DEF_PLANES
 70
0
 62
7
  6
CONTINUOUS
  0
LAYER
  2
02_DATUM_COS
 70
0
 62
7
  6
CONTINUOUS
  0
LAYER
  2
90_IMP_FEAT
 70
0
 62
7
  6
CONTINUOUS
  0
LAYER
  2
95_STL
 70
0
 62
7
  6
CONTINUOUS
  0
LAYER
  2
99_SOLID
 70
0
 62
7
  6
CONTINUOUS
  0
LAYER
  2
CAD-MASTER_ZINC-PL
 70
0
 62
7
  6
CONTINUOUS
  0
LAYER
  2
CURVE
 70
0
 62
7
  6
CONTINUOUS
  0
LAYER
  2
SHELL
 70
0
 62
7
  6
CONTINUOUS
  0
LAYER
  2
SKEL
 70
0
 62
7
  6
CONTINUOUS
  0
LAYER
  2
SKETCH
 70
0
 62
7
  6
CONTINUOUS
  0
LAYER
  2
SURFACE
 70
0
 62
7
  6
CONTINUOUS
  0
ENDTAB
  0
TABLE
  2
STYLE
 70
1
  0
STYLE
  2
STANDARD
 70
0
 40
0.0
 41
0.75
 50
0.0
 71
0
 42
0.2
  3
txt
  4

  0
STYLE
  2
TEXTSTYLE_1
 70
0
 40
0.0
 41
0.8
 50
0.0
 71
0
 42
0.2
  3
gdt
  4

  0
ENDTAB
  0
ENDSEC
  0
SECTION
  2
BLOCKS
  0
BLOCK
  8
0
 62
1
  6
CONTINUOUS
  2
PLUMBING_BL1
 70
64
 10
344.6226824425
 20
-61.7543158172
  0
CIRCLE
  8
0
 62
1
  6
CONTINUOUS
 10
344.6226824425
 20
-61.7543158172
 40
12.5
  0
LINE
  8
0
 62
1
  6
CONTINUOUS
 10
357.1226824425
 20
-49.2543158172
 11
332.1226824425
 21
-74.2543158172
  0
LINE
  8
0
 62
1
  6
CONTINUOUS
 10
344.6226824425
 20
-61.7543158172
 11
332.1226824425
 21
-49.2543158172
  0
LINE
  8
0
 62
1
  6
CONTINUOUS
 10
344.6226824425
 20
-61.7543158172
 11
357.1226824425
 21
-74.2543158172
  0
ENDBLK
  8
0
  6
BYBLOCK
 62
0
  0
BLOCK
  8
0
 62
5
  6
CONTINUOUS
  2
PLUMBING_BL0
 70
64
 10
509.6226824425
 20
-241.7543158172
  0
CIRCLE
  8
0
 62
5
  6
CONTINUOUS
 10
509.6226824425
 20
-241.7543158172
 40
12.5
  0
LINE
  8
0
 62
5
  6
CONTINUOUS
 10
522.1226824425
 20
-229.2543158172
 11
497.1226824425
 21
-254.2543158172
  0
LINE
  8
0
 62
5
  6
CONTINUOUS
 10
509.6226824425
 20
-241.7543158172
 11
497.1226824425
 21
-229.2543158172
  0
LINE
  8
0
 62
5
  6
CONTINUOUS
 10
509.6226824425
 20
-241.7543158172
 11
522.1226824425
 21
-254.2543158172
  0
ENDBLK
  8
0
  6
BYBLOCK
 62
0
  0
ENDSEC
  0
SECTION
  2
ENTITIES
  0
INSERT
  8
0
 62
5
  6
CONTINUOUS
  2
PLUMBING_BL0
 10
509.6226824425
 20
-241.7543158172
  0
INSERT
  8
0
 62
1
  6
CONTINUOUS
  2
PLUMBING_BL1
 10
344.6226824425
 20
-61.7543158172
  0
LINE
  8
DEFAULT_2
 62
8
  6
HIDDEN
 10
294.6199202428
 20
-111.7543158172
 11
344.6199202428
 21
-111.7543158172
  0
LINE
  8
DEFAULT_2
 62
8
  6
HIDDEN
 10
294.6199202428
 20
-11.7543158172
 11
344.6199202428
 21
-11.7543158172
  0
LINE
  8
DEFAULT_2
 62
8
  6
HIDDEN
 10
344.6199202428
 20
-11.7543158172
 11
344.6199202428
 21
-111.7543158172
  0
LINE
  8
0
 62
7
  6
CONTINUOUS
 10
501.6226824425
 20
-241.7543158172
 11
-60.1498714497
 21
-241.7543158172
  0
POLYLINE
  8
0
 62
7
  6
CONTINUOUS
 66
1
 70
0
  0
VERTEX
  8
0
 62
7
  6
CONTINUOUS
 10
-153.224811875
 20
179.7070679904
  0
VERTEX
  8
0
 62
7
  6
CONTINUOUS
 10
-153.2140784081
 20
179.3296199021
  0
VERTEX
  8
0
 62
7
  6
CONTINUOUS
 10
-153.0795191399
 20
178.2274490315
  0
VERTEX
  8
0
 62
7
  6
CONTINUOUS
 10
-152.796001542
 20
177.1614050877
  0
VERTEX
  8
0
 62
7
  6
CONTINUOUS
 10
-152.3691609641
 20
176.1457386238
  0
VERTEX
  8
0
 62
7
  6
CONTINUOUS
 10
-151.8059398384
 20
175.1970600211
  0
VERTEX
  8
0
 62
7
  6
CONTINUOUS
 10
-151.1177008172
 20
174.3350503256
  0
VERTEX
  8
0
 62
7
  6
CONTINUOUS
 10
-150.3174184451
 20
173.575894233
  0
VERTEX
  8
0
 62
7
  6
CONTINUOUS
 10
-149.4202025713
 20
172.933967851
  0
VERTEX
  8
0
 62
7
  6
CONTINUOUS
 10
-148.4439505718
 20
172.421904658
  0
VERTEX
  8
0
 62
7
  6
CONTINUOUS
 10
-147.4056296542
 20
172.0486431497
  0
VERTEX
  8
0
 62
7
  6
CONTINUOUS
 10
-146.3195874355
 20
171.8209336669
  0
VERTEX
  8
0
 62
7
  6
CONTINUOUS
 10
-145.2249051845
 20
171.7456841828
  0
SEQEND
  0
POLYLINE
  8
0
 62
7
  6
CONTINUOUS
 66
1
 70
0
  0
VERTEX
  8
0
 62
7
  6
CONTINUOUS
 10
-152.8414736372
 20
201.9336256745
  0
VERTEX
  8
0
 62
7
  6
CONTINUOUS
 10
-152.9537564115
 20
198.7749539758
  0
VERTEX
  8
0
 62
7
  6
CONTINUOUS
 10
-153.0654906022
 20
194.7627084335
  0
VERTEX
  8
0
 62
7
  6
CONTINUOUS
 10
-153.1473987736
 20
190.7540007726
  0
VERTEX
  8
0
 62
7
  6
CONTINUOUS
 10
-153.2029257575
 20
186.751424515
  0
VERTEX
  8
0
 62
7
  6
CONTINUOUS
 10
-153.2285283545
 20
182.7573012095
  0
VERTEX
  8
0
 62
7
  6
CONTINUOUS
 10
-153.2248108121
 20
179.7073946806
  0
SEQEND
  0
POLYLINE
  8
0
 62
7
  6
CONTINUOUS
 66
1
 70
0
  0
VERTEX
  8
0
 62
7
  6
CONTINUOUS
 10
406.0237866038
 20
544.6377201227
  0
VERTEX
  8
0
 62
7
  6
CONTINUOUS
 10
406.9943968694
 20
544.9328439277
  0
VERTEX
  8
0
 62
7
  6
CONTINUOUS
 10
407.9248998096
 20
545.1944766829
  0
VERTEX
  8
0
 62
7
  6
CONTINUOUS
 10
408.815594386
 20
545.4211601881
  0
VERTEX
  8
0
 62
7
  6
CONTINUOUS
 10
409.6655837136
 20
545.6172690435
  0
VERTEX
  8
0
 62
7
  6
CONTINUOUS
 10
410.4739709077
 20
545.787177849
  0
VERTEX
  8
0
 62
7
  6
CONTINUOUS
 10
411.2410549298
 20
545.9294284046
  0
SEQEND
  0
POLYLINE
  8
0
 62
7
  6
CONTINUOUS
 66
1
 70
0
  0
VERTEX
  8
0
 62
7
  6
CONTINUOUS
 10
-148.6818375415
 20
159.961226015
  0
VERTEX
  8
0
 62
7
  6
CONTINUOUS
 10
-146.6567381888
 20
141.7055726018
  0
VERTEX
  8
0
 62
7
  6
CONTINUOUS
 10
-143.6043682925
 20
123.7775300179
  0
VERTEX
  8
0
 62
7
  6
CONTINUOUS
 10
-139.7403103507
 20
108.3495081112
  0
VERTEX
  8
0
 62
7
  6
CONTINUOUS
 10
-135.1332499552
 20
94.3235285343
  0
VERTEX
  8
0
 62
7
  6
CONTINUOUS
 10
-129.5435997079
 20
80.6692957008
  0
VERTEX
  8
0
 62
7
  6
CONTINUOUS
 10
-123.176542158
 20
67.8725895156
  0
VERTEX
  8
0
 62
7
  6
CONTINUOUS
 10
-116.1858697884
 20
56.1044198845
  0
VERTEX
  8
0
 62
7
  6
CONTINUOUS
 10
-108.5488710073
 20
45.203748558
  0
VERTEX
  8
0
 62
7
  6
CONTINUOUS
 10
-100.2924241035
 20
35.1368871447
  0
VERTEX
  8
0
 62
7
  6
CONTINUOUS
 10
-91.3314619146
 20
25.7672343886
  0
VERTEX
  8
0
 62
7
  6
CONTINUOUS
 10
-81.3081799788
 20
16.7874332987
  0
VERTEX
  8
0
 62
7
  6
CONTINUOUS
 10
-70.9813641308
 20
8.7494007045
  0
VERTEX
  8
0
 62
7
  6
CONTINUOUS
 10
-61.386634731
 20
1.8036433768
  0
VERTEX
  8
0
 62
7
  6
CONTINUOUS
 10
-58.5259618411
 20
-0.37440511
  0
SEQEND
  0
LINE
  8
0
 62
7
  6
CONTINUOUS
 10
404.0891226323
 20
541.0627792492
 11
403.8439067502
 21
540.9745977774
  0
POLYLINE
  8
0
 62
7
  6
CONTINUOUS
 66
1
 70
0
  0
VERTEX
  8
0
 62
7
  6
CONTINUOUS
 10
-56.8522953679
 20
-1.8705155445
  0
VERTEX
  8
0
 62
7
  6
CONTINUOUS
 10
-56.3817247893
 20
-2.3649438958
  0
VERTEX
  8
0
 62
7
  6
CONTINUOUS
 10
-55.5527406639
 20
-3.3591969212
  0
VERTEX
  8
0
 62
7
  6
CONTINUOUS
 10
-54.7404187999
 20
-4.5030784288
  0
VERTEX
  8
0
 62
7
  6
CONTINUOUS
 10
-54.0416018598
 20
-5.6659278598
  0
VERTEX
  8
0
 62
7
  6
CONTINUOUS
 10
-53.4816335575
 20
-6.801220655
  0
VERTEX
  8
0
 62
7
  6
CONTINUOUS
 10
-53.3864484681
 20
-7.0270846656
  0
SEQEND
  0
POLYLINE
  8
0
 62
7
  6
CONTINUOUS
 66
1
 70
0
  0
VERTEX
  8
0
 62
7
  6
CONTINUOUS
 10
-53.3864484681
 20
-7.0270846656
  0
VERTEX
  8
0
 62
7
  6
CONTINUOUS
 10
-53.3317673972
 20
-7.1611388856
  0
VERTEX
  8
0
 62
7
  6
CONTINUOUS
 10
-53.2592849723
 20
-7.3426473997
  0
VERTEX
  8
0
 62
7
  6
CONTINUOUS
 10
-53.1881881017
 20
-7.5265403291
  0
VERTEX
  8
0
 62
7
  6
CONTINUOUS
 10
-53.1179591649
 20
-7.7145714234
  0
VERTEX
  8
0
 62
7
  6
CONTINUOUS
 10
-53.0466140193
 20
-7.9124279022
  0
VERTEX
  8
0
 62
7
  6
CONTINUOUS
 10
-52.9717089626
 20
-8.1284975952
  0
VERTEX
  8
0
 62
7
  6
CONTINUOUS
 10
-52.8962974009
 20
-8.3561548228
  0
VERTEX
  8
0
 62
7
  6
CONTINUOUS
 10
-52.8215540462
 20
-8.5938445633
  0
VERTEX
  8
0
 62
7
  6
CONTINUOUS
 10
-52.750490769
 20
-8.8327469784
  0
VERTEX
  8
0
 62
7
  6
CONTINUOUS
 10
-52.6849385085
 20
-9.0661568493
  0
VERTEX
  8
0
 62
7
  6
CONTINUOUS
 10
-52.6262454294
 20
-9.2869024935
  0
VERTEX
  8
0
 62
7
  6
CONTINUOUS
 10
-52.5747176468
 20
-9.4894575947
  0
VERTEX
  8
0
 62
7
  6
CONTINUOUS
 10
-52.5326897909
 20
-9.6665262634
  0
SEQEND
  0
POLYLINE
  8
0
 62
7
  6
CONTINUOUS
 66
1
 70
0
  0
VERTEX
  8
0
 62
7
  6
CONTINUOUS
 10
-58.525755022
 20
-0.3745673832
  0
VERTEX
  8
0
 62
7
  6
CONTINUOUS
 10
-58.1459711487
 20
-0.6827287277
  0
VERTEX
  8
0
 62
7
  6
CONTINUOUS
 10
-57.5570380185
 20
-1.1954251241
  0
VERTEX
  8
0
 62
7
  6
CONTINUOUS
 10
-57.0222473789
 20
-1.7012062826
  0
VERTEX
  8
0
 62
7
  6
CONTINUOUS
 10
-56.8522953679
 20
-1.8705155445
  0
SEQEND
  0
POLYLINE
  8
0
 62
7
  6
CONTINUOUS
 66
1
 70
0
  0
VERTEX
  8
0
 62
7
  6
CONTINUOUS
 10
-52.5338391609
 20
-9.662062259
  0
VERTEX
  8
0
 62
7
  6
CONTINUOUS
 10
-52.4791782741
 20
-9.8994883124
  0
VERTEX
  8
0
 62
7
  6
CONTINUOUS
 10
-52.2107187471
 20
-11.3294863865
  0
VERTEX
  8
0
 62
7
  6
CONTINUOUS
 10
-52.0187583262
 20
-12.8710224315
  0
VERTEX
  8
0
 62
7
  6
CONTINUOUS
 10
-51.90923683
 20
-14.4327878851
  0
VERTEX
  8
0
 62
7
  6
CONTINUOUS
 10
-51.8966214128
 20
-14.7604737686
  0
SEQEND
  0
POLYLINE
  8
0
 62
7
  6
CONTINUOUS
 66
1
 70
0
  0
VERTEX
  8
0
 62
7
  6
CONTINUOUS
 10
-51.8961880264
 20
-14.7604696673
  0
VERTEX
  8
0
 62
7
  6
CONTINUOUS
 10
-51.8986789513
 20
-26.296286691
  0
VERTEX
  8
0
 62
7
  6
CONTINUOUS
 10
-52.6686683469
 20
-39.666306697
  0
VERTEX
  8
0
 62
7
  6
CONTINUOUS
 10
-53.9510717709
 20
-53.3525054856
  0
VERTEX
  8
0
 62
7
  6
CONTINUOUS
 10
-55.3699678813
 20
-67.4032491085
  0
VERTEX
  8
0
 62
7
  6
CONTINUOUS
 10
-56.5304780149
 20
-81.8527375187
  0
VERTEX
  8
0
 62
7
  6
CONTINUOUS
 10
-57.4402431051
 20
-96.7454756419
  0
VERTEX
  8
0
 62
7
  6
CONTINUOUS
 10
-58.3387036394
 20
-112.0680684207
  0
VERTEX
  8
0
 62
7
  6
CONTINUOUS
 10
-59.2728030501
 20
-127.8535556018
  0
VERTEX
  8
0
 62
7
  6
CONTINUOUS
 10
-60.20078099
 20
-144.1380887689
  0
VERTEX
  8
0
 62
7
  6
CONTINUOUS
 10
-61.1563740805
 20
-160.9507481952
  0
VERTEX
  8
0
 62
7
  6
CONTINUOUS
 10
-62.2306556328
 20
-178.3447836409
  0
VERTEX
  8
0
 62
7
  6
CONTINUOUS
 10
-63.5823540857
 20
-196.2764147327
  0
VERTEX
  8
0
 62
7
  6
CONTINUOUS
 10
-65.4807535005
 20
-214.7500471559
  0
VERTEX
  8
0
 62
7
  6
CONTINUOUS
 10
-68.0375317978
 20
-232.4248487346
  0
SEQEND
  0
POLYLINE
  8
0
 62
7
  6
CONTINUOUS
 66
1
 70
0
  0
VERTEX
  8
0
 62
7
  6
CONTINUOUS
 10
-68.0377439723
 20
-232.4260940502
  0
VERTEX
  8
0
 62
7
  6
CONTINUOUS
 10
-68.058538674
 20
-232.5561325737
  0
VERTEX
  8
0
 62
7
  6
CONTINUOUS
 10
-68.148551367
 20
-233.8141663493
  0
VERTEX
  8
0
 62
7
  6
CONTINUOUS
 10
-68.0416436859
 20
-235.0591634867
  0
VERTEX
  8
0
 62
7
  6
CONTINUOUS
 10
-67.7430655232
 20
-236.2696198789
  0
VERTEX
  8
0
 62
7
  6
CONTINUOUS
 10
-67.2585676749
 20
-237.42185597
  0
VERTEX
  8
0
 62
7
  6
CONTINUOUS
 10
-66.6007708098
 20
-238.4841944997
  0
VERTEX
  8
0
 62
7
  6
CONTINUOUS
 10
-65.7855790771
 20
-239.4311495957
  0
VERTEX
  8
0
 62
7
  6
CONTINUOUS
 10
-64.8327238507
 20
-240.2397321349
  0
VERTEX
  8
0
 62
7
  6
CONTINUOUS
 10
-63.7667796717
 20
-240.8894432539
  0
VERTEX
  8
0
 62
7
  6
CONTINUOUS
 10
-62.6110396904
 20
-241.3659683043
  0
VERTEX
  8
0
 62
7
  6
CONTINUOUS
 10
-61.3858802296
 20
-241.6580852472
  0
VERTEX
  8
0
 62
7
  6
CONTINUOUS
 10
-60.1487752501
 20
-241.7543158172
  0
SEQEND
  0
POLYLINE
  8
0
 62
7
  6
CONTINUOUS
 66
1
 70
0
  0
VERTEX
  8
0
 62
7
  6
CONTINUOUS
 10
343.0869374211
 20
492.3515531381
  0
VERTEX
  8
0
 62
7
  6
CONTINUOUS
 10
342.6559073637
 20
492.0529297144
  0
VERTEX
  8
0
 62
7
  6
CONTINUOUS
 10
342.2819045546
 20
491.6819795534
  0
VERTEX
  8
0
 62
7
  6
CONTINUOUS
 10
341.9766077621
 20
491.2479779851
  0
VERTEX
  8
0
 62
7
  6
CONTINUOUS
 10
341.7515800953
 20
490.7642948986
  0
VERTEX
  8
0
 62
7
  6
CONTINUOUS
 10
341.6147727284
 20
490.2424451458
  0
VERTEX
  8
0
 62
7
  6
CONTINUOUS
 10
341.5735929011
 20
489.7832023003
  0
SEQEND
  0
LINE
  8
0
 62
7
  6
CONTINUOUS
 10
404.8590397484
 20
544.6377008534
 11
402.0202873574
 21
540.9751384915
  0
POLYLINE
  8
0
 62
7
  6
CONTINUOUS
 66
1
 70
0
  0
VERTEX
  8
0
 62
7
  6
CONTINUOUS
 10
403.8439067502
 20
540.9745977774
  0
VERTEX
  8
0
 62
7
  6
CONTINUOUS
 10
404.4265220928
 20
541.9616150679
  0
VERTEX
  8
0
 62
7
  6
CONTINUOUS
 10
404.9840405159
 20
542.9011412223
  0
VERTEX
  8
0
 62
7
  6
CONTINUOUS
 10
405.5164620196
 20
543.7931762405
  0
VERTEX
  8
0
 62
7
  6
CONTINUOUS
 10
406.0237866038
 20
544.6377201227
  0
SEQEND
  0
POLYLINE
  8
0
 62
7
  6
CONTINUOUS
 66
1
 70
0
  0
VERTEX
  8
0
 62
7
  6
CONTINUOUS
 10
406.3101817071
 20
544.4602872654
  0
VERTEX
  8
0
 62
7
  6
CONTINUOUS
 10
406.0010242412
 20
543.9404445633
  0
VERTEX
  8
0
 62
7
  6
CONTINUOUS
 10
405.682045544
 20
543.4020201238
  0
VERTEX
  8
0
 62
7
  6
CONTINUOUS
 10
405.353223166
 20
542.8449968445
  0
VERTEX
  8
0
 62
7
  6
CONTINUOUS
 10
405.0146244555
 20
542.2694260324
  0
VERTEX
  8
0
 62
7
  6
CONTINUOUS
 10
404.6663167607
 20
541.6753589944
  0
VERTEX
  8
0
 62
7
  6
CONTINUOUS
 10
404.3082776324
 20
541.0627786282
  0
SEQEND
  0
POLYLINE
  8
0
 62
7
  6
CONTINUOUS
 66
1
 70
0
  0
VERTEX
  8
0
 62
7
  6
CONTINUOUS
 10
350.6442029758
 20
176.7456841828
  0
VERTEX
  8
0
 62
7
  6
CONTINUOUS
 10
349.8142722101
 20
176.6015421716
  0
VERTEX
  8
0
 62
7
  6
CONTINUOUS
 10
348.9323044176
 20
176.2678844754
  0
SEQEND
  0
POLYLINE
  8
0
 62
7
  6
CONTINUOUS
 66
1
 70
0
  0
VERTEX
  8
0
 62
7
  6
CONTINUOUS
 10
-143.9106382983
 20
165.2092645234
  0
VERTEX
  8
0
 62
7
  6
CONTINUOUS
 10
-144.7038477929
 20
165.1607537933
  0
VERTEX
  8
0
 62
7
  6
CONTINUOUS
 10
-145.431042915
 20
165.0478294044
  0
VERTEX
  8
0
 62
7
  6
CONTINUOUS
 10
-146.085492265
 20
164.8694049155
  0
VERTEX
  8
0
 62
7
  6
CONTINUOUS
 10
-146.679845739
 20
164.6188816377
  0
VERTEX
  8
0
 62
7
  6
CONTINUOUS
 10
-147.2203641302
 20
164.2844432219
  0
VERTEX
  8
0
 62
7
  6
CONTINUOUS
 10
-147.6929425404
 20
163.8612745619
  0
VERTEX
  8
0
 62
7
  6
CONTINUOUS
 10
-148.0904133371
 20
163.3403505829
  0
VERTEX
  8
0
 62
7
  6
CONTINUOUS
 10
-148.396666355
 20
162.7266145003
  0
VERTEX
  8
0
 62
7
  6
CONTINUOUS
 10
-148.6045005812
 20
162.0237379257
  0
VERTEX
  8
0
 62
7
  6
CONTINUOUS
 10
-148.7090280268
 20
161.2532137736
  0
VERTEX
  8
0
 62
7
  6
CONTINUOUS
 10
-148.7169478131
 20
160.4501274772
  0
VERTEX
  8
0
 62
7
  6
CONTINUOUS
 10
-148.6781051209
 20
159.9243381084
  0
SEQEND
  0
LINE
  8
0
 62
7
  6
CONTINUOUS
 10
-143.6410368742
 20
165.2124722736
 11
-143.9185981103
 21
165.2090945955
  0
LINE
  8
0
 62
7
  6
CONTINUOUS
 10
-143.1774914891
 20
165.2167865111
 11
-143.6410368742
 21
165.2124722736
  0
LINE
  8
0
 62
7
  6
CONTINUOUS
 10
-142.5846617813
 20
165.2219259847
 11
-143.1774914891
 21
165.2167865111
  0
LINE
  8
0
 62
7
  6
CONTINUOUS
 10
-141.816047587
 20
165.2280520027
 11
-142.5846617813
 21
165.2219259847
  0
LINE
  8
0
 62
7
  6
CONTINUOUS
 10
-140.3158782604
 20
165.2392935091
 11
-141.0456765058
 21
165.2337282622
  0
LINE
  8
0
 62
7
  6
CONTINUOUS
 10
-141.0456765058
 20
165.2337282622
 11
-141.816047587
 21
165.2280520027
  0
LINE
  8
0
 62
7
  6
CONTINUOUS
 10
-140.3158782604
 20
165.2392935091
 11
-140.2449598088
 21
165.2397416552
  0
LINE
  8
0
 62
7
  6
CONTINUOUS
 10
343.3446026998
 20
165.2478970554
 11
338.6902100869
 21
165.2439913542
  0
LINE
  8
0
 62
7
  6
CONTINUOUS
 10
-141.816047587
 20
165.2280520027
 11
-143.6786514585
 21
165.2280456183
  0
LINE
  8
0
 62
7
  6
CONTINUOUS
 10
-141.7930758513
 20
165.2280524346
 11
-141.816047587
 21
165.2280520027
  0
LINE
  8
0
 62
7
  6
CONTINUOUS
 10
-140.2449625579
 20
165.2280864639
 11
-141.7930758513
 21
165.2280524346
  0
LINE
  8
0
 62
7
  6
CONTINUOUS
 10
1.3819941896
 20
165.2471584878
 11
125.7345366457
 21
165.2475184293
  0
LINE
  8
0
 62
7
  6
CONTINUOUS
 10
125.7343729016
 20
165.247518429
 11
343.3940969336
 21
165.2479120318
  0
LINE
  8
0
 62
7
  6
CONTINUOUS
 10
1.3819941896
 20
165.2471584878
 11
-13.0432840101
 21
165.2470510998
  0
LINE
  8
0
 62
7
  6
CONTINUOUS
 10
-40.1496386911
 20
165.2467560231
 11
-13.043245373
 21
165.2470510955
  0
LINE
  8
0
 62
7
  6
CONTINUOUS
 10
-64.035264221
 20
165.246387835
 11
-40.1496386911
 21
165.2467560231
  0
LINE
  8
0
 62
7
  6
CONTINUOUS
 10
-64.5814766415
 20
165.2463787093
 11
-64.035264221
 21
165.246387835
  0
LINE
  8
0
 62
7
  6
CONTINUOUS
 10
-65.0245195882
 20
165.2463701202
 11
-64.5814766415
 21
165.2463787093
  0
LINE
  8
0
 62
7
  6
CONTINUOUS
 10
-85.8840573812
 20
165.2459336088
 11
-65.0245195882
 21
165.2463701202
  0
LINE
  8
0
 62
7
  6
CONTINUOUS
 10
-99.8821664973
 20
165.2455426145
 11
-85.8840573812
 21
165.2459336088
  0
LINE
  8
0
 62
7
  6
CONTINUOUS
 10
-137.5533616805
 20
165.2435370848
 11
-99.8821664973
 21
165.2455426145
  0
LINE
  8
0
 62
7
  6
CONTINUOUS
 10
-140.2449631455
 20
165.2432082645
 11
-137.5533616805
 21
165.2435370848
  0
LINE
  8
0
 62
7
  6
CONTINUOUS
 10
286.2226824425
 20
171.7456841828
 11
-145.2239845916
 21
171.7456841828
  0
LINE
  8
0
 62
7
  6
CONTINUOUS
 10
291.4903274475
 20
173.7456841828
 11
314.4466832417
 21
173.7456841828
  0
LINE
  8
0
 62
7
  6
CONTINUOUS
 10
506.6226824425
 20
176.7456841828
 11
348.3160264274
 21
176.7456841828
  0
LINE
  8
0
 62
7
  6
CONTINUOUS
 10
395.7289959441
 20
538.8192911123
 11
395.4708240866
 21
538.1099697637
  0
LINE
  8
0
 62
7
  6
CONTINUOUS
 10
345.3324817607
 20
179.6683167876
 11
345.3959375032
 21
179.7089524013
  0
POLYLINE
  8
0
 62
7
  6
CONTINUOUS
 66
1
 70
0
  0
VERTEX
  8
0
 62
7
  6
CONTINUOUS
 10
348.9323044176
 20
176.2678844754
  0
VERTEX
  8
0
 62
7
  6
CONTINUOUS
 10
348.132749682
 20
175.7774482524
  0
VERTEX
  8
0
 62
7
  6
CONTINUOUS
 10
347.4414557599
 20
175.1502727037
  0
VERTEX
  8
0
 62
7
  6
CONTINUOUS
 10
346.8813732505
 20
174.411268235
  0
VERTEX
  8
0
 62
7
  6
CONTINUOUS
 10
346.6903186856
 20
174.0762661234
  0
SEQEND
  0
POLYLINE
  8
0
 62
7
  6
CONTINUOUS
 66
1
 70
0
  0
VERTEX
  8
0
 62
7
  6
CONTINUOUS
 10
-145.0763715149
 20
209.6168439926
  0
VERTEX
  8
0
 62
7
  6
CONTINUOUS
 10
-145.0965432162
 20
209.6162415031
  0
VERTEX
  8
0
 62
7
  6
CONTINUOUS
 10
-145.1391480267
 20
209.6148015604
  0
VERTEX
  8
0
 62
7
  6
CONTINUOUS
 10
-145.1821533947
 20
209.6131175125
  0
VERTEX
  8
0
 62
7
  6
CONTINUOUS
 10
-145.2255048138
 20
209.6111853158
  0
VERTEX
  8
0
 62
7
  6
CONTINUOUS
 10
-145.2691344192
 20
209.6090027378
  0
VERTEX
  8
0
 62
7
  6
CONTINUOUS
 10
-145.3130220159
 20
209.6065661909
  0
VERTEX
  8
0
 62
7
  6
CONTINUOUS
 10
-145.3571167477
 20
209.6038744335
  0
VERTEX
  8
0
 62
7
  6
CONTINUOUS
 10
-145.4014410033
 20
209.6009222207
  0
VERTEX
  8
0
 62
7
  6
CONTINUOUS
 10
-145.4459989407
 20
209.5977051254
  0
VERTEX
  8
0
 62
7
  6
CONTINUOUS
 10
-145.4907942522
 20
209.5942186121
  0
VERTEX
  8
0
 62
7
  6
CONTINUOUS
 10
-145.535830729
 20
209.5904579974
  0
VERTEX
  8
0
 62
7
  6
CONTINUOUS
 10
-145.5811120447
 20
209.5864184647
  0
VERTEX
  8
0
 62
7
  6
CONTINUOUS
 10
-145.6266418754
 20
209.5820950526
  0
VERTEX
  8
0
 62
7
  6
CONTINUOUS
 10
-145.672423778
 20
209.5774826639
  0
VERTEX
  8
0
 62
7
  6
CONTINUOUS
 10
-145.7184613022
 20
209.5725760534
  0
VERTEX
  8
0
 62
7
  6
CONTINUOUS
 10
-145.764757879
 20
209.5673698379
  0
VERTEX
  8
0
 62
7
  6
CONTINUOUS
 10
-145.8113169209
 20
209.5618584838
  0
VERTEX
  8
0
 62
7
  6
CONTINUOUS
 10
-145.8581417233
 20
209.556036316
  0
VERTEX
  8
0
 62
7
  6
CONTINUOUS
 10
-145.9052355512
 20
209.5498975066
  0
VERTEX
  8
0
 62
7
  6
CONTINUOUS
 10
-145.9526015543
 20
209.5434360834
  0
VERTEX
  8
0
 62
7
  6
CONTINUOUS
 10
-146.0002428389
 20
209.5366459187
  0
VERTEX
  8
0
 62
7
  6
CONTINUOUS
 10
-146.048162399
 20
209.529520737
  0
VERTEX
  8
0
 62
7
  6
CONTINUOUS
 10
-146.0963631709
 20
209.5220541055
  0
VERTEX
  8
0
 62
7
  6
CONTINUOUS
 10
-146.1448479817
 20
209.5142394396
  0
VERTEX
  8
0
 62
7
  6
CONTINUOUS
 10
-146.1936195879
 20
209.506069995
  0
VERTEX
  8
0
 62
7
  6
CONTINUOUS
 10
-146.2426806333
 20
209.4975388729
  0
VERTEX
  8
0
 62
7
  6
CONTINUOUS
 10
-146.2920341732
 20
209.4886389219
  0
VERTEX
  8
0
 62
7
  6
CONTINUOUS
 10
-146.3416811707
 20
209.4793631957
  0
VERTEX
  8
0
 62
7
  6
CONTINUOUS
 10
-146.3916241695
 20
209.4697042936
  0
VERTEX
  8
0
 62
7
  6
CONTINUOUS
 10
-146.4418608503
 20
209.4596556138
  0
VERTEX
  8
0
 62
7
  6
CONTINUOUS
 10
-146.4923901138
 20
209.4492102329
  0
VERTEX
  8
0
 62
7
  6
CONTINUOUS
 10
-146.5432101239
 20
209.4383612865
  0
VERTEX
  8
0
 62
7
  6
CONTINUOUS
 10
-146.5943190437
 20
209.427101825
  0
VERTEX
  8
0
 62
7
  6
CONTINUOUS
 10
-146.6457150131
 20
209.4154248161
  0
VERTEX
  8
0
 62
7
  6
CONTINUOUS
 10
-146.6973959829
 20
209.403323181
  0
VERTEX
  8
0
 62
7
  6
CONTINUOUS
 10
-146.7493598845
 20
209.3907897556
  0
VERTEX
  8
0
 62
7
  6
CONTINUOUS
 10
-146.8016044486
 20
209.3778173333
  0
VERTEX
  8
0
 62
7
  6
CONTINUOUS
 10
-146.8541273907
 20
209.3643986195
  0
VERTEX
  8
0
 62
7
  6
CONTINUOUS
 10
-146.9069262137
 20
209.3505262812
  0
VERTEX
  8
0
 62
7
  6
CONTINUOUS
 10
-146.9599984097
 20
209.3361928952
  0
VERTEX
  8
0
 62
7
  6
CONTINUOUS
 10
-147.0133412459
 20
209.3213910038
  0
VERTEX
  8
0
 62
7
  6
CONTINUOUS
 10
-147.0669519833
 20
209.3061130563
  0
VERTEX
  8
0
 62
7
  6
CONTINUOUS
 10
-147.1208276452
 20
209.2903514727
  0
VERTEX
  8
0
 62
7
  6
CONTINUOUS
 10
-147.1749652536
 20
209.2740985764
  0
VERTEX
  8
0
 62
7
  6
CONTINUOUS
 10
-147.2293611341
 20
209.257346806
  0
VERTEX
  8
0
 62
7
  6
CONTINUOUS
 10
-147.2840133982
 20
209.2400879442
  0
VERTEX
  8
0
 62
7
  6
CONTINUOUS
 10
-147.3389133993
 20
209.2223158413
  0
VERTEX
  8
0
 62
7
  6
CONTINUOUS
 10
-147.3940766796
 20
209.2040162905
  0
VERTEX
  8
0
 62
7
  6
CONTINUOUS
 10
-147.4495081434
 20
209.1851780181
  0
VERTEX
  8
0
 62
7
  6
CONTINUOUS
 10
-147.5052297121
 20
209.165783358
  0
VERTEX
  8
0
 62
7
  6
CONTINUOUS
 10
-147.5612586913
 20
209.1458153247
  0
VERTEX
  8
0
 62
7
  6
CONTINUOUS
 10
-147.6176120859
 20
209.1252561807
  0
VERTEX
  8
0
 62
7
  6
CONTINUOUS
 10
-147.6743066354
 20
209.1040874035
  0
VERTEX
  8
0
 62
7
  6
CONTINUOUS
 10
-147.7313583815
 20
209.0822898299
  0
VERTEX
  8
0
 62
7
  6
CONTINUOUS
 10
-147.7887831174
 20
209.0598434719
  0
VERTEX
  8
0
 62
7
  6
CONTINUOUS
 10
-147.8465959332
 20
209.0367276732
  0
VERTEX
  8
0
 62
7
  6
CONTINUOUS
 10
-147.9048115826
 20
209.0129209486
  0
VERTEX
  8
0
 62
7
  6
CONTINUOUS
 10
-147.9634441113
 20
208.9884011133
  0
VERTEX
  8
0
 62
7
  6
CONTINUOUS
 10
-148.0225071326
 20
208.9631451518
  0
VERTEX
  8
0
 62
7
  6
CONTINUOUS
 10
-148.0820135474
 20
208.9371293139
  0
VERTEX
  8
0
 62
7
  6
CONTINUOUS
 10
-148.1419756618
 20
208.910329046
  0
VERTEX
  8
0
 62
7
  6
CONTINUOUS
 10
-148.2024052977
 20
208.8827189163
  0
VERTEX
  8
0
 62
7
  6
CONTINUOUS
 10
-148.2633106513
 20
208.8542740657
  0
VERTEX
  8
0
 62
7
  6
CONTINUOUS
 10
-148.3247108615
 20
208.8249633072
  0
VERTEX
  8
0
 62
7
  6
CONTINUOUS
 10
-148.3866171392
 20
208.7947577934
  0
VERTEX
  8
0
 62
7
  6
CONTINUOUS
 10
-148.4490565271
 20
208.7636193838
  0
VERTEX
  8
0
 62
7
  6
CONTINUOUS
 10
-148.5120505498
 20
208.7315106901
  0
VERTEX
  8
0
 62
7
  6
CONTINUOUS
 10
-148.5756207474
 20
208.6983923553
  0
VERTEX
  8
0
 62
7
  6
CONTINUOUS
 10
-148.6397874622
 20
208.6642235884
  0
VERTEX
  8
0
 62
7
  6
CONTINUOUS
 10
-148.7045686403
 20
208.6289627676
  0
VERTEX
  8
0
 62
7
  6
CONTINUOUS
 10
-148.7699959377
 20
208.5925583897
  0
VERTEX
  8
0
 62
7
  6
CONTINUOUS
 10
-148.8360404438
 20
208.5549907855
  0
VERTEX
  8
0
 62
7
  6
CONTINUOUS
 10
-148.9027091474
 20
208.5162191016
  0
VERTEX
  8
0
 62
7
  6
CONTINUOUS
 10
-148.9699198826
 20
208.4762541051
  0
VERTEX
  8
0
 62
7
  6
CONTINUOUS
 10
-149.0376139024
 20
208.4350948845
  0
VERTEX
  8
0
 62
7
  6
CONTINUOUS
 10
-149.1057265423
 20
208.3927458315
  0
VERTEX
  8
0
 62
7
  6
CONTINUOUS
 10
-149.1741941639
 20
208.3492126875
  0
VERTEX
  8
0
 62
7
  6
CONTINUOUS
 10
-149.2429547584
 20
208.3045021838
  0
VERTEX
  8
0
 62
7
  6
CONTINUOUS
 10
-149.3119456681
 20
208.2586235651
  0
VERTEX
  8
0
 62
7
  6
CONTINUOUS
 10
-149.3811059193
 20
208.2115871451
  0
VERTEX
  8
0
 62
7
  6
CONTINUOUS
 10
-149.4503741042
 20
208.1634057818
  0
VERTEX
  8
0
 62
7
  6
CONTINUOUS
 10
-149.5196905374
 20
208.114093478
  0
VERTEX
  8
0
 62
7
  6
CONTINUOUS
 10
-149.5889951895
 20
208.0636668832
  0
VERTEX
  8
0
 62
7
  6
CONTINUOUS
 10
-149.6582303432
 20
208.0121434469
  0
VERTEX
  8
0
 62
7
  6
CONTINUOUS
 10
-149.7273290366
 20
207.9595502461
  0
VERTEX
  8
0
 62
7
  6
CONTINUOUS
 10
-149.7962625929
 20
207.9058875054
  0
VERTEX
  8
0
 62
7
  6
CONTINUOUS
 10
-149.8649784225
 20
207.851175419
  0
VERTEX
  8
0
 62
7
  6
CONTINUOUS
 10
-149.9334824004
 20
207.7953885252
  0
VERTEX
  8
0
 62
7
  6
CONTINUOUS
 10
-150.0017634905
 20
207.7385138371
  0
VERTEX
  8
0
 62
7
  6
CONTINUOUS
 10
-150.0698154807
 20
207.6805336154
  0
VERTEX
  8
0
 62
7
  6
CONTINUOUS
 10
-150.1376297396
 20
207.6214312199
  0
VERTEX
  8
0
 62
7
  6
CONTINUOUS
 10
-150.2051972877
 20
207.5611893984
  0
VERTEX
  8
0
 62
7
  6
CONTINUOUS
 10
-150.2725079271
 20
207.4997910424
  0
VERTEX
  8
0
 62
7
  6
CONTINUOUS
 10
-150.3395511187
 20
207.4372183993
  0
VERTEX
  8
0
 62
7
  6
CONTINUOUS
 10
-150.4063150095
 20
207.3734539563
  0
VERTEX
  8
0
 62
7
  6
CONTINUOUS
 10
-150.4727874115
 20
207.3084795218
  0
VERTEX
  8
0
 62
7
  6
CONTINUOUS
 10
-150.5389547255
 20
207.2422772502
  0
VERTEX
  8
0
 62
7
  6
CONTINUOUS
 10
-150.6048030229
 20
207.1748285798
  0
VERTEX
  8
0
 62
7
  6
CONTINUOUS
 10
-150.6703168649
 20
207.1061154117
  0
VERTEX
  8
0
 62
7
  6
CONTINUOUS
 10
-150.7354804885
 20
207.0361188915
  0
VERTEX
  8
0
 62
7
  6
CONTINUOUS
 10
-150.8002765205
 20
206.9648207562
  0
VERTEX
  8
0
 62
7
  6
CONTINUOUS
 10
-150.8646872676
 20
206.8922019449
  0
VERTEX
  8
0
 62
7
  6
CONTINUOUS
 10
-150.9286933256
 20
206.8182441302
  0
VERTEX
  8
0
 62
7
  6
CONTINUOUS
 10
-150.9922749738
 20
206.7429281418
  0
VERTEX
  8
0
 62
7
  6
CONTINUOUS
 10
-151.0554106795
 20
206.6662356981
  0
VERTEX
  8
0
 62
7
  6
CONTINUOUS
 10
-151.1180785966
 20
206.5881476283
  0
VERTEX
  8
0
 62
7
  6
CONTINUOUS
 10
-151.1802549633
 20
206.508645824
  0
VERTEX
  8
0
 62
7
  6
CONTINUOUS
 10
-151.2419157185
 20
206.4277112234
  0
VERTEX
  8
0
 62
7
  6
CONTINUOUS
 10
-151.3030332363
 20
206.3453281294
  0
VERTEX
  8
0
 62
7
  6
CONTINUOUS
 10
-151.3635857785
 20
206.2614713892
  0
VERTEX
  8
0
 62
7
  6
CONTINUOUS
 10
-151.4235436829
 20
206.1761249717
  0
VERTEX
  8
0
 62
7
  6
CONTINUOUS
 10
-151.4828926133
 20
206.0892487506
  0
VERTEX
  8
0
 62
7
  6
CONTINUOUS
 10
-151.5416102813
 20
206.0008105194
  0
VERTEX
  8
0
 62
7
  6
CONTINUOUS
 10
-151.5996759459
 20
205.910772247
  0
VERTEX
  8
0
 62
7
  6
CONTINUOUS
 10
-151.6570645995
 20
205.8190986081
  0
VERTEX
  8
0
 62
7
  6
CONTINUOUS
 10
-151.7137502033
 20
205.7257519924
  0
VERTEX
  8
0
 62
7
  6
CONTINUOUS
 10
-151.7697028462
 20
205.63069702
  0
VERTEX
  8
0
 62
7
  6
CONTINUOUS
 10
-151.8248915579
 20
205.5338958655
  0
VERTEX
  8
0
 62
7
  6
CONTINUOUS
 10
-151.8792823059
 20
205.43531149
  0
VERTEX
  8
0
 62
7
  6
CONTINUOUS
 10
-151.9328357503
 20
205.3349120063
  0
VERTEX
  8
0
 62
7
  6
CONTINUOUS
 10
-151.9855153137
 20
205.2326555883
  0
VERTEX
  8
0
 62
7
  6
CONTINUOUS
 10
-152.0372604969
 20
205.1285432126
  0
VERTEX
  8
0
 62
7
  6
CONTINUOUS
 10
-152.0880160694
 20
205.0225646674
  0
VERTEX
  8
0
 62
7
  6
CONTINUOUS
 10
-152.1377193462
 20
204.9147243072
  0
VERTEX
  8
0
 62
7
  6
CONTINUOUS
 10
-152.186307596
 20
204.8050268224
  0
VERTEX
  8
0
 62
7
  6
CONTINUOUS
 10
-152.2337186365
 20
204.6934756787
  0
VERTEX
  8
0
 62
7
  6
CONTINUOUS
 10
-152.2798883383
 20
204.5800788949
  0
VERTEX
  8
0
 62
7
  6
CONTINUOUS
 10
-152.3247531353
 20
204.4648432769
  0
VERTEX
  8
0
 62
7
  6
CONTINUOUS
 10
-152.368247636
 20
204.3477804547
  0
VERTEX
  8
0
 62
7
  6
CONTINUOUS
 10
-152.4103070302
 20
204.2289008737
  0
VERTEX
  8
0
 62
7
  6
CONTINUOUS
 10
-152.4508648315
 20
204.1082200744
  0
VERTEX
  8
0
 62
7
  6
CONTINUOUS
 10
-152.4898551612
 20
203.9857524504
  0
VERTEX
  8
0
 62
7
  6
CONTINUOUS
 10
-152.527210643
 20
203.8615177613
  0
VERTEX
  8
0
 62
7
  6
CONTINUOUS
 10
-152.5628645454
 20
203.7355346658
  0
VERTEX
  8
0
 62
7
  6
CONTINUOUS
 10
-152.596748863
 20
203.6078274025
  0
VERTEX
  8
0
 62
7
  6
CONTINUOUS
 10
-152.6287962313
 20
203.4784193777
  0
VERTEX
  8
0
 62
7
  6
CONTINUOUS
 10
-152.6589381386
 20
203.3473404085
  0
VERTEX
  8
0
 62
7
  6
CONTINUOUS
 10
-152.6871073487
 20
203.2146170395
  0
VERTEX
  8
0
 62
7
  6
CONTINUOUS
 10
-152.7132351178
 20
203.0802853436
  0
VERTEX
  8
0
 62
7
  6
CONTINUOUS
 10
-152.737255558
 20
202.9443692589
  0
VERTEX
  8
0
 62
7
  6
CONTINUOUS
 10
-152.7591011102
 20
202.8069027608
  0
VERTEX
  8
0
 62
7
  6
CONTINUOUS
 10
-152.7787051408
 20
202.6679160303
  0
VERTEX
  8
0
 62
7
  6
CONTINUOUS
 10
-152.7960001379
 20
202.527447164
  0
VERTEX
  8
0
 62
7
  6
CONTINUOUS
 10
-152.810919257
 20
202.385532126
  0
VERTEX
  8
0
 62
7
  6
CONTINUOUS
 10
-152.8233952188
 20
202.2422147126
  0
VERTEX
  8
0
 62
7
  6
CONTINUOUS
 10
-152.8333614723
 20
202.0975367093
  0
VERTEX
  8
0
 62
7
  6
CONTINUOUS
 10
-152.8407514554
 20
201.9515480162
  0
VERTEX
  8
0
 62
7
  6
CONTINUOUS
 10
-152.8414629073
 20
201.933920474
  0
SEQEND
  0
LINE
  8
0
 62
7
  6
CONTINUOUS
 10
294.1140086484
 20
209.3456841828
 11
294.2226824425
 21
209.3456841828
  0
POLYLINE
  8
0
 62
7
  6
CONTINUOUS
 66
1
 70
0
  0
VERTEX
  8
0
 62
7
  6
CONTINUOUS
 10
347.6389481087
 20
176.824812035
  0
VERTEX
  8
0
 62
7
  6
CONTINUOUS
 10
348.071130714
 20
176.7563115854
  0
VERTEX
  8
0
 62
7
  6
CONTINUOUS
 10
348.3234243945
 20
176.7456841828
  0
SEQEND
  0
LINE
  8
0
 62
7
  6
CONTINUOUS
 10
252.4011193177
 20
171.7456841828
 11
252.4011193177
 21
165.244658137
  0
POLYLINE
  8
0
 62
7
  6
CONTINUOUS
 66
1
 70
0
  0
VERTEX
  8
0
 62
7
  6
CONTINUOUS
 10
341.5747661012
 20
489.7806496704
  0
VERTEX
  8
0
 62
7
  6
CONTINUOUS
 10
341.5745177433
 20
489.7796859522
  0
VERTEX
  8
0
 62
7
  6
CONTINUOUS
 10
341.5743472206
 20
489.7806347857
  0
VERTEX
  8
0
 62
7
  6
CONTINUOUS
 10
341.5741869617
 20
489.7809682228
  0
VERTEX
  8
0
 62
7
  6
CONTINUOUS
 10
341.5740423359
 20
489.7815138505
  0
VERTEX
  8
0
 62
7
  6
CONTINUOUS
 10
341.5739121623
 20
489.7819910555
  0
VERTEX
  8
0
 62
7
  6
CONTINUOUS
 10
341.5737055111
 20
489.7827261076
  0
SEQEND
  0
LINE
  8
0
 62
7
  6
CONTINUOUS
 10
345.3259911106
 20
179.6359956778
 11
345.3269724644
 21
179.6354362987
  0
POLYLINE
  8
0
 62
7
  6
CONTINUOUS
 66
1
 70
0
  0
VERTEX
  8
0
 62
7
  6
CONTINUOUS
 10
294.2226824425
 20
210.4010056517
  0
VERTEX
  8
0
 62
7
  6
CONTINUOUS
 10
294.1452099932
 20
211.5116616306
  0
VERTEX
  8
0
 62
7
  6
CONTINUOUS
 10
293.9107098109
 20
212.6132973303
  0
VERTEX
  8
0
 62
7
  6
CONTINUOUS
 10
293.5265313722
 20
213.665020076
  0
VERTEX
  8
0
 62
7
  6
CONTINUOUS
 10
292.999838589
 20
214.6519060487
  0
VERTEX
  8
0
 62
7
  6
CONTINUOUS
 10
292.3400645945
 20
215.5563558469
  0
VERTEX
  8
0
 62
7
  6
CONTINUOUS
 10
291.5605854805
 20
216.3597632118
  0
VERTEX
  8
0
 62
7
  6
CONTINUOUS
 10
290.6766025503
 20
217.0465001132
  0
VERTEX
  8
0
 62
7
  6
CONTINUOUS
 10
289.7051979599
 20
217.6032335719
  0
VERTEX
  8
0
 62
7
  6
CONTINUOUS
 10
288.6672002021
 20
218.0183762286
  0
VERTEX
  8
0
 62
7
  6
CONTINUOUS
 10
287.5799817724
 20
218.2850236738
  0
VERTEX
  8
0
 62
7
  6
CONTINUOUS
 10
286.4585290103
 20
218.3975285151
  0
VERTEX
  8
0
 62
7
  6
CONTINUOUS
 10
286.1255579284
 20
218.4004161461
  0
SEQEND
  0
POLYLINE
  8
0
 62
7
  6
CONTINUOUS
 66
1
 70
0
  0
VERTEX
  8
0
 62
7
  6
CONTINUOUS
 10
294.2226824425
 20
208.0308984768
  0
VERTEX
  8
0
 62
7
  6
CONTINUOUS
 10
294.2196532233
 20
208.251086245
  0
VERTEX
  8
0
 62
7
  6
CONTINUOUS
 10
294.2105836087
 20
208.4709391716
  0
VERTEX
  8
0
 62
7
  6
CONTINUOUS
 10
294.195466883
 20
208.6905396491
  0
VERTEX
  8
0
 62
7
  6
CONTINUOUS
 10
294.1743231934
 20
208.9096405001
  0
VERTEX
  8
0
 62
7
  6
CONTINUOUS
 10
294.1471726871
 20
209.1279945471
  0
VERTEX
  8
0
 62
7
  6
CONTINUOUS
 10
294.1140086484
 20
209.3456841828
  0
SEQEND
  0
LINE
  8
0
 62
7
  6
CONTINUOUS
 10
286.1255662275
 20
218.1600985913
 11
286.1255662491
 21
218.158586667
  0
LINE
  8
0
 62
7
  6
CONTINUOUS
 10
294.2226824425
 20
208.0308984768
 11
294.2226824425
 21
179.7456841828
  0
LINE
  8
0
 62
7
  6
CONTINUOUS
 10
294.2226824425
 20
209.3456841828
 11
294.2226824425
 21
210.4010149509
  0
LINE
  8
0
 62
7
  6
CONTINUOUS
 10
314.4466832417
 20
173.7456841828
 11
314.4466832417
 21
165.2447592084
  0
LINE
  8
0
 62
7
  6
CONTINUOUS
 10
339.7855231157
 20
496.0584280039
 11
343.2737097621
 21
529.410454384
  0
LINE
  8
0
 62
7
  6
CONTINUOUS
 10
345.3255300158
 20
179.6352602918
 11
345.3259911106
 21
179.6359956778
  0
POLYLINE
  8
0
 62
7
  6
CONTINUOUS
 66
1
 70
0
  0
VERTEX
  8
0
 62
7
  6
CONTINUOUS
 10
341.5735922947
 20
489.7831643958
  0
VERTEX
  8
0
 62
7
  6
CONTINUOUS
 10
341.565647738
 20
489.1457962841
  0
VERTEX
  8
0
 62
7
  6
CONTINUOUS
 10
341.5475580417
 20
487.6788016846
  0
VERTEX
  8
0
 62
7
  6
CONTINUOUS
 10
341.5292771857
 20
486.1588810111
  0
VERTEX
  8
0
 62
7
  6
CONTINUOUS
 10
341.5110395948
 20
484.5826316995
  0
VERTEX
  8
0
 62
7
  6
CONTINUOUS
 10
341.4931106433
 20
482.9459582422
  0
VERTEX
  8
0
 62
7
  6
CONTINUOUS
 10
341.475864971
 20
481.252080347
  0
VERTEX
  8
0
 62
7
  6
CONTINUOUS
 10
341.4596522902
 20
479.5007862393
  0
VERTEX
  8
0
 62
7
  6
CONTINUOUS
 10
341.4448760115
 20
477.6982756399
  0
VERTEX
  8
0
 62
7
  6
CONTINUOUS
 10
341.4318951741
 20
475.8505671266
  0
VERTEX
  8
0
 62
7
  6
CONTINUOUS
 10
341.4209871789
 20
473.9579898444
  0
VERTEX
  8
0
 62
7
  6
CONTINUOUS
 10
341.4123971584
 20
472.0231794542
  0
VERTEX
  8
0
 62
7
  6
CONTINUOUS
 10
341.4063106722
 20
470.0452316852
  0
VERTEX
  8
0
 62
7
  6
CONTINUOUS
 10
341.4028601038
 20
468.0241392533
  0
VERTEX
  8
0
 62
7
  6
CONTINUOUS
 10
341.4021339362
 20
465.9598430011
  0
VERTEX
  8
0
 62
7
  6
CONTINUOUS
 10
341.4041926298
 20
463.8526431626
  0
VERTEX
  8
0
 62
7
  6
CONTINUOUS
 10
341.4090361033
 20
461.7014516371
  0
VERTEX
  8
0
 62
7
  6
CONTINUOUS
 10
341.4166354236
 20
459.5064315557
  0
VERTEX
  8
0
 62
7
  6
CONTINUOUS
 10
341.4269456748
 20
457.2641271178
  0
VERTEX
  8
0
 62
7
  6
CONTINUOUS
 10
341.4399003498
 20
454.9721160226
  0
VERTEX
  8
0
 62
7
  6
CONTINUOUS
 10
341.4554179399
 20
452.6274594746
  0
VERTEX
  8
0
 62
7
  6
CONTINUOUS
 10
341.4733962402
 20
450.2274153399
  0
VERTEX
  8
0
 62
7
  6
CONTINUOUS
 10
341.4937464923
 20
447.7689703077
  0
VERTEX
  8
0
 62
7
  6
CONTINUOUS
 10
341.5163878423
 20
445.2494100589
  0
VERTEX
  8
0
 62
7
  6
CONTINUOUS
 10
341.5412245109
 20
442.6650958537
  0
VERTEX
  8
0
 62
7
  6
CONTINUOUS
 10
341.5681338049
 20
440.0126776717
  0
VERTEX
  8
0
 62
7
  6
CONTINUOUS
 10
341.5970197484
 20
437.2885738684
  0
VERTEX
  8
0
 62
7
  6
CONTINUOUS
 10
341.627793794
 20
434.4896878654
  0
VERTEX
  8
0
 62
7
  6
CONTINUOUS
 10
341.6603587613
 20
431.6112150235
  0
VERTEX
  8
0
 62
7
  6
CONTINUOUS
 10
341.6946102205
 20
428.649346147
  0
VERTEX
  8
0
 62
7
  6
CONTINUOUS
 10
341.7305548002
 20
425.5979992205
  0
VERTEX
  8
0
 62
7
  6
CONTINUOUS
 10
341.7681954313
 20
422.4519903604
  0
VERTEX
  8
0
 62
7
  6
CONTINUOUS
 10
341.8075347405
 20
419.2048171432
  0
VERTEX
  8
0
 62
7
  6
CONTINUOUS
 10
341.8485404656
 20
415.8512364457
  0
VERTEX
  8
0
 62
7
  6
CONTINUOUS
 10
341.8912019012
 20
412.3822850405
  0
VERTEX
  8
0
 62
7
  6
CONTINUOUS
 10
341.9354844866
 20
408.7905598572
  0
VERTEX
  8
0
 62
7
  6
CONTINUOUS
 10
341.9814688955
 20
405.0661378092
  0
VERTEX
  8
0
 62
7
  6
CONTINUOUS
 10
342.0292326336
 20
401.2012262443
  0
VERTEX
  8
0
 62
7
  6
CONTINUOUS
 10
342.078922116
 20
397.1820328841
  0
VERTEX
  8
0
 62
7
  6
CONTINUOUS
 10
342.1306409155
 20
392.9977031014
  0
VERTEX
  8
0
 62
7
  6
CONTINUOUS
 10
342.1845604645
 20
388.6316308705
  0
VERTEX
  8
0
 62
7
  6
CONTINUOUS
 10
342.2408246864
 20
384.0709822458
  0
VERTEX
  8
0
 62
7
  6
CONTINUOUS
 10
342.2996990468
 20
379.2935873353
  0
VERTEX
  8
0
 62
7
  6
CONTINUOUS
 10
342.3613712083
 20
374.2834723264
  0
VERTEX
  8
0
 62
7
  6
CONTINUOUS
 10
342.4262182459
 20
369.0092150363
  0
VERTEX
  8
0
 62
7
  6
CONTINUOUS
 10
342.4945290516
 20
363.4471296971
  0
VERTEX
  8
0
 62
7
  6
CONTINUOUS
 10
342.566788858
 20
357.5580336101
  0
VERTEX
  8
0
 62
7
  6
CONTINUOUS
 10
342.6432984799
 20
351.3180679043
  0
VERTEX
  8
0
 62
7
  6
CONTINUOUS
 10
342.7249255184
 20
344.6575755957
  0
VERTEX
  8
0
 62
7
  6
CONTINUOUS
 10
342.8123725594
 20
337.5209728694
  0
VERTEX
  8
0
 62
7
  6
CONTINUOUS
 10
342.906480344
 20
329.8421818134
  0
VERTEX
  8
0
 62
7
  6
CONTINUOUS
 10
343.0074303572
 20
321.6056963083
  0
VERTEX
  8
0
 62
7
  6
CONTINUOUS
 10
343.1176860423
 20
312.6042145883
  0
VERTEX
  8
0
 62
7
  6
CONTINUOUS
 10
343.2443084774
 20
302.249552255
  0
VERTEX
  8
0
 62
7
  6
CONTINUOUS
 10
343.3733266921
 20
291.6688467358
  0
VERTEX
  8
0
 62
7
  6
CONTINUOUS
 10
343.4928395094
 20
281.8396403566
  0
VERTEX
  8
0
 62
7
  6
CONTINUOUS
 10
343.6048016005
 20
272.6225475203
  0
VERTEX
  8
0
 62
7
  6
CONTINUOUS
 10
343.7062424778
 20
264.2778196322
  0
VERTEX
  8
0
 62
7
  6
CONTINUOUS
 10
343.7999620576
 20
256.5840871563
  0
VERTEX
  8
0
 62
7
  6
CONTINUOUS
 10
343.8875678202
 20
249.4235442821
  0
VERTEX
  8
0
 62
7
  6
CONTINUOUS
 10
343.9704911839
 20
242.7457614388
  0
VERTEX
  8
0
 62
7
  6
CONTINUOUS
 10
344.0504893318
 20
236.4719469407
  0
VERTEX
  8
0
 62
7
  6
CONTINUOUS
 10
344.1286405385
 20
230.569386846
  0
VERTEX
  8
0
 62
7
  6
CONTINUOUS
 10
344.2071033798
 20
224.9876815132
  0
VERTEX
  8
0
 62
7
  6
CONTINUOUS
 10
344.2875788563
 20
219.7011355662
  0
VERTEX
  8
0
 62
7
  6
CONTINUOUS
 10
344.3714517227
 20
214.6735932591
  0
VERTEX
  8
0
 62
7
  6
CONTINUOUS
 10
344.459858894
 20
209.8860117616
  0
VERTEX
  8
0
 62
7
  6
CONTINUOUS
 10
344.5543720768
 20
205.3114894168
  0
VERTEX
  8
0
 62
7
  6
CONTINUOUS
 10
344.6558432495
 20
200.9374562269
  0
VERTEX
  8
0
 62
7
  6
CONTINUOUS
 10
344.76477118
 20
196.7402618083
  0
VERTEX
  8
0
 62
7
  6
CONTINUOUS
 10
344.8802852614
 20
192.7262024458
  0
VERTEX
  8
0
 62
7
  6
CONTINUOUS
 10
345.0014642392
 20
188.8745091426
  0
VERTEX
  8
0
 62
7
  6
CONTINUOUS
 10
345.124144732
 20
185.2426688068
  0
VERTEX
  8
0
 62
7
  6
CONTINUOUS
 10
345.2432886463
 20
181.8875659626
  0
VERTEX
  8
0
 62
7
  6
CONTINUOUS
 10
345.3254485449
 20
179.6354252472
  0
SEQEND
  0
POLYLINE
  8
0
 62
7
  6
CONTINUOUS
 66
1
 70
0
  0
VERTEX
  8
0
 62
7
  6
CONTINUOUS
 10
345.3269724644
 20
179.6354362987
  0
VERTEX
  8
0
 62
7
  6
CONTINUOUS
 10
345.3284140966
 20
179.6429679369
  0
VERTEX
  8
0
 62
7
  6
CONTINUOUS
 10
345.3324817607
 20
179.6683167876
  0
SEQEND
  0
LINE
  8
0
 62
7
  6
CONTINUOUS
 10
345.3254802567
 20
179.6355409465
 11
345.3254485449
 21
179.6354252472
  0
POLYLINE
  8
0
 62
7
  6
CONTINUOUS
 66
1
 70
0
  0
VERTEX
  8
0
 62
7
  6
CONTINUOUS
 10
344.5073122278
 20
169.3967632665
  0
VERTEX
  8
0
 62
7
  6
CONTINUOUS
 10
344.4591343213
 20
169.2907736991
  0
VERTEX
  8
0
 62
7
  6
CONTINUOUS
 10
344.2936197008
 20
168.9574804763
  0
VERTEX
  8
0
 62
7
  6
CONTINUOUS
 10
344.1125774769
 20
168.636654555
  0
VERTEX
  8
0
 62
7
  6
CONTINUOUS
 10
343.9165538106
 20
168.3286436162
  0
VERTEX
  8
0
 62
7
  6
CONTINUOUS
 10
343.7061396349
 20
168.0336047174
  0
VERTEX
  8
0
 62
7
  6
CONTINUOUS
 10
343.482078323
 20
167.7516936829
  0
VERTEX
  8
0
 62
7
  6
CONTINUOUS
 10
343.2455539001
 20
167.4833445657
  0
VERTEX
  8
0
 62
7
  6
CONTINUOUS
 10
342.9991281054
 20
167.2303075977
  0
VERTEX
  8
0
 62
7
  6
CONTINUOUS
 10
342.7454374617
 20
166.9942735411
  0
VERTEX
  8
0
 62
7
  6
CONTINUOUS
 10
342.4862214216
 20
166.7759122508
  0
VERTEX
  8
0
 62
7
  6
CONTINUOUS
 10
342.221394156
 20
166.5740736537
  0
VERTEX
  8
0
 62
7
  6
CONTINUOUS
 10
341.9512070401
 20
166.3878138453
  0
VERTEX
  8
0
 62
7
  6
CONTINUOUS
 10
341.6762431901
 20
166.2164377802
  0
VERTEX
  8
0
 62
7
  6
CONTINUOUS
 10
341.398230313
 20
166.0601609843
  0
VERTEX
  8
0
 62
7
  6
CONTINUOUS
 10
341.1187789167
 20
165.9191925148
  0
VERTEX
  8
0
 62
7
  6
CONTINUOUS
 10
340.8385044984
 20
165.7931587046
  0
VERTEX
  8
0
 62
7
  6
CONTINUOUS
 10
340.5582856851
 20
165.6816346262
  0
VERTEX
  8
0
 62
7
  6
CONTINUOUS
 10
340.2786853656
 20
165.5839966006
  0
VERTEX
  8
0
 62
7
  6
CONTINUOUS
 10
340.0005061327
 20
165.4997282243
  0
VERTEX
  8
0
 62
7
  6
CONTINUOUS
 10
339.7248216429
 20
165.4284477363
  0
VERTEX
  8
0
 62
7
  6
CONTINUOUS
 10
339.4519795641
 20
165.3695538779
  0
VERTEX
  8
0
 62
7
  6
CONTINUOUS
 10
339.1824770518
 20
165.3224593907
  0
VERTEX
  8
0
 62
7
  6
CONTINUOUS
 10
338.9169486657
 20
165.2863347572
  0
VERTEX
  8
0
 62
7
  6
CONTINUOUS
 10
338.6560151994
 20
165.2609131026
  0
VERTEX
  8
0
 62
7
  6
CONTINUOUS
 10
338.4001660769
 20
165.2456332305
  0
SEQEND
  0
POLYLINE
  8
0
 62
7
  6
CONTINUOUS
 66
1
 70
0
  0
VERTEX
  8
0
 62
7
  6
CONTINUOUS
 10
346.6903186855
 20
174.0762661232
  0
VERTEX
  8
0
 62
7
  6
CONTINUOUS
 10
346.6164520352
 20
173.9180610471
  0
VERTEX
  8
0
 62
7
  6
CONTINUOUS
 10
346.0235678302
 20
172.6494792972
  0
VERTEX
  8
0
 62
7
  6
CONTINUOUS
 10
345.4574888337
 20
171.4358792806
  0
VERTEX
  8
0
 62
7
  6
CONTINUOUS
 10
344.9187078902
 20
170.2770354135
  0
VERTEX
  8
0
 62
7
  6
CONTINUOUS
 10
344.5084829958
 20
169.3962063824
  0
SEQEND
  0
LINE
  8
0
 62
7
  6
CONTINUOUS
 10
345.3254485897
 20
179.6354236834
 11
345.3255300158
 21
179.6352602918
  0
POLYLINE
  8
0
 62
7
  6
CONTINUOUS
 66
1
 70
0
  0
VERTEX
  8
0
 62
7
  6
CONTINUOUS
 10
345.3254307309
 20
179.6359489554
  0
VERTEX
  8
0
 62
7
  6
CONTINUOUS
 10
345.3862399558
 20
179.1349835408
  0
VERTEX
  8
0
 62
7
  6
CONTINUOUS
 10
345.5539083829
 20
178.5925196808
  0
VERTEX
  8
0
 62
7
  6
CONTINUOUS
 10
345.8195155882
 20
178.0932776509
  0
VERTEX
  8
0
 62
7
  6
CONTINUOUS
 10
346.1747659776
 20
177.6520574802
  0
VERTEX
  8
0
 62
7
  6
CONTINUOUS
 10
346.606774212
 20
177.2853759098
  0
VERTEX
  8
0
 62
7
  6
CONTINUOUS
 10
347.1055161002
 20
177.0040236064
  0
VERTEX
  8
0
 62
7
  6
CONTINUOUS
 10
347.6389481087
 20
176.824812035
  0
SEQEND
  0
LINE
  8
0
 62
7
  6
CONTINUOUS
 10
341.5769655551
 20
489.7489261044
 11
341.5753514269
 21
489.7711158251
  0
LINE
  8
0
 62
7
  6
CONTINUOUS
 10
341.5753514269
 20
489.7711158251
 11
341.5748103081
 21
489.7798751443
  0
LINE
  8
0
 62
7
  6
CONTINUOUS
 10
341.5748103081
 20
489.7798751443
 11
341.5747661012
 21
489.7806496704
  0
POLYLINE
  8
0
 62
7
  6
CONTINUOUS
 66
1
 70
0
  0
VERTEX
  8
0
 62
7
  6
CONTINUOUS
 10
341.5737055111
 20
489.7827261076
  0
VERTEX
  8
0
 62
7
  6
CONTINUOUS
 10
341.5736376556
 20
489.7829819098
  0
VERTEX
  8
0
 62
7
  6
CONTINUOUS
 10
341.5735999929
 20
489.7831370036
  0
VERTEX
  8
0
 62
7
  6
CONTINUOUS
 10
341.5735922947
 20
489.7831644054
  0
SEQEND
  0
LINE
  8
0
 62
7
  6
CONTINUOUS
 10
341.5987343846
 20
489.7097679847
 11
341.5769655551
 21
489.7489261044
  0
POLYLINE
  8
0
 62
7
  6
CONTINUOUS
 66
1
 70
0
  0
VERTEX
  8
0
 62
7
  6
CONTINUOUS
 10
509.6443158877
 20
525.6490322185
  0
VERTEX
  8
0
 62
7
  6
CONTINUOUS
 10
509.6298814901
 20
526.1369063897
  0
VERTEX
  8
0
 62
7
  6
CONTINUOUS
 10
509.4913510611
 20
527.2134425265
  0
VERTEX
  8
0
 62
7
  6
CONTINUOUS
 10
509.2104326771
 20
528.255324746
  0
VERTEX
  8
0
 62
7
  6
CONTINUOUS
 10
508.7923309001
 20
529.2489750212
  0
VERTEX
  8
0
 62
7
  6
CONTINUOUS
 10
508.2437931151
 20
530.1783224035
  0
VERTEX
  8
0
 62
7
  6
CONTINUOUS
 10
507.5752648568
 20
531.025280531
  0
VERTEX
  8
0
 62
7
  6
CONTINUOUS
 10
506.7988412842
 20
531.7745725124
  0
VERTEX
  8
0
 62
7
  6
CONTINUOUS
 10
505.9285330206
 20
532.4126387778
  0
VERTEX
  8
0
 62
7
  6
CONTINUOUS
 10
504.9812642305
 20
532.9273107533
  0
VERTEX
  8
0
 62
7
  6
CONTINUOUS
 10
503.9723935156
 20
533.3102543077
  0
VERTEX
  8
0
 62
7
  6
CONTINUOUS
 10
502.9149270879
 20
533.5549451992
  0
VERTEX
  8
0
 62
7
  6
CONTINUOUS
 10
502.3833728801
 20
533.6222817841
  0
SEQEND
  0
LINE
  8
0
 62
7
  6
CONTINUOUS
 10
509.6226824425
 20
525.3816359624
 11
509.6226824425
 21
495.7456841828
  0
LINE
  8
0
 62
7
  6
CONTINUOUS
 10
509.6226824425
 20
489.7456841828
 11
509.6226824425
 21
179.7456841828
  0
LINE
  8
0
 62
7
  6
CONTINUOUS
 10
509.6226824425
 20
-233.7543158172
 11
509.6226824425
 21
168.7456841828
  0
LINE
  8
0
 62
7
  6
CONTINUOUS
 10
509.6316911015
 20
525.650571623
 11
509.6316096999
 21
525.3826227688
  0
LINE
  8
0
 62
7
  6
CONTINUOUS
 10
402.0202873574
 20
540.9751384915
 11
396.4052805317
 21
539.4419554812
  0
POLYLINE
  8
0
 62
7
  6
CONTINUOUS
 66
1
 70
0
  0
VERTEX
  8
0
 62
7
  6
CONTINUOUS
 10
411.5946083204
 20
545.7761901976
  0
VERTEX
  8
0
 62
7
  6
CONTINUOUS
 10
410.8254579238
 20
545.6333781935
  0
VERTEX
  8
0
 62
7
  6
CONTINUOUS
 10
410.0113310034
 20
545.4616819811
  0
VERTEX
  8
0
 62
7
  6
CONTINUOUS
 10
409.1519073325
 20
545.2627120468
  0
VERTEX
  8
0
 62
7
  6
CONTINUOUS
 10
408.2481475909
 20
545.0316369313
  0
VERTEX
  8
0
 62
7
  6
CONTINUOUS
 10
407.3010124579
 20
544.7636251754
  0
VERTEX
  8
0
 62
7
  6
CONTINUOUS
 10
406.3101817071
 20
544.4602872654
  0
SEQEND
  0
POLYLINE
  8
0
 62
7
  6
CONTINUOUS
 66
1
 70
0
  0
VERTEX
  8
0
 62
7
  6
CONTINUOUS
 10
411.2410549298
 20
545.9294129307
  0
VERTEX
  8
0
 62
7
  6
CONTINUOUS
 10
411.3851024254
 20
545.9545797619
  0
VERTEX
  8
0
 62
7
  6
CONTINUOUS
 10
411.5366624135
 20
545.9802043004
  0
VERTEX
  8
0
 62
7
  6
CONTINUOUS
 10
411.6952524678
 20
546.0063275374
  0
VERTEX
  8
0
 62
7
  6
CONTINUOUS
 10
411.8603739428
 20
546.0328264995
  0
VERTEX
  8
0
 62
7
  6
CONTINUOUS
 10
412.0315260728
 20
546.0596243418
  0
VERTEX
  8
0
 62
7
  6
CONTINUOUS
 10
412.2081061201
 20
546.0866236707
  0
VERTEX
  8
0
 62
7
  6
CONTINUOUS
 10
412.3894418794
 20
546.1137228401
  0
VERTEX
  8
0
 62
7
  6
CONTINUOUS
 10
412.5751071746
 20
546.1408577632
  0
VERTEX
  8
0
 62
7
  6
CONTINUOUS
 10
412.7649744843
 20
546.1680056924
  0
VERTEX
  8
0
 62
7
  6
CONTINUOUS
 10
412.9574373017
 20
546.1949409647
  0
VERTEX
  8
0
 62
7
  6
CONTINUOUS
 10
413.1518974389
 20
546.2215717057
  0
VERTEX
  8
0
 62
7
  6
CONTINUOUS
 10
413.3449533585
 20
546.2474738027
  0
VERTEX
  8
0
 62
7
  6
CONTINUOUS
 10
413.5328268688
 20
546.2721356761
  0
SEQEND
  0
POLYLINE
  8
0
 62
7
  6
CONTINUOUS
 66
1
 70
0
  0
VERTEX
  8
0
 62
7
  6
CONTINUOUS
 10
344.5733582671
 20
492.7456841828
  0
VERTEX
  8
0
 62
7
  6
CONTINUOUS
 10
344.0653521021
 20
492.7023596349
  0
VERTEX
  8
0
 62
7
  6
CONTINUOUS
 10
343.5606491489
 20
492.5695857772
  0
VERTEX
  8
0
 62
7
  6
CONTINUOUS
 10
343.0869374211
 20
492.3515531381
  0
SEQEND
  0
LINE
  8
0
 62
7
  6
CONTINUOUS
 10
506.6226824425
 20
492.7456841828
 11
342.7592334367
 21
492.7456841828
  0
POLYLINE
  8
0
 62
7
  6
CONTINUOUS
 66
1
 70
0
  0
VERTEX
  8
0
 62
7
  6
CONTINUOUS
 10
413.7159286639
 20
546.0908982327
  0
VERTEX
  8
0
 62
7
  6
CONTINUOUS
 10
413.5666936484
 20
546.0716306204
  0
VERTEX
  8
0
 62
7
  6
CONTINUOUS
 10
413.4134379839
 20
546.0514873894
  0
VERTEX
  8
0
 62
7
  6
CONTINUOUS
 10
413.2564231387
 20
546.0304216117
  0
VERTEX
  8
0
 62
7
  6
CONTINUOUS
 10
413.0967505676
 20
546.0085740713
  0
VERTEX
  8
0
 62
7
  6
CONTINUOUS
 10
412.9352519054
 20
545.9860094205
  0
VERTEX
  8
0
 62
7
  6
CONTINUOUS
 10
412.7733193292
 20
545.9629091267
  0
VERTEX
  8
0
 62
7
  6
CONTINUOUS
 10
412.6124090765
 20
545.9394452467
  0
VERTEX
  8
0
 62
7
  6
CONTINUOUS
 10
412.453219485
 20
545.9157106645
  0
VERTEX
  8
0
 62
7
  6
CONTINUOUS
 10
412.2964105109
 20
545.8917784851
  0
VERTEX
  8
0
 62
7
  6
CONTINUOUS
 10
412.1435879072
 20
545.8678801029
  0
VERTEX
  8
0
 62
7
  6
CONTINUOUS
 10
411.9960999344
 20
545.8442242643
  0
VERTEX
  8
0
 62
7
  6
CONTINUOUS
 10
411.8548644316
 20
545.8209520184
  0
VERTEX
  8
0
 62
7
  6
CONTINUOUS
 10
411.7210016253
 20
545.798300325
  0
VERTEX
  8
0
 62
7
  6
CONTINUOUS
 10
411.5946083204
 20
545.7761901976
  0
SEQEND
  0
LINE
  8
0
 62
7
  6
CONTINUOUS
 10
413.5328268688
 20
546.2721356761
 11
413.7159286639
 21
546.2957278525
  0
POLYLINE
  8
0
 62
7
  6
CONTINUOUS
 66
1
 70
0
  0
VERTEX
  8
0
 62
7
  6
CONTINUOUS
 10
350.8348452676
 20
536.83927746
  0
VERTEX
  8
0
 62
7
  6
CONTINUOUS
 10
350.3705305631
 20
536.8026602796
  0
VERTEX
  8
0
 62
7
  6
CONTINUOUS
 10
349.3655852575
 20
536.6284962823
  0
VERTEX
  8
0
 62
7
  6
CONTINUOUS
 10
348.3958046759
 20
536.3297229381
  0
VERTEX
  8
0
 62
7
  6
CONTINUOUS
 10
347.4723511316
 20
535.9109634946
  0
VERTEX
  8
0
 62
7
  6
CONTINUOUS
 10
346.6085841205
 20
535.3782634961
  0
VERTEX
  8
0
 62
7
  6
CONTINUOUS
 10
345.8193017505
 20
534.7405876622
  0
VERTEX
  8
0
 62
7
  6
CONTINUOUS
 10
345.1170872868
 20
534.0081347076
  0
VERTEX
  8
0
 62
7
  6
CONTINUOUS
 10
344.5131927421
 20
533.192620192
  0
VERTEX
  8
0
 62
7
  6
CONTINUOUS
 10
344.0177205256
 20
532.3079024717
  0
VERTEX
  8
0
 62
7
  6
CONTINUOUS
 10
343.6379099966
 20
531.3669160248
  0
VERTEX
  8
0
 62
7
  6
CONTINUOUS
 10
343.3792993869
 20
530.380438596
  0
VERTEX
  8
0
 62
7
  6
CONTINUOUS
 10
343.274256271
 20
529.6763464872
  0
SEQEND
  0
POLYLINE
  8
0
 62
7
  6
CONTINUOUS
 66
1
 70
0
  0
VERTEX
  8
0
 62
7
  6
CONTINUOUS
 10
350.8424806881
 20
536.5637973354
  0
VERTEX
  8
0
 62
7
  6
CONTINUOUS
 10
376.1115288137
 20
537.5187568921
  0
VERTEX
  8
0
 62
7
  6
CONTINUOUS
 10
401.3942812263
 20
537.8770213367
  0
VERTEX
  8
0
 62
7
  6
CONTINUOUS
 10
426.6781069658
 20
537.638487043
  0
VERTEX
  8
0
 62
7
  6
CONTINUOUS
 10
451.944570928
 20
536.8035065096
  0
VERTEX
  8
0
 62
7
  6
CONTINUOUS
 10
477.1752694748
 20
535.3731749861
  0
VERTEX
  8
0
 62
7
  6
CONTINUOUS
 10
502.3576485315
 20
533.3487940051
  0
SEQEND
  0
LINE
  8
0
 62
7
  6
CONTINUOUS
 10
395.4708240866
 20
538.1099697637
 11
391.5517074843
 21
538.0833820666
  0
LINE
  8
0
 62
7
  6
CONTINUOUS
 10
402.0202873574
 20
540.9751384915
 11
403.8472775999
 21
540.9751384915
  0
LINE
  8
0
 62
7
  6
CONTINUOUS
 10
443.1192678488
 20
540.9751384915
 11
444.9462580914
 21
540.9751384915
  0
LINE
  8
0
 62
7
  6
CONTINUOUS
 10
404.0891226323
 20
541.0627792492
 11
442.8774228164
 21
541.0627792492
  0
LINE
  8
0
 62
7
  6
CONTINUOUS
 10
406.310180018
 20
544.4602871022
 11
440.6563654308
 21
544.4602871022
  0
LINE
  8
0
 62
7
  6
CONTINUOUS
 10
404.8590397484
 20
544.6377008534
 11
406.0236567798
 21
544.6377008534
  0
LINE
  8
0
 62
7
  6
CONTINUOUS
 10
440.942888669
 20
544.6377008534
 11
442.1075057004
 21
544.6377008534
  0
LINE
  8
0
 62
7
  6
CONTINUOUS
 10
455.5252691568
 20
536.9119785148
 11
451.874076919
 21
537.0704464147
  0
LINE
  8
0
 62
7
  6
CONTINUOUS
 10
451.2375495047
 20
538.8192911123
 11
451.874076919
 21
537.0704464147
  0
POLYLINE
  8
0
 62
7
  6
CONTINUOUS
 66
1
 70
0
  0
VERTEX
  8
0
 62
7
  6
CONTINUOUS
 10
433.2506167848
 20
546.2957281401
  0
VERTEX
  8
0
 62
7
  6
CONTINUOUS
 10
433.4300314307
 20
546.272619928
  0
VERTEX
  8
0
 62
7
  6
CONTINUOUS
 10
433.6154467267
 20
546.2482891736
  0
VERTEX
  8
0
 62
7
  6
CONTINUOUS
 10
433.8074314248
 20
546.2225479722
  0
VERTEX
  8
0
 62
7
  6
CONTINUOUS
 10
434.0017448318
 20
546.1959600381
  0
VERTEX
  8
0
 62
7
  6
CONTINUOUS
 10
434.1946196539
 20
546.1689879513
  0
VERTEX
  8
0
 62
7
  6
CONTINUOUS
 10
434.3852831666
 20
546.1417472106
  0
VERTEX
  8
0
 62
7
  6
CONTINUOUS
 10
434.5718677103
 20
546.1144962799
  0
VERTEX
  8
0
 62
7
  6
CONTINUOUS
 10
434.7541696877
 20
546.0872688449
  0
VERTEX
  8
0
 62
7
  6
CONTINUOUS
 10
434.931590154
 20
546.0601547277
  0
VERTEX
  8
0
 62
7
  6
CONTINUOUS
 10
435.1035369791
 20
546.033243983
  0
VERTEX
  8
0
 62
7
  6
CONTINUOUS
 10
435.2694453427
 20
546.0066268666
  0
VERTEX
  8
0
 62
7
  6
CONTINUOUS
 10
435.4287551122
 20
545.9803925983
  0
VERTEX
  8
0
 62
7
  6
CONTINUOUS
 10
435.5809262911
 20
545.9546753967
  0
VERTEX
  8
0
 62
7
  6
CONTINUOUS
 10
435.725490519
 20
545.9294305222
  0
SEQEND
  0
POLYLINE
  8
0
 62
7
  6
CONTINUOUS
 66
1
 70
0
  0
VERTEX
  8
0
 62
7
  6
CONTINUOUS
 10
435.3719371284
 20
545.7761901976
  0
VERTEX
  8
0
 62
7
  6
CONTINUOUS
 10
435.2511196939
 20
545.7973348542
  0
VERTEX
  8
0
 62
7
  6
CONTINUOUS
 10
435.1230954076
 20
545.8190427311
  0
VERTEX
  8
0
 62
7
  6
CONTINUOUS
 10
434.9879004733
 20
545.8413826222
  0
VERTEX
  8
0
 62
7
  6
CONTINUOUS
 10
434.8464772579
 20
545.8641481459
  0
VERTEX
  8
0
 62
7
  6
CONTINUOUS
 10
434.6998437678
 20
545.887179001
  0
VERTEX
  8
0
 62
7
  6
CONTINUOUS
 10
434.5484060362
 20
545.910405739
  0
VERTEX
  8
0
 62
7
  6
CONTINUOUS
 10
434.3927675653
 20
545.9337364202
  0
VERTEX
  8
0
 62
7
  6
CONTINUOUS
 10
434.2335478436
 20
545.957078217
  0
VERTEX
  8
0
 62
7
  6
CONTINUOUS
 10
434.0711960958
 20
545.980364222
  0
VERTEX
  8
0
 62
7
  6
CONTINUOUS
 10
433.9069525383
 20
546.0034247351
  0
VERTEX
  8
0
 62
7
  6
CONTINUOUS
 10
433.7420258946
 20
546.0260928539
  0
VERTEX
  8
0
 62
7
  6
CONTINUOUS
 10
433.5771214506
 20
546.0482932773
  0
VERTEX
  8
0
 62
7
  6
CONTINUOUS
 10
433.4131906765
 20
546.0698787033
  0
VERTEX
  8
0
 62
7
  6
CONTINUOUS
 10
433.2506167848
 20
546.0908982327
  0
SEQEND
  0
POLYLINE
  8
0
 62
7
  6
CONTINUOUS
 66
1
 70
0
  0
VERTEX
  8
0
 62
7
  6
CONTINUOUS
 10
435.725490519
 20
545.9294284046
  0
VERTEX
  8
0
 62
7
  6
CONTINUOUS
 10
436.4925743589
 20
545.7871778872
  0
VERTEX
  8
0
 62
7
  6
CONTINUOUS
 10
437.300961444
 20
545.6172691073
  0
VERTEX
  8
0
 62
7
  6
CONTINUOUS
 10
438.1509507362
 20
545.4211602674
  0
VERTEX
  8
0
 62
7
  6
CONTINUOUS
 10
439.0416453497
 20
545.1944767601
  0
VERTEX
  8
0
 62
7
  6
CONTINUOUS
 10
439.9721483986
 20
544.9328439776
  0
VERTEX
  8
0
 62
7
  6
CONTINUOUS
 10
440.9427588449
 20
544.6377201227
  0
SEQEND
  0
LINE
  8
0
 62
7
  6
CONTINUOUS
 10
444.9462580914
 20
540.9751384915
 11
450.5612649171
 21
539.4419554812
  0
LINE
  8
0
 62
7
  6
CONTINUOUS
 10
442.1075057004
 20
544.6377008534
 11
444.9462580914
 21
540.9751384915
  0
POLYLINE
  8
0
 62
7
  6
CONTINUOUS
 66
1
 70
0
  0
VERTEX
  8
0
 62
7
  6
CONTINUOUS
 10
440.9427588449
 20
544.6377201227
  0
VERTEX
  8
0
 62
7
  6
CONTINUOUS
 10
441.4500834292
 20
543.7931762405
  0
VERTEX
  8
0
 62
7
  6
CONTINUOUS
 10
441.9825049329
 20
542.9011412223
  0
VERTEX
  8
0
 62
7
  6
CONTINUOUS
 10
442.540023356
 20
541.9616150679
  0
VERTEX
  8
0
 62
7
  6
CONTINUOUS
 10
443.1226386985
 20
540.9745977774
  0
SEQEND
  0
POLYLINE
  8
0
 62
7
  6
CONTINUOUS
 66
1
 70
0
  0
VERTEX
  8
0
 62
7
  6
CONTINUOUS
 10
442.6582678164
 20
541.0627786282
  0
VERTEX
  8
0
 62
7
  6
CONTINUOUS
 10
442.300228688
 20
541.6753589944
  0
VERTEX
  8
0
 62
7
  6
CONTINUOUS
 10
441.9519209933
 20
542.2694260324
  0
VERTEX
  8
0
 62
7
  6
CONTINUOUS
 10
441.6133222827
 20
542.8449968445
  0
VERTEX
  8
0
 62
7
  6
CONTINUOUS
 10
441.2844999047
 20
543.4020201238
  0
VERTEX
  8
0
 62
7
  6
CONTINUOUS
 10
440.9655212075
 20
543.9404445633
  0
VERTEX
  8
0
 62
7
  6
CONTINUOUS
 10
440.6563637416
 20
544.4602872654
  0
SEQEND
  0
POLYLINE
  8
0
 62
7
  6
CONTINUOUS
 66
1
 70
0
  0
VERTEX
  8
0
 62
7
  6
CONTINUOUS
 10
440.6563637416
 20
544.4602872654
  0
VERTEX
  8
0
 62
7
  6
CONTINUOUS
 10
439.6655332326
 20
544.7636251082
  0
VERTEX
  8
0
 62
7
  6
CONTINUOUS
 10
438.7183982451
 20
545.0316368275
  0
VERTEX
  8
0
 62
7
  6
CONTINUOUS
 10
437.8146385532
 20
545.2627119403
  0
VERTEX
  8
0
 62
7
  6
CONTINUOUS
 10
436.955214835
 20
545.4616818955
  0
VERTEX
  8
0
 62
7
  6
CONTINUOUS
 10
436.1410877688
 20
545.6333781423
  0
VERTEX
  8
0
 62
7
  6
CONTINUOUS
 10
435.3719371284
 20
545.7761901976
  0
SEQEND
  0
LINE
  8
0
 62
7
  6
CONTINUOUS
 10
443.1226386985
 20
540.9745977774
 11
442.8774228164
 21
541.0627792492
  0
ARC
  8
0
 62
7
  6
CONTINUOUS
 10
403.9304765137
 20
-533.4062449843
 40
1071.5616387556
 50
90.6619007113
 51
92.8401998621
  0
ARC
  8
0
 62
7
  6
CONTINUOUS
 10
403.9304765137
 20
-533.4062449843
 40
1071.5616387556
 50
84.7285125159
 51
87.2401882539
  0
ARC
  8
0
 62
7
  6
CONTINUOUS
 10
423.4832727244
 20
469.6527284298
 40
77.2632392753
 50
98.8744770456
 51
103.9484663514
  0
ARC
  8
0
 62
7
  6
CONTINUOUS
 10
423.4832727244
 20
469.6527284298
 40
77.2632392753
 50
76.0515336486
 51
81.1255229544
  0
ARC
  8
0
 62
7
  6
CONTINUOUS
 10
423.4832727244
 20
469.6527284298
 40
77.2628656098
 50
82.7374036211
 51
97.2625963789
  0
ARC
  8
0
 62
7
  6
CONTINUOUS
 10
423.4832727244
 20
469.6527284298
 40
77.0596834461
 50
82.7181508037
 51
97.2818491963
  0
ARC
  8
0
 62
7
  6
CONTINUOUS
 10
286.2226824425
 20
179.7456841828
 40
8.0
 50
270.0
 51
360.0
  0
ARC
  8
0
 62
7
  6
CONTINUOUS
 10
342.759814629
 20
495.7456841828
 40
3.0
 50
173.9429762265
 51
270.0004323637
  0
ARC
  8
0
 62
7
  6
CONTINUOUS
 10
396.6686885649
 20
538.477270969
 40
1.0
 50
105.2723793093
 51
160.0
  0
ARC
  8
0
 62
7
  6
CONTINUOUS
 10
604.3864901899
 20
-25994.3523227288
 40
26214.6847125886
 50
90.695620801
 51
91.638276794
  0
ARC
  8
0
 62
7
  6
CONTINUOUS
 10
501.6226824425
 20
-233.7543158173
 40
8.0
 50
270.0
 51
360.0
  0
ARC
  8
0
 62
7
  6
CONTINUOUS
 10
501.6226824425
 20
168.7456841828
 40
8.0
 50
0.0
 51
90.0
  0
ARC
  8
0
 62
7
  6
CONTINUOUS
 10
506.6226824425
 20
495.7456841828
 40
3.0
 50
270.0
 51
360.0
  0
ARC
  8
0
 62
7
  6
CONTINUOUS
 10
506.6226824425
 20
489.7456841828
 40
3.0
 50
0.0
 51
90.0
  0
ARC
  8
0
 62
7
  6
CONTINUOUS
 10
506.6226824425
 20
179.7456841828
 40
3.0
 50
270.0
 51
360.0
  0
ARC
  8
0
 62
7
  6
CONTINUOUS
 10
450.2978568839
 20
538.477270969
 40
1.0
 50
20.0
 51
74.7276206907
  0
ENDSEC
  0
EOF
