999
DXF file: K:\Client\125_Heirloom\001\00\Final_Data\Drawings\TOILETS\forme-373125_4.dxf
999
Pro/ENGINEER 2017110 by Parametric Technology Corporation
  0
SECTION
  2
HEADER
  9
$EXTMAX
 10
420.0
 20
297.0
 30
0.0
  9
$EXTMIN
 10
0.0
 20
0.0
 30
0.0
  9
$LIMMIN
 10
0.0
 20
0.0
  9
$LIMMAX
 10
420.0
 20
297.0
  9
$VIEWCTR
 10
210.0
 20
148.5
  9
$VIEWSIZE
 40
297.0
  9
$CLAYER
  8
0
  9
$LTSCALE
 40
23.1
  9
$CELTYPE
  6
BYLAYER
  9
$DIMSCALE
 40
1.0
  9
$DIMASZ
 40
3.0
  9
$DIMEXO
 40
1.0
  9
$DIMDLI
 40
15.96
  9
$DIMEXE
 40
1.0
  9
$DIMCEN
 40
3.78
  9
$DIMLFAC
 40
1.0
  9
$DIMBLK
  1
_FILLED
  9
$DIMALT
 70
0
  9
$DIMALTF
 40
0.0393700787
  9
$DIMTXT
 40
3.0
  9
$AUNITS
 70
0
  9
$PDMODE
 70
3
  9
$PDSIZE
 40
5.0
  9
$TILEMODE
 70
1
  0
ENDSEC
  0
SECTION
  2
TABLES
  0
TABLE
  2
LTYPE
 70
6
  0
LTYPE
  2
BYBLOCK
 70
0
  3

 72
65
 73
0
 40
0.0
  0
LTYPE
  2
BYLAYER
 70
0
  3

 72
65
 73
0
 40
0.0
  0
LTYPE
  2
CONTINUOUS
 70
64
  3
Solid line
 72
65
 73
0
 40
0.0
  0
LTYPE
  2
CENTER
 70
64
  3
____ _ ____ _ ____ _ ____ _ ____ _ ____ _ ____
 72
65
 73
4
 40
0.6
 49
0.375
 49
-0.075
 49
0.075
 49
-0.075
  0
LTYPE
  2
HIDDEN
 70
64
  3
- - - - - - - - - - - - - - - - - - - -
 72
65
 73
2
 40
0.2
 49
0.1
 49
-0.1
  0
LTYPE
  2
PHANTOM
 70
64
  3
_____ _ _ _____ _ _ _____ _ _ _____
 72
65
 73
6
 40
0.8
 49
0.45
 49
-0.05
 49
0.1
 49
-0.05
 49
0.1
 49
-0.05
  0
LTYPE
  2
DOT
 70
64
  3
. . . . . . . . . . . . . . . . . . . .
 72
65
 73
2
 40
0.2
 49
0.1
 49
-0.1
  0
LTYPE
  2
DASHED
 70
64
  3
- - - - - - - - - - - - - - - - - - - -
 72
65
 73
2
 40
0.2
 49
0.1
 49
-0.1
  0
ENDTAB
  0
TABLE
  2
LAYER
 70
36
  0
LAYER
  2
0
 70
0
 62
7
  6
CONTINUOUS
  0
LAYER
  2
DEFAULT_1
 70
0
 62
7
  6
CENTER
  0
LAYER
  2
DEFAULT_2
 70
0
 62
8
  6
HIDDEN
  0
LAYER
  2
DEFAULT_3
 70
0
 62
7
  6
PHANTOM
  0
LAYER
  2
0000_BOM
 70
0
 62
7
  6
CONTINUOUS
  0
LAYER
  2
0000_REV_TABLE
 70
0
 62
7
  6
CONTINUOUS
  0
LAYER
  2
0000_STEVENS_NOTE
 70
0
 62
7
  6
CONTINUOUS
  0
LAYER
  2
01_DATUM_PLANES
 70
0
 62
7
  6
CONTINUOUS
  0
LAYER
  2
01_DEF_PLANES
 70
0
 62
7
  6
CONTINUOUS
  0
LAYER
  2
02_DATUM_COS
 70
0
 62
7
  6
CONTINUOUS
  0
LAYER
  2
90_IMP_FEAT
 70
0
 62
7
  6
CONTINUOUS
  0
LAYER
  2
95_STL
 70
0
 62
7
  6
CONTINUOUS
  0
LAYER
  2
99_SOLID
 70
0
 62
7
  6
CONTINUOUS
  0
LAYER
  2
CAD-MASTER_ZINC-PL
 70
0
 62
7
  6
CONTINUOUS
  0
LAYER
  2
CURVE
 70
0
 62
7
  6
CONTINUOUS
  0
LAYER
  2
SHELL
 70
0
 62
7
  6
CONTINUOUS
  0
LAYER
  2
SKEL
 70
0
 62
7
  6
CONTINUOUS
  0
LAYER
  2
SKETCH
 70
0
 62
7
  6
CONTINUOUS
  0
LAYER
  2
SURFACE
 70
0
 62
7
  6
CONTINUOUS
  0
ENDTAB
  0
TABLE
  2
STYLE
 70
1
  0
STYLE
  2
STANDARD
 70
0
 40
0.0
 41
0.75
 50
0.0
 71
0
 42
0.2
  3
txt
  4

  0
STYLE
  2
TEXTSTYLE_1
 70
0
 40
0.0
 41
0.8
 50
0.0
 71
0
 42
0.2
  3
gdt
  4

  0
ENDTAB
  0
ENDSEC
  0
SECTION
  2
BLOCKS
  0
BLOCK
  8
0
 62
5
  6
CONTINUOUS
  2
PLUMBING_BL1
 70
64
 10
182.8150684932
 20
-236.8544054598
  0
CIRCLE
  8
0
 62
5
  6
CONTINUOUS
 10
182.8150684932
 20
-236.8544054598
 40
12.5
  0
LINE
  8
0
 62
5
  6
CONTINUOUS
 10
195.3150684932
 20
-224.3544054598
 11
170.3150684932
 21
-249.3544054598
  0
LINE
  8
0
 62
5
  6
CONTINUOUS
 10
182.8150684932
 20
-236.8544054598
 11
170.3150684932
 21
-224.3544054598
  0
LINE
  8
0
 62
5
  6
CONTINUOUS
 10
182.8150684932
 20
-236.8544054598
 11
195.3150684932
 21
-249.3544054598
  0
ENDBLK
  8
0
  6
BYBLOCK
 62
0
  0
BLOCK
  8
0
 62
1
  6
CONTINUOUS
  2
PLUMBING_BL0
 70
64
 10
182.8150684932
 20
-56.8544054598
  0
CIRCLE
  8
0
 62
1
  6
CONTINUOUS
 10
182.8150684932
 20
-56.8544054598
 40
12.5
  0
LINE
  8
0
 62
1
  6
CONTINUOUS
 10
195.3150684932
 20
-44.3544054598
 11
170.3150684932
 21
-69.3544054598
  0
LINE
  8
0
 62
1
  6
CONTINUOUS
 10
182.8150684932
 20
-56.8544054598
 11
170.3150684932
 21
-44.3544054598
  0
LINE
  8
0
 62
1
  6
CONTINUOUS
 10
182.8150684932
 20
-56.8544054598
 11
195.3150684932
 21
-69.3544054598
  0
ENDBLK
  8
0
  6
BYBLOCK
 62
0
  0
ENDSEC
  0
SECTION
  2
ENTITIES
  0
INSERT
  8
0
 62
1
  6
CONTINUOUS
  2
PLUMBING_BL0
 10
182.8150684932
 20
-56.8544054598
  0
INSERT
  8
0
 62
5
  6
CONTINUOUS
  2
PLUMBING_BL1
 10
182.8150684932
 20
-236.8544054598
  0
LINE
  8
0
 62
7
  6
CONTINUOUS
 10
155.0607917128
 20
543.7192014698
 11
154.7547674944
 21
542.8784068399
  0
LINE
  8
0
 62
7
  6
CONTINUOUS
 10
210.5693452735
 20
543.7192014698
 11
210.8753694919
 21
542.8784068399
  0
POLYLINE
  8
0
 62
7
  6
CONTINUOUS
 66
1
 70
0
  0
VERTEX
  8
0
 62
7
  6
CONTINUOUS
 10
207.6394987273
 20
542.9164908228
  0
VERTEX
  8
0
 62
7
  6
CONTINUOUS
 10
199.2286162936
 20
542.9942703241
  0
VERTEX
  8
0
 62
7
  6
CONTINUOUS
 10
190.8173806064
 20
543.0403205404
  0
VERTEX
  8
0
 62
7
  6
CONTINUOUS
 10
182.4059711988
 20
543.054641917
  0
VERTEX
  8
0
 62
7
  6
CONTINUOUS
 10
173.9945676041
 20
543.0372348994
  0
VERTEX
  8
0
 62
7
  6
CONTINUOUS
 10
165.5833493555
 20
542.9880999332
  0
VERTEX
  8
0
 62
7
  6
CONTINUOUS
 10
157.1724959862
 20
542.9072374637
  0
SEQEND
  0
LINE
  8
0
 62
7
  6
CONTINUOUS
 10
175.9116685092
 20
549.3601976228
 11
176.2965818419
 21
549.4780369293
  0
LINE
  8
0
 62
7
  6
CONTINUOUS
 10
32.7325549808
 20
-236.8544054598
 11
332.8975820055
 21
-236.8544054598
  0
POLYLINE
  8
0
 62
7
  6
CONTINUOUS
 66
1
 70
0
  0
VERTEX
  8
0
 62
7
  6
CONTINUOUS
 10
-5.5086257407
 20
535.4437673087
  0
VERTEX
  8
0
 62
7
  6
CONTINUOUS
 10
-5.9221033605
 20
534.5633758868
  0
VERTEX
  8
0
 62
7
  6
CONTINUOUS
 10
-6.2152066285
 20
533.6794949127
  0
VERTEX
  8
0
 62
7
  6
CONTINUOUS
 10
-6.4043879488
 20
532.7632788981
  0
VERTEX
  8
0
 62
7
  6
CONTINUOUS
 10
-6.4432478269
 20
532.4561715549
  0
SEQEND
  0
LINE
  8
0
 62
7
  6
CONTINUOUS
 10
-5.5086354503
 20
535.4437495269
 11
-5.5091432056
 21
535.4428194901
  0
POLYLINE
  8
0
 62
7
  6
CONTINUOUS
 66
1
 70
0
  0
VERTEX
  8
0
 62
7
  6
CONTINUOUS
 10
182.0407465505
 20
550.9323528113
  0
VERTEX
  8
0
 62
7
  6
CONTINUOUS
 10
182.0569543012
 20
550.9482036347
  0
VERTEX
  8
0
 62
7
  6
CONTINUOUS
 10
182.0703664951
 20
550.9697890608
  0
VERTEX
  8
0
 62
7
  6
CONTINUOUS
 10
182.0747747789
 20
550.9908085902
  0
SEQEND
  0
LINE
  8
0
 62
7
  6
CONTINUOUS
 10
164.3063674833
 20
549.3601974597
 11
161.6730516273
 21
545.9626896067
  0
POLYLINE
  8
0
 62
7
  6
CONTINUOUS
 66
1
 70
0
  0
VERTEX
  8
0
 62
7
  6
CONTINUOUS
 10
-9.8113433675
 20
500.9645690747
  0
VERTEX
  8
0
 62
7
  6
CONTINUOUS
 10
-9.8262706013
 20
500.5339234609
  0
VERTEX
  8
0
 62
7
  6
CONTINUOUS
 10
-9.7740183261
 20
500.0772276702
  0
VERTEX
  8
0
 62
7
  6
CONTINUOUS
 10
-9.6529516438
 20
499.6348362499
  0
VERTEX
  8
0
 62
7
  6
CONTINUOUS
 10
-9.4653143774
 20
499.2150600843
  0
VERTEX
  8
0
 62
7
  6
CONTINUOUS
 10
-9.2158289387
 20
498.8290163356
  0
VERTEX
  8
0
 62
7
  6
CONTINUOUS
 10
-8.9102821651
 20
498.4856011741
  0
VERTEX
  8
0
 62
7
  6
CONTINUOUS
 10
-8.5557973343
 20
498.1928536081
  0
VERTEX
  8
0
 62
7
  6
CONTINUOUS
 10
-8.1610738136
 20
497.9578709991
  0
VERTEX
  8
0
 62
7
  6
CONTINUOUS
 10
-7.7345636245
 20
497.7857370956
  0
VERTEX
  8
0
 62
7
  6
CONTINUOUS
 10
-7.2835992945
 20
497.6803370244
  0
VERTEX
  8
0
 62
7
  6
CONTINUOUS
 10
-6.828354525
 20
497.6455945402
  0
SEQEND
  0
LINE
  8
0
 62
7
  6
CONTINUOUS
 10
-9.8113622832
 20
500.9646322151
 11
-9.8113682678
 21
500.9645737746
  0
LINE
  8
0
 62
7
  6
CONTINUOUS
 10
-9.811356196
 20
500.9646891303
 11
-6.4432526447
 21
532.4562926745
  0
POLYLINE
  8
0
 62
7
  6
CONTINUOUS
 66
1
 70
0
  0
VERTEX
  8
0
 62
7
  6
CONTINUOUS
 10
173.9097644345
 20
545.9626889856
  0
VERTEX
  8
0
 62
7
  6
CONTINUOUS
 10
174.2678035629
 20
546.5752693518
  0
VERTEX
  8
0
 62
7
  6
CONTINUOUS
 10
174.6161112576
 20
547.1693363898
  0
VERTEX
  8
0
 62
7
  6
CONTINUOUS
 10
174.9547099681
 20
547.744907202
  0
VERTEX
  8
0
 62
7
  6
CONTINUOUS
 10
175.2835323461
 20
548.3019304812
  0
VERTEX
  8
0
 62
7
  6
CONTINUOUS
 10
175.6025110434
 20
548.8403549208
  0
VERTEX
  8
0
 62
7
  6
CONTINUOUS
 10
175.9116685092
 20
549.3601976228
  0
SEQEND
  0
LINE
  8
0
 62
7
  6
CONTINUOUS
 10
174.7351156761
 20
546.8615254254
 11
174.1525003335
 21
545.8745081348
  0
LINE
  8
0
 62
7
  6
CONTINUOUS
 10
175.2926340992
 20
547.8010515797
 11
174.7351156761
 21
546.8615254254
  0
LINE
  8
0
 62
7
  6
CONTINUOUS
 10
175.8250556029
 20
548.693086598
 11
175.2926340992
 21
547.8010515797
  0
LINE
  8
0
 62
7
  6
CONTINUOUS
 10
176.3323801871
 20
549.5376304801
 11
175.8250556029
 21
548.693086598
  0
POLYLINE
  8
0
 62
7
  6
CONTINUOUS
 66
1
 70
0
  0
VERTEX
  8
0
 62
7
  6
CONTINUOUS
 10
1.9330129679
 20
184.555400352
  0
VERTEX
  8
0
 62
7
  6
CONTINUOUS
 10
1.9750394078
 20
184.1372508844
  0
VERTEX
  8
0
 62
7
  6
CONTINUOUS
 10
2.1091184981
 20
183.6290915684
  0
VERTEX
  8
0
 62
7
  6
CONTINUOUS
 10
2.3287829057
 20
183.1539342546
  0
VERTEX
  8
0
 62
7
  6
CONTINUOUS
 10
2.627822372
 20
182.7240450326
  0
VERTEX
  8
0
 62
7
  6
CONTINUOUS
 10
2.9968641454
 20
182.3528700951
  0
VERTEX
  8
0
 62
7
  6
CONTINUOUS
 10
3.4252476879
 20
182.0512273859
  0
VERTEX
  8
0
 62
7
  6
CONTINUOUS
 10
3.9006158435
 20
181.8283328582
  0
VERTEX
  8
0
 62
7
  6
CONTINUOUS
 10
4.4124139942
 20
181.6908707428
  0
VERTEX
  8
0
 62
7
  6
CONTINUOUS
 10
4.9316498465
 20
181.6455945402
  0
SEQEND
  0
LINE
  8
0
 62
7
  6
CONTINUOUS
 10
1.9329901484
 20
184.5553851589
 11
-7.3921139123
 21
494.5553850784
  0
POLYLINE
  8
0
 62
7
  6
CONTINUOUS
 66
1
 70
0
  0
VERTEX
  8
0
 62
7
  6
CONTINUOUS
 10
0.2198289933
 20
166.3115783165
  0
VERTEX
  8
0
 62
7
  6
CONTINUOUS
 10
1.5210158522
 20
110.7462362447
  0
VERTEX
  8
0
 62
7
  6
CONTINUOUS
 10
3.7620458611
 20
58.1519768834
  0
VERTEX
  8
0
 62
7
  6
CONTINUOUS
 10
7.7150431803
 20
11.0548719432
  0
VERTEX
  8
0
 62
7
  6
CONTINUOUS
 10
12.6776355396
 20
-32.9703292359
  0
VERTEX
  8
0
 62
7
  6
CONTINUOUS
 10
16.50845271
 20
-75.0809921987
  0
VERTEX
  8
0
 62
7
  6
CONTINUOUS
 10
18.8551141675
 20
-119.8652715389
  0
VERTEX
  8
0
 62
7
  6
CONTINUOUS
 10
21.2764753545
 20
-172.4076060823
  0
VERTEX
  8
0
 62
7
  6
CONTINUOUS
 10
24.7442773759
 20
-229.2873070052
  0
SEQEND
  0
POLYLINE
  8
0
 62
7
  6
CONTINUOUS
 66
1
 70
0
  0
VERTEX
  8
0
 62
7
  6
CONTINUOUS
 10
0.0130888909
 20
184.8272497107
  0
VERTEX
  8
0
 62
7
  6
CONTINUOUS
 10
0.0139154518
 20
184.430608413
  0
VERTEX
  8
0
 62
7
  6
CONTINUOUS
 10
0.1238172153
 20
183.3069638668
  0
VERTEX
  8
0
 62
7
  6
CONTINUOUS
 10
0.388462465
 20
182.2173199346
  0
VERTEX
  8
0
 62
7
  6
CONTINUOUS
 10
0.8022057519
 20
181.1767473609
  0
VERTEX
  8
0
 62
7
  6
CONTINUOUS
 10
1.3581369686
 20
180.2027288576
  0
VERTEX
  8
0
 62
7
  6
CONTINUOUS
 10
2.0446603561
 20
179.3161980281
  0
VERTEX
  8
0
 62
7
  6
CONTINUOUS
 10
2.8484024077
 20
178.5343505728
  0
VERTEX
  8
0
 62
7
  6
CONTINUOUS
 10
3.7536888653
 20
177.8724810923
  0
VERTEX
  8
0
 62
7
  6
CONTINUOUS
 10
4.7402389025
 20
177.344914228
  0
SEQEND
  0
LINE
  8
0
 62
7
  6
CONTINUOUS
 10
0.6190312277
 20
211.5051575842
 11
0.0130925396
 21
184.8272551596
  0
POLYLINE
  8
0
 62
7
  6
CONTINUOUS
 66
1
 70
0
  0
VERTEX
  8
0
 62
7
  6
CONTINUOUS
 10
1.0498366063
 20
213.9145854635
  0
VERTEX
  8
0
 62
7
  6
CONTINUOUS
 10
1.0064891678
 20
213.7893877937
  0
VERTEX
  8
0
 62
7
  6
CONTINUOUS
 10
0.9131164408
 20
213.480030071
  0
VERTEX
  8
0
 62
7
  6
CONTINUOUS
 10
0.8315125347
 20
213.1637725469
  0
VERTEX
  8
0
 62
7
  6
CONTINUOUS
 10
0.762197625
 20
212.8408925625
  0
VERTEX
  8
0
 62
7
  6
CONTINUOUS
 10
0.7057209679
 20
212.5117992808
  0
VERTEX
  8
0
 62
7
  6
CONTINUOUS
 10
0.6626207938
 20
212.1768705529
  0
VERTEX
  8
0
 62
7
  6
CONTINUOUS
 10
0.6334488227
 20
211.8366349394
  0
VERTEX
  8
0
 62
7
  6
CONTINUOUS
 10
0.6190364001
 20
211.5051307701
  0
SEQEND
  0
POLYLINE
  8
0
 62
7
  6
CONTINUOUS
 66
1
 70
0
  0
VERTEX
  8
0
 62
7
  6
CONTINUOUS
 10
182.5747747789
 20
551.1956384975
  0
VERTEX
  8
0
 62
7
  6
CONTINUOUS
 10
182.5701732376
 20
551.1725302854
  0
VERTEX
  8
0
 62
7
  6
CONTINUOUS
 10
182.5557084344
 20
551.148199531
  0
VERTEX
  8
0
 62
7
  6
CONTINUOUS
 10
182.5301991316
 20
551.1224583296
  0
VERTEX
  8
0
 62
7
  6
CONTINUOUS
 10
182.4932256938
 20
551.0958703956
  0
VERTEX
  8
0
 62
7
  6
CONTINUOUS
 10
182.4450653574
 20
551.0688983087
  0
VERTEX
  8
0
 62
7
  6
CONTINUOUS
 10
182.3857462681
 20
551.0416575681
  0
VERTEX
  8
0
 62
7
  6
CONTINUOUS
 10
182.3158079463
 20
551.0144066374
  0
VERTEX
  8
0
 62
7
  6
CONTINUOUS
 10
182.235364703
 20
550.9871792023
  0
VERTEX
  8
0
 62
7
  6
CONTINUOUS
 10
182.1446817046
 20
550.9600650851
  0
SEQEND
  0
LINE
  8
0
 62
7
  6
CONTINUOUS
 10
182.0747747789
 20
550.9413743337
 11
182.0747747789
 21
551.6123222334
  0
LINE
  8
0
 62
7
  6
CONTINUOUS
 10
182.5747747789
 20
551.8155043971
 11
182.5747747789
 21
551.195638417
  0
POLYLINE
  8
0
 62
7
  6
CONTINUOUS
 66
1
 70
0
  0
VERTEX
  8
0
 62
7
  6
CONTINUOUS
 10
360.6984871398
 20
181.6455945402
  0
VERTEX
  8
0
 62
7
  6
CONTINUOUS
 10
361.2177229591
 20
181.690870737
  0
VERTEX
  8
0
 62
7
  6
CONTINUOUS
 10
361.729521079
 20
181.8283328349
  0
VERTEX
  8
0
 62
7
  6
CONTINUOUS
 10
362.2048892109
 20
182.0512273351
  0
VERTEX
  8
0
 62
7
  6
CONTINUOUS
 10
362.6332727392
 20
182.3528700093
  0
VERTEX
  8
0
 62
7
  6
CONTINUOUS
 10
363.00231451
 20
182.7240449075
  0
VERTEX
  8
0
 62
7
  6
CONTINUOUS
 10
363.3013539854
 20
183.1539340886
  0
VERTEX
  8
0
 62
7
  6
CONTINUOUS
 10
363.5210184141
 20
183.6290913626
  0
VERTEX
  8
0
 62
7
  6
CONTINUOUS
 10
363.6550975369
 20
184.1372506424
  0
VERTEX
  8
0
 62
7
  6
CONTINUOUS
 10
363.6971240184
 20
184.555400352
  0
SEQEND
  0
POLYLINE
  8
0
 62
7
  6
CONTINUOUS
 66
1
 70
0
  0
VERTEX
  8
0
 62
7
  6
CONTINUOUS
 10
15.2329998476
 20
181.6455945398
  0
VERTEX
  8
0
 62
7
  6
CONTINUOUS
 10
14.8669962347
 20
181.6412334684
  0
VERTEX
  8
0
 62
7
  6
CONTINUOUS
 10
12.8894309728
 20
181.4623416122
  0
VERTEX
  8
0
 62
7
  6
CONTINUOUS
 10
10.9507910338
 20
181.0217067865
  0
VERTEX
  8
0
 62
7
  6
CONTINUOUS
 10
9.0966118112
 20
180.3364471166
  0
VERTEX
  8
0
 62
7
  6
CONTINUOUS
 10
7.3832318398
 20
179.4337383589
  0
VERTEX
  8
0
 62
7
  6
CONTINUOUS
 10
5.8099523331
 20
178.3237679255
  0
VERTEX
  8
0
 62
7
  6
CONTINUOUS
 10
4.3988797443
 20
177.0325495661
  0
VERTEX
  8
0
 62
7
  6
CONTINUOUS
 10
3.1756803963
 20
175.587620522
  0
VERTEX
  8
0
 62
7
  6
CONTINUOUS
 10
2.1466221447
 20
174.0022690177
  0
VERTEX
  8
0
 62
7
  6
CONTINUOUS
 10
1.3227785868
 20
172.297114578
  0
VERTEX
  8
0
 62
7
  6
CONTINUOUS
 10
0.7196259142
 20
170.4971462559
  0
VERTEX
  8
0
 62
7
  6
CONTINUOUS
 10
0.3482803855
 20
168.6300638506
  0
VERTEX
  8
0
 62
7
  6
CONTINUOUS
 10
0.2163065036
 20
166.7204378361
  0
VERTEX
  8
0
 62
7
  6
CONTINUOUS
 10
0.219828835
 20
166.311578313
  0
SEQEND
  0
LINE
  8
0
 62
7
  6
CONTINUOUS
 10
4.9326770391
 20
181.6455945402
 11
360.6974667035
 21
181.6455945402
  0
POLYLINE
  8
0
 62
7
  6
CONTINUOUS
 66
1
 70
0
  0
VERTEX
  8
0
 62
7
  6
CONTINUOUS
 10
360.8898963156
 20
177.3449159142
  0
VERTEX
  8
0
 62
7
  6
CONTINUOUS
 10
361.8764422783
 20
177.8724810597
  0
VERTEX
  8
0
 62
7
  6
CONTINUOUS
 10
362.7817281479
 20
178.5343507406
  0
VERTEX
  8
0
 62
7
  6
CONTINUOUS
 10
363.5854697089
 20
179.316198535
  0
VERTEX
  8
0
 62
7
  6
CONTINUOUS
 10
364.2719926556
 20
180.2027298295
  0
VERTEX
  8
0
 62
7
  6
CONTINUOUS
 10
364.8279234664
 20
181.1767489394
  0
VERTEX
  8
0
 62
7
  6
CONTINUOUS
 10
365.241666339
 20
182.2173222278
  0
VERTEX
  8
0
 62
7
  6
CONTINUOUS
 10
365.5063111461
 20
183.3069670224
  0
VERTEX
  8
0
 62
7
  6
CONTINUOUS
 10
365.6162123819
 20
184.4306126005
  0
VERTEX
  8
0
 62
7
  6
CONTINUOUS
 10
365.6170388358
 20
184.827249379
  0
SEQEND
  0
POLYLINE
  8
0
 62
7
  6
CONTINUOUS
 66
1
 70
0
  0
VERTEX
  8
0
 62
7
  6
CONTINUOUS
 10
373.0222280792
 20
494.5554002736
  0
VERTEX
  8
0
 62
7
  6
CONTINUOUS
 10
373.0053285787
 20
494.976051032
  0
VERTEX
  8
0
 62
7
  6
CONTINUOUS
 10
372.8954593472
 20
495.512967754
  0
VERTEX
  8
0
 62
7
  6
CONTINUOUS
 10
372.6909285261
 20
496.018649587
  0
VERTEX
  8
0
 62
7
  6
CONTINUOUS
 10
372.3979299356
 20
496.4793041813
  0
VERTEX
  8
0
 62
7
  6
CONTINUOUS
 10
372.0265234983
 20
496.8790324749
  0
VERTEX
  8
0
 62
7
  6
CONTINUOUS
 10
371.5884360922
 20
497.2051355357
  0
VERTEX
  8
0
 62
7
  6
CONTINUOUS
 10
371.0972276135
 20
497.4468978158
  0
VERTEX
  8
0
 62
7
  6
CONTINUOUS
 10
370.5646206049
 20
497.5964056116
  0
VERTEX
  8
0
 62
7
  6
CONTINUOUS
 10
370.023591203
 20
497.6455945402
  0
SEQEND
  0
POLYLINE
  8
0
 62
7
  6
CONTINUOUS
 66
1
 70
0
  0
VERTEX
  8
0
 62
7
  6
CONTINUOUS
 10
365.0111093871
 20
211.505147763
  0
VERTEX
  8
0
 62
7
  6
CONTINUOUS
 10
365.006055008
 20
211.6608670217
  0
VERTEX
  8
0
 62
7
  6
CONTINUOUS
 10
364.9766560238
 20
212.0869910421
  0
VERTEX
  8
0
 62
7
  6
CONTINUOUS
 10
364.9254189808
 20
212.5051763313
  0
VERTEX
  8
0
 62
7
  6
CONTINUOUS
 10
364.8533617719
 20
212.9145574937
  0
VERTEX
  8
0
 62
7
  6
CONTINUOUS
 10
364.7615386254
 20
213.3142023658
  0
VERTEX
  8
0
 62
7
  6
CONTINUOUS
 10
364.650953775
 20
213.7035053989
  0
VERTEX
  8
0
 62
7
  6
CONTINUOUS
 10
364.5802232146
 20
213.912020208
  0
SEQEND
  0
LINE
  8
0
 62
7
  6
CONTINUOUS
 10
365.0111057435
 20
211.5051582511
 11
365.6170444467
 21
184.8272551596
  0
POLYLINE
  8
0
 62
7
  6
CONTINUOUS
 66
1
 70
0
  0
VERTEX
  8
0
 62
7
  6
CONTINUOUS
 10
365.4103081513
 20
166.311578313
  0
VERTEX
  8
0
 62
7
  6
CONTINUOUS
 10
365.4138304435
 20
166.7204455881
  0
VERTEX
  8
0
 62
7
  6
CONTINUOUS
 10
365.2818557349
 20
168.6300703291
  0
VERTEX
  8
0
 62
7
  6
CONTINUOUS
 10
364.9105096868
 20
170.4971514672
  0
VERTEX
  8
0
 62
7
  6
CONTINUOUS
 10
364.3073567803
 20
172.2971185512
  0
VERTEX
  8
0
 62
7
  6
CONTINUOUS
 10
363.4835132696
 20
174.0022718089
  0
VERTEX
  8
0
 62
7
  6
CONTINUOUS
 10
362.4544553375
 20
175.5876222082
  0
VERTEX
  8
0
 62
7
  6
CONTINUOUS
 10
361.2312565662
 20
177.0325502684
  0
VERTEX
  8
0
 62
7
  6
CONTINUOUS
 10
359.8201848245
 20
178.3237677875
  0
VERTEX
  8
0
 62
7
  6
CONTINUOUS
 10
358.2469064169
 20
179.4337375797
  0
VERTEX
  8
0
 62
7
  6
CONTINUOUS
 10
356.5335278093
 20
180.3364459414
  0
VERTEX
  8
0
 62
7
  6
CONTINUOUS
 10
354.6793502586
 20
181.021705506
  0
VERTEX
  8
0
 62
7
  6
CONTINUOUS
 10
352.740712081
 20
181.4623406509
  0
VERTEX
  8
0
 62
7
  6
CONTINUOUS
 10
350.7631486783
 20
181.6412332791
  0
VERTEX
  8
0
 62
7
  6
CONTINUOUS
 10
350.3992743839
 20
181.6455943919
  0
SEQEND
  0
LINE
  8
0
 62
7
  6
CONTINUOUS
 10
363.697146838
 20
184.5553851589
 11
373.0222508986
 21
494.5553850784
  0
POLYLINE
  8
0
 62
7
  6
CONTINUOUS
 66
1
 70
0
  0
VERTEX
  8
0
 62
7
  6
CONTINUOUS
 10
340.8858596104
 20
-229.2873070051
  0
VERTEX
  8
0
 62
7
  6
CONTINUOUS
 10
344.3536616305
 20
-172.4076061051
  0
VERTEX
  8
0
 62
7
  6
CONTINUOUS
 10
346.7750228174
 20
-119.8652715724
  0
VERTEX
  8
0
 62
7
  6
CONTINUOUS
 10
349.1216842743
 20
-75.0809922281
  0
VERTEX
  8
0
 62
7
  6
CONTINUOUS
 10
352.9525014445
 20
-32.9703292557
  0
VERTEX
  8
0
 62
7
  6
CONTINUOUS
 10
357.9150938046
 20
11.0548719299
  0
VERTEX
  8
0
 62
7
  6
CONTINUOUS
 10
361.8680911247
 20
58.1519768761
  0
VERTEX
  8
0
 62
7
  6
CONTINUOUS
 10
364.109121134
 20
110.7462362419
  0
VERTEX
  8
0
 62
7
  6
CONTINUOUS
 10
365.410307993
 20
166.3115783165
  0
SEQEND
  0
LINE
  8
0
 62
7
  6
CONTINUOUS
 10
375.4414931823
 20
500.9646891303
 11
372.0734507478
 21
532.455721235
  0
POLYLINE
  8
0
 62
7
  6
CONTINUOUS
 66
1
 70
0
  0
VERTEX
  8
0
 62
7
  6
CONTINUOUS
 10
372.0734537855
 20
532.456161001
  0
VERTEX
  8
0
 62
7
  6
CONTINUOUS
 10
372.0326364305
 20
532.7765027571
  0
VERTEX
  8
0
 62
7
  6
CONTINUOUS
 10
371.8386617678
 20
533.7043499759
  0
VERTEX
  8
0
 62
7
  6
CONTINUOUS
 10
371.5381608854
 20
534.5985726061
  0
VERTEX
  8
0
 62
7
  6
CONTINUOUS
 10
371.1380484234
 20
535.4450751676
  0
SEQEND
  0
LINE
  8
0
 62
7
  6
CONTINUOUS
 10
372.0733023482
 20
532.4570963798
 11
372.0733283698
 21
532.456865462
  0
LINE
  8
0
 62
7
  6
CONTINUOUS
 10
201.4393014691
 20
549.5376112108
 11
204.2780538601
 21
545.8750488489
  0
POLYLINE
  8
0
 62
7
  6
CONTINUOUS
 66
1
 70
0
  0
VERTEX
  8
0
 62
7
  6
CONTINUOUS
 10
372.4584915113
 20
497.6455945402
  0
VERTEX
  8
0
 62
7
  6
CONTINUOUS
 10
372.9137362784
 20
497.680337024
  0
VERTEX
  8
0
 62
7
  6
CONTINUOUS
 10
373.3647006069
 20
497.7857370944
  0
VERTEX
  8
0
 62
7
  6
CONTINUOUS
 10
373.7912107956
 20
497.9578709969
  0
VERTEX
  8
0
 62
7
  6
CONTINUOUS
 10
374.1859343166
 20
498.1928536053
  0
VERTEX
  8
0
 62
7
  6
CONTINUOUS
 10
374.5404191481
 20
498.485601171
  0
VERTEX
  8
0
 62
7
  6
CONTINUOUS
 10
374.8459659226
 20
498.8290163326
  0
VERTEX
  8
0
 62
7
  6
CONTINUOUS
 10
375.0954513623
 20
499.2150600817
  0
VERTEX
  8
0
 62
7
  6
CONTINUOUS
 10
375.2830886294
 20
499.634836248
  0
VERTEX
  8
0
 62
7
  6
CONTINUOUS
 10
375.4041553122
 20
500.0772276692
  0
VERTEX
  8
0
 62
7
  6
CONTINUOUS
 10
375.4564075876
 20
500.5339234605
  0
VERTEX
  8
0
 62
7
  6
CONTINUOUS
 10
375.4414803538
 20
500.9645690747
  0
SEQEND
  0
LINE
  8
0
 62
7
  6
CONTINUOUS
 10
372.4577512414
 20
497.6455945402
 11
-6.8276140511
 21
497.6455945402
  0
POLYLINE
  8
0
 62
7
  6
CONTINUOUS
 66
1
 70
0
  0
VERTEX
  8
0
 62
7
  6
CONTINUOUS
 10
371.1392984196
 20
535.4427860978
  0
VERTEX
  8
0
 62
7
  6
CONTINUOUS
 10
370.8754576016
 20
535.9039788746
  0
VERTEX
  8
0
 62
7
  6
CONTINUOUS
 10
370.5223361505
 20
536.4578566545
  0
VERTEX
  8
0
 62
7
  6
CONTINUOUS
 10
370.1087560954
 20
537.0270760813
  0
VERTEX
  8
0
 62
7
  6
CONTINUOUS
 10
369.5992910035
 20
537.6305712245
  0
VERTEX
  8
0
 62
7
  6
CONTINUOUS
 10
368.9602319875
 20
538.2647254769
  0
VERTEX
  8
0
 62
7
  6
CONTINUOUS
 10
368.1470506032
 20
538.915593775
  0
VERTEX
  8
0
 62
7
  6
CONTINUOUS
 10
367.1090164536
 20
539.5470763457
  0
VERTEX
  8
0
 62
7
  6
CONTINUOUS
 10
365.8435996069
 20
540.0755326675
  0
VERTEX
  8
0
 62
7
  6
CONTINUOUS
 10
364.3706095374
 20
540.4121966479
  0
VERTEX
  8
0
 62
7
  6
CONTINUOUS
 10
363.3820682014
 20
540.4866244082
  0
SEQEND
  0
LINE
  8
0
 62
7
  6
CONTINUOUS
 10
371.1392984196
 20
535.4427860978
 11
371.1380379349
 21
535.4450943675
  0
POLYLINE
  8
0
 62
7
  6
CONTINUOUS
 66
1
 70
0
  0
VERTEX
  8
0
 62
7
  6
CONTINUOUS
 10
178.2334935499
 20
550.0943870803
  0
VERTEX
  8
0
 62
7
  6
CONTINUOUS
 10
177.3029906334
 20
549.8327543351
  0
VERTEX
  8
0
 62
7
  6
CONTINUOUS
 10
176.3323801871
 20
549.5376304801
  0
SEQEND
  0
LINE
  8
0
 62
7
  6
CONTINUOUS
 10
161.6730516273
 20
545.9626896067
 11
155.7370763004
 21
544.3418658386
  0
LINE
  8
0
 62
7
  6
CONTINUOUS
 10
182.1446817046
 20
550.9600650851
 11
182.0440653935
 21
550.9331543405
  0
LINE
  8
0
 62
7
  6
CONTINUOUS
 10
179.1241881292
 20
550.3210705824
 11
178.2334935499
 21
550.0943870803
  0
LINE
  8
0
 62
7
  6
CONTINUOUS
 10
182.0440653935
 20
550.9331543405
 11
181.9338535211
 21
550.906537224
  0
LINE
  8
0
 62
7
  6
CONTINUOUS
 10
179.9741774609
 20
550.5171794354
 11
179.1241881292
 21
550.3210705824
  0
POLYLINE
  8
0
 62
7
  6
CONTINUOUS
 66
1
 70
0
  0
VERTEX
  8
0
 62
7
  6
CONTINUOUS
 10
-4.3934542167
 20
497.6455945402
  0
VERTEX
  8
0
 62
7
  6
CONTINUOUS
 10
-4.9344842092
 20
497.5964055033
  0
VERTEX
  8
0
 62
7
  6
CONTINUOUS
 10
-5.4670917768
 20
497.4468973752
  0
VERTEX
  8
0
 62
7
  6
CONTINUOUS
 10
-5.9583006784
 20
497.2051345743
  0
VERTEX
  8
0
 62
7
  6
CONTINUOUS
 10
-6.396388335
 20
496.87903084
  0
VERTEX
  8
0
 62
7
  6
CONTINUOUS
 10
-6.7677948104
 20
496.4793017715
  0
VERTEX
  8
0
 62
7
  6
CONTINUOUS
 10
-7.0607932068
 20
496.0186463486
  0
VERTEX
  8
0
 62
7
  6
CONTINUOUS
 10
-7.2653235839
 20
495.5129637046
  0
VERTEX
  8
0
 62
7
  6
CONTINUOUS
 10
-7.3751921252
 20
494.976046225
  0
VERTEX
  8
0
 62
7
  6
CONTINUOUS
 10
-7.3920910929
 20
494.5554002736
  0
SEQEND
  0
LINE
  8
0
 62
7
  6
CONTINUOUS
 10
204.2780538601
 20
545.8750488489
 11
209.8930606859
 21
544.3418658386
  0
LINE
  8
0
 62
7
  6
CONTINUOUS
 10
181.9338535211
 20
550.906537224
 11
181.8139747158
 21
550.8802115319
  0
POLYLINE
  8
0
 62
7
  6
CONTINUOUS
 66
1
 70
0
  0
VERTEX
  8
0
 62
7
  6
CONTINUOUS
 10
181.8139747158
 20
550.8802115319
  0
VERTEX
  8
0
 62
7
  6
CONTINUOUS
 10
181.6862221946
 20
550.8545857541
  0
VERTEX
  8
0
 62
7
  6
CONTINUOUS
 10
181.5496485131
 20
550.8293408796
  0
SEQEND
  0
POLYLINE
  8
0
 62
7
  6
CONTINUOUS
 66
1
 70
0
  0
VERTEX
  8
0
 62
7
  6
CONTINUOUS
 10
181.5496485131
 20
550.8293387621
  0
VERTEX
  8
0
 62
7
  6
CONTINUOUS
 10
180.7825646732
 20
550.6870882446
  0
VERTEX
  8
0
 62
7
  6
CONTINUOUS
 10
179.9741775881
 20
550.5171794647
  0
SEQEND
  0
POLYLINE
  8
0
 62
7
  6
CONTINUOUS
 66
1
 70
0
  0
VERTEX
  8
0
 62
7
  6
CONTINUOUS
 10
2.248016326
 20
540.4866236565
  0
VERTEX
  8
0
 62
7
  6
CONTINUOUS
 10
1.2121084183
 20
540.4056422402
  0
VERTEX
  8
0
 62
7
  6
CONTINUOUS
 10
-0.2542639806
 20
540.062138962
  0
VERTEX
  8
0
 62
7
  6
CONTINUOUS
 10
-1.5099850193
 20
539.5309544486
  0
VERTEX
  8
0
 62
7
  6
CONTINUOUS
 10
-2.5383717235
 20
538.9003443574
  0
VERTEX
  8
0
 62
7
  6
CONTINUOUS
 10
-3.3441645229
 20
538.2520340058
  0
VERTEX
  8
0
 62
7
  6
CONTINUOUS
 10
-3.9777517352
 20
537.6211696812
  0
VERTEX
  8
0
 62
7
  6
CONTINUOUS
 10
-4.4835964938
 20
537.0206799693
  0
VERTEX
  8
0
 62
7
  6
CONTINUOUS
 10
-4.8947834667
 20
536.4540443176
  0
VERTEX
  8
0
 62
7
  6
CONTINUOUS
 10
-5.2462852676
 20
535.9023702104
  0
VERTEX
  8
0
 62
7
  6
CONTINUOUS
 10
-5.5091432056
 20
535.4428194901
  0
SEQEND
  0
LINE
  8
0
 62
7
  6
CONTINUOUS
 10
147.8151098372
 20
542.7799342575
 11
2.2467925866
 21
540.4849785334
  0
LINE
  8
0
 62
7
  6
CONTINUOUS
 10
157.1681581464
 20
542.9075281678
 11
147.8151070466
 21
542.7800833294
  0
LINE
  8
0
 62
7
  6
CONTINUOUS
 10
174.1497677866
 20
545.8750488489
 11
204.2780538601
 21
545.8750488489
  0
LINE
  8
0
 62
7
  6
CONTINUOUS
 10
161.6730516273
 20
545.9626896067
 11
174.2045519834
 21
545.9626896067
  0
LINE
  8
0
 62
7
  6
CONTINUOUS
 10
164.3063674833
 20
549.3601974597
 11
175.9116707811
 21
549.3601974597
  0
LINE
  8
0
 62
7
  6
CONTINUOUS
 10
176.3324868307
 20
549.5376112108
 11
201.4393014691
 21
549.5376112108
  0
LINE
  8
0
 62
7
  6
CONTINUOUS
 10
217.8150299781
 20
542.7800833288
 11
207.6443117336
 21
542.9168009483
  0
LINE
  8
0
 62
7
  6
CONTINUOUS
 10
363.3833444051
 20
540.4849785333
 11
217.8150286934
 21
542.7799342331
  0
ARC
  8
0
 62
7
  6
CONTINUOUS
 10
182.8150684932
 20
-1682.5632728858
 40
2225.6185770146
 50
90.7223966553
 51
90.9010686267
  0
ARC
  8
0
 62
7
  6
CONTINUOUS
 10
182.8150684932
 20
-1682.5632728858
 40
2225.6185770146
 50
89.0989323351
 51
89.2776033447
  0
ARC
  8
0
 62
7
  6
CONTINUOUS
 10
182.8150684932
 20
474.5526387873
 40
77.2632392753
 50
76.0515336486
 51
90.1781938991
  0
ARC
  8
0
 62
7
  6
CONTINUOUS
 10
182.8150684932
 20
474.5526387873
 40
77.0632392753
 50
90.5504097442
 51
103.8968979651
  0
ARC
  8
0
 62
7
  6
CONTINUOUS
 10
332.8975820055
 20
-228.8544054598
 40
8.0
 50
270.0
 51
356.898055546
  0
ARC
  8
0
 62
7
  6
CONTINUOUS
 10
32.7325549808
 20
-228.8544054598
 40
8.0
 50
183.1019444548
 51
270.0
  0
ARC
  8
0
 62
7
  6
CONTINUOUS
 10
209.6296526527
 20
543.3771813265
 40
1.0
 50
20.0
 51
74.7276206907
  0
ARC
  8
0
 62
7
  6
CONTINUOUS
 10
156.0004843336
 20
543.3771813265
 40
1.0
 50
105.2723793093
 51
160.0
  0
ENDSEC
  0
EOF
