999
DXF file: K:\Client\125_Heirloom\001\00\Final_Data\Drawings\LADDER TOWEL WARMERS\wg1025n_2.dxf
999
Pro/ENGINEER 2017110 by Parametric Technology Corporation
  0
SECTION
  2
HEADER
  9
$EXTMAX
 10
420.0
 20
297.0
 30
0.0
  9
$EXTMIN
 10
0.0
 20
0.0
 30
0.0
  9
$LIMMIN
 10
0.0
 20
0.0
  9
$LIMMAX
 10
420.0
 20
297.0
  9
$VIEWCTR
 10
210.0
 20
148.5
  9
$VIEWSIZE
 40
297.0
  9
$CLAYER
  8
0
  9
$LTSCALE
 40
23.1
  9
$CELTYPE
  6
BYLAYER
  9
$DIMSCALE
 40
1.0
  9
$DIMASZ
 40
3.0
  9
$DIMEXO
 40
1.0
  9
$DIMDLI
 40
15.96
  9
$DIMEXE
 40
1.0
  9
$DIMCEN
 40
3.78
  9
$DIMLFAC
 40
1.0
  9
$DIMBLK
  1
_FILLED
  9
$DIMALT
 70
0
  9
$DIMALTF
 40
0.0393700787
  9
$DIMTXT
 40
3.0
  9
$AUNITS
 70
0
  9
$PDMODE
 70
3
  9
$PDSIZE
 40
5.0
  9
$TILEMODE
 70
1
  0
ENDSEC
  0
SECTION
  2
TABLES
  0
TABLE
  2
LTYPE
 70
6
  0
LTYPE
  2
BYBLOCK
 70
0
  3

 72
65
 73
0
 40
0.0
  0
LTYPE
  2
BYLAYER
 70
0
  3

 72
65
 73
0
 40
0.0
  0
LTYPE
  2
CONTINUOUS
 70
64
  3
Solid line
 72
65
 73
0
 40
0.0
  0
LTYPE
  2
CENTER
 70
64
  3
____ _ ____ _ ____ _ ____ _ ____ _ ____ _ ____
 72
65
 73
4
 40
0.6
 49
0.375
 49
-0.075
 49
0.075
 49
-0.075
  0
LTYPE
  2
HIDDEN
 70
64
  3
- - - - - - - - - - - - - - - - - - - -
 72
65
 73
2
 40
0.2
 49
0.1
 49
-0.1
  0
LTYPE
  2
PHANTOM
 70
64
  3
_____ _ _ _____ _ _ _____ _ _ _____
 72
65
 73
6
 40
0.8
 49
0.45
 49
-0.05
 49
0.1
 49
-0.05
 49
0.1
 49
-0.05
  0
LTYPE
  2
DOT
 70
64
  3
. . . . . . . . . . . . . . . . . . . .
 72
65
 73
2
 40
0.2
 49
0.1
 49
-0.1
  0
LTYPE
  2
DASHED
 70
64
  3
- - - - - - - - - - - - - - - - - - - -
 72
65
 73
2
 40
0.2
 49
0.1
 49
-0.1
  0
ENDTAB
  0
TABLE
  2
LAYER
 70
36
  0
LAYER
  2
0
 70
0
 62
7
  6
CONTINUOUS
  0
LAYER
  2
DEFAULT_1
 70
0
 62
7
  6
CENTER
  0
LAYER
  2
DEFAULT_2
 70
0
 62
8
  6
HIDDEN
  0
LAYER
  2
DEFAULT_3
 70
0
 62
7
  6
PHANTOM
  0
LAYER
  2
0000_BOM
 70
0
 62
7
  6
CONTINUOUS
  0
LAYER
  2
0000_REV_TABLE
 70
0
 62
7
  6
CONTINUOUS
  0
LAYER
  2
0000_STEVENS_NOTE
 70
0
 62
7
  6
CONTINUOUS
  0
LAYER
  2
01_DATUM_PLANES
 70
0
 62
7
  6
CONTINUOUS
  0
LAYER
  2
01_DEF_PLANES
 70
0
 62
7
  6
CONTINUOUS
  0
LAYER
  2
02_DATUM_COS
 70
0
 62
7
  6
CONTINUOUS
  0
LAYER
  2
99_SOLID
 70
0
 62
7
  6
CONTINUOUS
  0
LAYER
  2
CAD-MASTER_ZINC-PL
 70
0
 62
7
  6
CONTINUOUS
  0
LAYER
  2
CURVE
 70
0
 62
7
  6
CONTINUOUS
  0
LAYER
  2
SKEL
 70
0
 62
7
  6
CONTINUOUS
  0
LAYER
  2
SKETCH
 70
0
 62
7
  6
CONTINUOUS
  0
LAYER
  2
SURFACE
 70
0
 62
7
  6
CONTINUOUS
  0
ENDTAB
  0
TABLE
  2
STYLE
 70
1
  0
STYLE
  2
STANDARD
 70
0
 40
0.0
 41
0.75
 50
0.0
 71
0
 42
0.2
  3
txt
  4

  0
STYLE
  2
TEXTSTYLE_1
 70
0
 40
0.0
 41
0.8
 50
0.0
 71
0
 42
0.2
  3
gdt
  4

  0
ENDTAB
  0
ENDSEC
  0
SECTION
  2
BLOCKS
  0
ENDSEC
  0
SECTION
  2
ENTITIES
  0
LINE
  8
0
 62
7
  6
CONTINUOUS
 10
109.6997977779
 20
-359.9191740561
 11
139.6997521671
 21
-359.9191740561
  0
LINE
  8
0
 62
7
  6
CONTINUOUS
 10
139.6997749725
 20
-272.4191740561
 11
246.6997749725
 21
-272.4191740561
  0
LINE
  8
0
 62
7
  6
CONTINUOUS
 10
139.6997749725
 20
-247.4191740561
 11
246.6997749725
 21
-247.4191740561
  0
LINE
  8
0
 62
7
  6
CONTINUOUS
 10
138.1782937005
 20
575.7072301853
 11
138.5928995364
 21
576.2284225525
  0
LINE
  8
0
 62
7
  6
CONTINUOUS
 10
138.5928995364
 20
576.2284225525
 11
138.9379744627
 21
576.6556401853
  0
LINE
  8
0
 62
7
  6
CONTINUOUS
 10
138.9379744627
 20
576.6556401853
 11
139.2162240872
 21
576.9962485087
  0
LINE
  8
0
 62
7
  6
CONTINUOUS
 10
139.2162240872
 20
576.9962485087
 11
139.5128041388
 21
577.3558765654
  0
LINE
  8
0
 62
7
  6
CONTINUOUS
 10
139.5128041388
 20
577.3558765654
 11
139.6924085279
 21
577.5721121127
  0
LINE
  8
0
 62
7
  6
CONTINUOUS
 10
139.6924085279
 20
577.5721121127
 11
139.6997749725
 21
577.5808259439
  0
LINE
  8
0
 62
7
  6
CONTINUOUS
 10
139.6997749725
 20
-272.4191740561
 11
139.6924104094
 21
-272.4104682912
  0
LINE
  8
0
 62
7
  6
CONTINUOUS
 10
139.6924104094
 20
-272.4104682912
 11
139.3308088804
 21
-271.9739550339
  0
LINE
  8
0
 62
7
  6
CONTINUOUS
 10
139.3308088804
 20
-271.9739550339
 11
139.0850813734
 21
-271.6745019406
  0
LINE
  8
0
 62
7
  6
CONTINUOUS
 10
139.0850813734
 20
-271.6745019406
 11
138.7736330204
 21
-271.2912740456
  0
POLYLINE
  8
0
 62
7
  6
CONTINUOUS
 66
1
 70
0
  0
VERTEX
  8
0
 62
7
  6
CONTINUOUS
 10
138.7736330204
 20
-271.2912740456
  0
VERTEX
  8
0
 62
7
  6
CONTINUOUS
 10
138.3939569862
 20
-270.8178431253
  0
VERTEX
  8
0
 62
7
  6
CONTINUOUS
 10
138.1779560209
 20
-270.5451499818
  0
VERTEX
  8
0
 62
7
  6
CONTINUOUS
 10
137.9444066034
 20
-270.247277881
  0
VERTEX
  8
0
 62
7
  6
CONTINUOUS
 10
137.6941766976
 20
-269.924396502
  0
VERTEX
  8
0
 62
7
  6
CONTINUOUS
 10
137.4280822606
 20
-269.5762813316
  0
VERTEX
  8
0
 62
7
  6
CONTINUOUS
 10
137.1473307749
 20
-269.2031196319
  0
VERTEX
  8
0
 62
7
  6
CONTINUOUS
 10
136.8530558774
 20
-268.8046637715
  0
VERTEX
  8
0
 62
7
  6
CONTINUOUS
 10
136.5475308777
 20
-268.3819939165
  0
VERTEX
  8
0
 62
7
  6
CONTINUOUS
 10
136.2322809394
 20
-267.9344802879
  0
VERTEX
  8
0
 62
7
  6
CONTINUOUS
 10
135.9122570033
 20
-267.4670050883
  0
VERTEX
  8
0
 62
7
  6
CONTINUOUS
 10
135.592263744
 20
-266.9826485941
  0
VERTEX
  8
0
 62
7
  6
CONTINUOUS
 10
135.276903905
 20
-266.4861868057
  0
VERTEX
  8
0
 62
7
  6
CONTINUOUS
 10
134.9711491642
 20
-265.9809097706
  0
VERTEX
  8
0
 62
7
  6
CONTINUOUS
 10
134.6802580394
 20
-265.4743556237
  0
VERTEX
  8
0
 62
7
  6
CONTINUOUS
 10
134.4107757617
 20
-264.9737443384
  0
VERTEX
  8
0
 62
7
  6
CONTINUOUS
 10
134.1645217875
 20
-264.4833204463
  0
VERTEX
  8
0
 62
7
  6
CONTINUOUS
 10
133.9457892065
 20
-264.0105980288
  0
VERTEX
  8
0
 62
7
  6
CONTINUOUS
 10
133.7526533412
 20
-263.55298841
  0
VERTEX
  8
0
 62
7
  6
CONTINUOUS
 10
133.5844205181
 20
-263.1112061253
  0
VERTEX
  8
0
 62
7
  6
CONTINUOUS
 10
133.4397941829
 20
-262.682855622
  0
VERTEX
  8
0
 62
7
  6
CONTINUOUS
 10
133.3170769085
 20
-262.2665494654
  0
VERTEX
  8
0
 62
7
  6
CONTINUOUS
 10
133.2154498909
 20
-261.8599778369
  0
VERTEX
  8
0
 62
7
  6
CONTINUOUS
 10
133.1333335767
 20
-261.4605137497
  0
VERTEX
  8
0
 62
7
  6
CONTINUOUS
 10
133.0705073603
 20
-261.0677212725
  0
VERTEX
  8
0
 62
7
  6
CONTINUOUS
 10
133.026168306
 20
-260.6808868875
  0
VERTEX
  8
0
 62
7
  6
CONTINUOUS
 10
132.9999962391
 20
-260.298216368
  0
VERTEX
  8
0
 62
7
  6
CONTINUOUS
 10
132.9911819631
 20
-259.9187175591
  0
VERTEX
  8
0
 62
7
  6
CONTINUOUS
 10
133.0000356033
 20
-259.5392707281
  0
VERTEX
  8
0
 62
7
  6
CONTINUOUS
 10
133.0262218622
 20
-259.1568040078
  0
VERTEX
  8
0
 62
7
  6
CONTINUOUS
 10
133.0705684568
 20
-258.7701816468
  0
VERTEX
  8
0
 62
7
  6
CONTINUOUS
 10
133.1334017171
 20
-258.3774632853
  0
VERTEX
  8
0
 62
7
  6
CONTINUOUS
 10
133.2155363664
 20
-257.9779908813
  0
VERTEX
  8
0
 62
7
  6
CONTINUOUS
 10
133.3172155894
 20
-257.5713051627
  0
VERTEX
  8
0
 62
7
  6
CONTINUOUS
 10
133.4399912114
 20
-257.1548694597
  0
VERTEX
  8
0
 62
7
  6
CONTINUOUS
 10
133.5846591125
 20
-256.7264748743
  0
VERTEX
  8
0
 62
7
  6
CONTINUOUS
 10
133.7529266684
 20
-256.2846788189
  0
VERTEX
  8
0
 62
7
  6
CONTINUOUS
 10
133.9460617796
 20
-255.8271162551
  0
VERTEX
  8
0
 62
7
  6
CONTINUOUS
 10
134.164850698
 20
-255.3543456377
  0
VERTEX
  8
0
 62
7
  6
CONTINUOUS
 10
134.4113337681
 20
-254.863549038
  0
VERTEX
  8
0
 62
7
  6
CONTINUOUS
 10
134.6810940933
 20
-254.3624905677
  0
VERTEX
  8
0
 62
7
  6
CONTINUOUS
 10
134.9722653104
 20
-253.8555599064
  0
VERTEX
  8
0
 62
7
  6
CONTINUOUS
 10
135.2782071657
 20
-253.3500624217
  0
VERTEX
  8
0
 62
7
  6
CONTINUOUS
 10
135.5935450401
 20
-252.8537182256
  0
VERTEX
  8
0
 62
7
  6
CONTINUOUS
 10
135.9133814283
 20
-252.3696727649
  0
VERTEX
  8
0
 62
7
  6
CONTINUOUS
 10
136.2330979017
 20
-251.9026779955
  0
VERTEX
  8
0
 62
7
  6
CONTINUOUS
 10
136.5480449638
 20
-251.4556345019
  0
VERTEX
  8
0
 62
7
  6
CONTINUOUS
 10
136.8534143895
 20
-251.0331964343
  0
VERTEX
  8
0
 62
7
  6
CONTINUOUS
 10
137.1476092979
 20
-250.6348550508
  0
VERTEX
  8
0
 62
7
  6
CONTINUOUS
 10
137.4283434213
 20
-250.2617252181
  0
VERTEX
  8
0
 62
7
  6
CONTINUOUS
 10
137.6944549255
 20
-249.913590261
  0
VERTEX
  8
0
 62
7
  6
CONTINUOUS
 10
137.9447160905
 20
-249.5906755114
  0
VERTEX
  8
0
 62
7
  6
CONTINUOUS
 10
138.1782937005
 20
-249.2927698147
  0
SEQEND
  0
LINE
  8
0
 62
7
  6
CONTINUOUS
 10
109.6997749725
 20
-359.9191740561
 11
109.6997749725
 21
665.0808259439
  0
LINE
  8
0
 62
7
  6
CONTINUOUS
 10
139.6997749725
 20
-359.9191740561
 11
139.6997749725
 21
-272.4191740561
  0
LINE
  8
0
 62
7
  6
CONTINUOUS
 10
139.6997749725
 20
-247.4191740561
 11
139.6997749725
 21
552.5808259439
  0
LINE
  8
0
 62
7
  6
CONTINUOUS
 10
139.6997749725
 20
577.5808259439
 11
139.6997749725
 21
665.0808259439
  0
LINE
  8
0
 62
7
  6
CONTINUOUS
 10
246.6997749725
 20
-272.4191740561
 11
246.6997749725
 21
-247.4191740561
  0
LINE
  8
0
 62
7
  6
CONTINUOUS
 10
246.6997749725
 20
552.5808259439
 11
246.6997749725
 21
577.5808259439
  0
LINE
  8
0
 62
7
  6
CONTINUOUS
 10
138.1782937005
 20
-249.2927698147
 11
138.5928995364
 21
-248.7715774475
  0
LINE
  8
0
 62
7
  6
CONTINUOUS
 10
138.5928995364
 20
-248.7715774475
 11
138.9379744627
 21
-248.3443598147
  0
LINE
  8
0
 62
7
  6
CONTINUOUS
 10
138.9379744627
 20
-248.3443598147
 11
139.2162240872
 21
-248.0037514913
  0
LINE
  8
0
 62
7
  6
CONTINUOUS
 10
139.2162240872
 20
-248.0037514913
 11
139.5128041388
 21
-247.6441234346
  0
LINE
  8
0
 62
7
  6
CONTINUOUS
 10
139.5128041388
 20
-247.6441234346
 11
139.6924085279
 21
-247.4278878873
  0
LINE
  8
0
 62
7
  6
CONTINUOUS
 10
139.6924085279
 20
-247.4278878873
 11
139.6997749725
 21
-247.4191740561
  0
LINE
  8
0
 62
7
  6
CONTINUOUS
 10
139.6997749725
 20
552.5808259439
 11
139.6924104094
 21
552.5895317088
  0
LINE
  8
0
 62
7
  6
CONTINUOUS
 10
139.6924104094
 20
552.5895317088
 11
139.3308088804
 21
553.0260449661
  0
LINE
  8
0
 62
7
  6
CONTINUOUS
 10
139.3308088804
 20
553.0260449661
 11
139.0850813734
 21
553.3254980594
  0
LINE
  8
0
 62
7
  6
CONTINUOUS
 10
139.0850813734
 20
553.3254980594
 11
138.7736330204
 21
553.7087259544
  0
POLYLINE
  8
0
 62
7
  6
CONTINUOUS
 66
1
 70
0
  0
VERTEX
  8
0
 62
7
  6
CONTINUOUS
 10
138.7736330204
 20
553.7087259544
  0
VERTEX
  8
0
 62
7
  6
CONTINUOUS
 10
138.3939569862
 20
554.1821568747
  0
VERTEX
  8
0
 62
7
  6
CONTINUOUS
 10
138.1779560209
 20
554.4548500182
  0
VERTEX
  8
0
 62
7
  6
CONTINUOUS
 10
137.9444066034
 20
554.752722119
  0
VERTEX
  8
0
 62
7
  6
CONTINUOUS
 10
137.6941766976
 20
555.075603498
  0
VERTEX
  8
0
 62
7
  6
CONTINUOUS
 10
137.4280822606
 20
555.4237186684
  0
VERTEX
  8
0
 62
7
  6
CONTINUOUS
 10
137.1473307749
 20
555.7968803681
  0
VERTEX
  8
0
 62
7
  6
CONTINUOUS
 10
136.8530558774
 20
556.1953362285
  0
VERTEX
  8
0
 62
7
  6
CONTINUOUS
 10
136.5475308777
 20
556.6180060835
  0
VERTEX
  8
0
 62
7
  6
CONTINUOUS
 10
136.2322809394
 20
557.0655197121
  0
VERTEX
  8
0
 62
7
  6
CONTINUOUS
 10
135.9122570033
 20
557.5329949117
  0
VERTEX
  8
0
 62
7
  6
CONTINUOUS
 10
135.592263744
 20
558.0173514059
  0
VERTEX
  8
0
 62
7
  6
CONTINUOUS
 10
135.276903905
 20
558.5138131943
  0
VERTEX
  8
0
 62
7
  6
CONTINUOUS
 10
134.9711491642
 20
559.0190902294
  0
VERTEX
  8
0
 62
7
  6
CONTINUOUS
 10
134.6802580394
 20
559.5256443763
  0
VERTEX
  8
0
 62
7
  6
CONTINUOUS
 10
134.4107757617
 20
560.0262556616
  0
VERTEX
  8
0
 62
7
  6
CONTINUOUS
 10
134.1645217875
 20
560.5166795537
  0
VERTEX
  8
0
 62
7
  6
CONTINUOUS
 10
133.9457892065
 20
560.9894019712
  0
VERTEX
  8
0
 62
7
  6
CONTINUOUS
 10
133.7526533412
 20
561.44701159
  0
VERTEX
  8
0
 62
7
  6
CONTINUOUS
 10
133.5844205181
 20
561.8887938747
  0
VERTEX
  8
0
 62
7
  6
CONTINUOUS
 10
133.4397941829
 20
562.317144378
  0
VERTEX
  8
0
 62
7
  6
CONTINUOUS
 10
133.3170769085
 20
562.7334505346
  0
VERTEX
  8
0
 62
7
  6
CONTINUOUS
 10
133.2154498909
 20
563.1400221631
  0
VERTEX
  8
0
 62
7
  6
CONTINUOUS
 10
133.1333335767
 20
563.5394862503
  0
VERTEX
  8
0
 62
7
  6
CONTINUOUS
 10
133.0705073603
 20
563.9322787275
  0
VERTEX
  8
0
 62
7
  6
CONTINUOUS
 10
133.026168306
 20
564.3191131125
  0
VERTEX
  8
0
 62
7
  6
CONTINUOUS
 10
132.9999962391
 20
564.701783632
  0
VERTEX
  8
0
 62
7
  6
CONTINUOUS
 10
132.9911819631
 20
565.0812824409
  0
VERTEX
  8
0
 62
7
  6
CONTINUOUS
 10
133.0000356033
 20
565.4607292719
  0
VERTEX
  8
0
 62
7
  6
CONTINUOUS
 10
133.0262218622
 20
565.8431959922
  0
VERTEX
  8
0
 62
7
  6
CONTINUOUS
 10
133.0705684568
 20
566.2298183532
  0
VERTEX
  8
0
 62
7
  6
CONTINUOUS
 10
133.1334017171
 20
566.6225367147
  0
VERTEX
  8
0
 62
7
  6
CONTINUOUS
 10
133.2155363664
 20
567.0220091187
  0
VERTEX
  8
0
 62
7
  6
CONTINUOUS
 10
133.3172155894
 20
567.4286948373
  0
VERTEX
  8
0
 62
7
  6
CONTINUOUS
 10
133.4399912114
 20
567.8451305403
  0
VERTEX
  8
0
 62
7
  6
CONTINUOUS
 10
133.5846591125
 20
568.2735251257
  0
VERTEX
  8
0
 62
7
  6
CONTINUOUS
 10
133.7529266684
 20
568.7153211811
  0
VERTEX
  8
0
 62
7
  6
CONTINUOUS
 10
133.9460617796
 20
569.1728837449
  0
VERTEX
  8
0
 62
7
  6
CONTINUOUS
 10
134.164850698
 20
569.6456543623
  0
VERTEX
  8
0
 62
7
  6
CONTINUOUS
 10
134.4113337681
 20
570.136450962
  0
VERTEX
  8
0
 62
7
  6
CONTINUOUS
 10
134.6810940933
 20
570.6375094323
  0
VERTEX
  8
0
 62
7
  6
CONTINUOUS
 10
134.9722653104
 20
571.1444400936
  0
VERTEX
  8
0
 62
7
  6
CONTINUOUS
 10
135.2782071657
 20
571.6499375783
  0
VERTEX
  8
0
 62
7
  6
CONTINUOUS
 10
135.5935450401
 20
572.1462817744
  0
VERTEX
  8
0
 62
7
  6
CONTINUOUS
 10
135.9133814283
 20
572.6303272351
  0
VERTEX
  8
0
 62
7
  6
CONTINUOUS
 10
136.2330979017
 20
573.0973220045
  0
VERTEX
  8
0
 62
7
  6
CONTINUOUS
 10
136.5480449638
 20
573.5443654981
  0
VERTEX
  8
0
 62
7
  6
CONTINUOUS
 10
136.8534143895
 20
573.9668035657
  0
VERTEX
  8
0
 62
7
  6
CONTINUOUS
 10
137.1476092979
 20
574.3651449492
  0
VERTEX
  8
0
 62
7
  6
CONTINUOUS
 10
137.4283434213
 20
574.7382747819
  0
VERTEX
  8
0
 62
7
  6
CONTINUOUS
 10
137.6944549255
 20
575.086409739
  0
VERTEX
  8
0
 62
7
  6
CONTINUOUS
 10
137.9447160905
 20
575.4093244886
  0
VERTEX
  8
0
 62
7
  6
CONTINUOUS
 10
138.1782937005
 20
575.7072301853
  0
SEQEND
  0
LINE
  8
0
 62
7
  6
CONTINUOUS
 10
139.6997749725
 20
552.5808259439
 11
246.6997749725
 21
552.5808259439
  0
LINE
  8
0
 62
7
  6
CONTINUOUS
 10
139.6997749725
 20
577.5808259439
 11
246.6997749725
 21
577.5808259439
  0
LINE
  8
0
 62
7
  6
CONTINUOUS
 10
109.6997977779
 20
665.0808259439
 11
139.6997521671
 21
665.0808259439
  0
ENDSEC
  0
EOF
