999
DXF file: K:\Client\125_Heirloom\001\00\Final_Data\Drawings\LADDER TOWEL WARMERS\wg1025en_1.dxf
999
Pro/ENGINEER 2017110 by Parametric Technology Corporation
  0
SECTION
  2
HEADER
  9
$EXTMAX
 10
420.0
 20
297.0
 30
0.0
  9
$EXTMIN
 10
0.0
 20
0.0
 30
0.0
  9
$LIMMIN
 10
0.0
 20
0.0
  9
$LIMMAX
 10
420.0
 20
297.0
  9
$VIEWCTR
 10
210.0
 20
148.5
  9
$VIEWSIZE
 40
297.0
  9
$CLAYER
  8
0
  9
$LTSCALE
 40
23.1
  9
$CELTYPE
  6
BYLAYER
  9
$DIMSCALE
 40
1.0
  9
$DIMASZ
 40
3.0
  9
$DIMEXO
 40
1.0
  9
$DIMDLI
 40
15.96
  9
$DIMEXE
 40
1.0
  9
$DIMCEN
 40
3.78
  9
$DIMLFAC
 40
1.0
  9
$DIMBLK
  1
_FILLED
  9
$DIMALT
 70
0
  9
$DIMALTF
 40
0.0393700787
  9
$DIMTXT
 40
3.0
  9
$AUNITS
 70
0
  9
$PDMODE
 70
3
  9
$PDSIZE
 40
5.0
  9
$TILEMODE
 70
1
  0
ENDSEC
  0
SECTION
  2
TABLES
  0
TABLE
  2
LTYPE
 70
6
  0
LTYPE
  2
BYBLOCK
 70
0
  3

 72
65
 73
0
 40
0.0
  0
LTYPE
  2
BYLAYER
 70
0
  3

 72
65
 73
0
 40
0.0
  0
LTYPE
  2
CONTINUOUS
 70
64
  3
Solid line
 72
65
 73
0
 40
0.0
  0
LTYPE
  2
CENTER
 70
64
  3
____ _ ____ _ ____ _ ____ _ ____ _ ____ _ ____
 72
65
 73
4
 40
0.6
 49
0.375
 49
-0.075
 49
0.075
 49
-0.075
  0
LTYPE
  2
HIDDEN
 70
64
  3
- - - - - - - - - - - - - - - - - - - -
 72
65
 73
2
 40
0.2
 49
0.1
 49
-0.1
  0
LTYPE
  2
PHANTOM
 70
64
  3
_____ _ _ _____ _ _ _____ _ _ _____
 72
65
 73
6
 40
0.8
 49
0.45
 49
-0.05
 49
0.1
 49
-0.05
 49
0.1
 49
-0.05
  0
LTYPE
  2
DOT
 70
64
  3
. . . . . . . . . . . . . . . . . . . .
 72
65
 73
2
 40
0.2
 49
0.1
 49
-0.1
  0
LTYPE
  2
DASHED
 70
64
  3
- - - - - - - - - - - - - - - - - - - -
 72
65
 73
2
 40
0.2
 49
0.1
 49
-0.1
  0
ENDTAB
  0
TABLE
  2
LAYER
 70
36
  0
LAYER
  2
0
 70
0
 62
7
  6
CONTINUOUS
  0
LAYER
  2
DEFAULT_1
 70
0
 62
7
  6
CENTER
  0
LAYER
  2
DEFAULT_2
 70
0
 62
8
  6
HIDDEN
  0
LAYER
  2
DEFAULT_3
 70
0
 62
7
  6
PHANTOM
  0
LAYER
  2
0000_BOM
 70
0
 62
7
  6
CONTINUOUS
  0
LAYER
  2
0000_REV_TABLE
 70
0
 62
7
  6
CONTINUOUS
  0
LAYER
  2
0000_STEVENS_NOTE
 70
0
 62
7
  6
CONTINUOUS
  0
LAYER
  2
01_DATUM_PLANES
 70
0
 62
7
  6
CONTINUOUS
  0
LAYER
  2
01_DEF_PLANES
 70
0
 62
7
  6
CONTINUOUS
  0
LAYER
  2
02_DATUM_COS
 70
0
 62
7
  6
CONTINUOUS
  0
LAYER
  2
99_SOLID
 70
0
 62
7
  6
CONTINUOUS
  0
LAYER
  2
CAD-MASTER_ZINC-PL
 70
0
 62
7
  6
CONTINUOUS
  0
LAYER
  2
CURVE
 70
0
 62
7
  6
CONTINUOUS
  0
LAYER
  2
SKEL
 70
0
 62
7
  6
CONTINUOUS
  0
LAYER
  2
SKETCH
 70
0
 62
7
  6
CONTINUOUS
  0
LAYER
  2
SURFACE
 70
0
 62
7
  6
CONTINUOUS
  0
ENDTAB
  0
TABLE
  2
STYLE
 70
1
  0
STYLE
  2
STANDARD
 70
0
 40
0.0
 41
0.75
 50
0.0
 71
0
 42
0.2
  3
txt
  4

  0
STYLE
  2
TEXTSTYLE_1
 70
0
 40
0.0
 41
0.8
 50
0.0
 71
0
 42
0.2
  3
gdt
  4

  0
ENDTAB
  0
ENDSEC
  0
SECTION
  2
BLOCKS
  0
ENDSEC
  0
SECTION
  2
ENTITIES
  0
POLYLINE
  8
0
 62
7
  6
CONTINUOUS
 66
1
 70
0
  0
VERTEX
  8
0
 62
7
  6
CONTINUOUS
 10
-183.9081760169
 20
620.0219159097
  0
VERTEX
  8
0
 62
7
  6
CONTINUOUS
 10
-184.053581438
 20
619.8136445319
  0
VERTEX
  8
0
 62
7
  6
CONTINUOUS
 10
-184.2130116152
 20
619.5826006057
  0
VERTEX
  8
0
 62
7
  6
CONTINUOUS
 10
-184.3862416731
 20
619.3281947434
  0
VERTEX
  8
0
 62
7
  6
CONTINUOUS
 10
-184.5726880292
 20
619.0500823359
  0
VERTEX
  8
0
 62
7
  6
CONTINUOUS
 10
-184.7719510512
 20
618.7474485274
  0
VERTEX
  8
0
 62
7
  6
CONTINUOUS
 10
-184.9825002003
 20
618.4211146697
  0
VERTEX
  8
0
 62
7
  6
CONTINUOUS
 10
-185.2028408404
 20
618.0712825132
  0
VERTEX
  8
0
 62
7
  6
CONTINUOUS
 10
-185.4310446159
 20
617.6989960059
  0
VERTEX
  8
0
 62
7
  6
CONTINUOUS
 10
-185.6654924691
 20
617.3039359962
  0
VERTEX
  8
0
 62
7
  6
CONTINUOUS
 10
-185.9024234669
 20
616.8903935329
  0
VERTEX
  8
0
 62
7
  6
CONTINUOUS
 10
-186.1379671932
 20
616.4611760983
  0
VERTEX
  8
0
 62
7
  6
CONTINUOUS
 10
-186.368853987
 20
616.0204152413
  0
VERTEX
  8
0
 62
7
  6
CONTINUOUS
 10
-186.5909477801
 20
615.5721902279
  0
VERTEX
  8
0
 62
7
  6
CONTINUOUS
 10
-186.8020156931
 20
615.1194653896
  0
VERTEX
  8
0
 62
7
  6
CONTINUOUS
 10
-186.9990257326
 20
614.6656442538
  0
VERTEX
  8
0
 62
7
  6
CONTINUOUS
 10
-187.1804648075
 20
614.2134884993
  0
VERTEX
  8
0
 62
7
  6
CONTINUOUS
 10
-187.3440374977
 20
613.7670420339
  0
VERTEX
  8
0
 62
7
  6
CONTINUOUS
 10
-187.4898584714
 20
613.325861698
  0
VERTEX
  8
0
 62
7
  6
CONTINUOUS
 10
-187.6175720216
 20
612.8913294454
  0
VERTEX
  8
0
 62
7
  6
CONTINUOUS
 10
-187.7274599564
 20
612.462013844
  0
VERTEX
  8
0
 62
7
  6
CONTINUOUS
 10
-187.8200394222
 20
612.036876064
  0
VERTEX
  8
0
 62
7
  6
CONTINUOUS
 10
-187.895208407
 20
611.6161202518
  0
VERTEX
  8
0
 62
7
  6
CONTINUOUS
 10
-187.9531919796
 20
611.1998231412
  0
VERTEX
  8
0
 62
7
  6
CONTINUOUS
 10
-187.9941890494
 20
610.7873281399
  0
VERTEX
  8
0
 62
7
  6
CONTINUOUS
 10
-188.0186324233
 20
610.3786980088
  0
VERTEX
  8
0
 62
7
  6
CONTINUOUS
 10
-188.0265687004
 20
609.9718514219
  0
VERTEX
  8
0
 62
7
  6
CONTINUOUS
 10
-188.0184816227
 20
609.5653222309
  0
VERTEX
  8
0
 62
7
  6
CONTINUOUS
 10
-187.9939195427
 20
609.1573276637
  0
VERTEX
  8
0
 62
7
  6
CONTINUOUS
 10
-187.9528855557
 20
608.745599913
  0
VERTEX
  8
0
 62
7
  6
CONTINUOUS
 10
-187.8949235838
 20
608.3301279348
  0
VERTEX
  8
0
 62
7
  6
CONTINUOUS
 10
-187.8198425099
 20
607.9101438956
  0
VERTEX
  8
0
 62
7
  6
CONTINUOUS
 10
-187.7273711461
 20
607.4856503557
  0
VERTEX
  8
0
 62
7
  6
CONTINUOUS
 10
-187.6175730316
 20
607.0567166555
  0
VERTEX
  8
0
 62
7
  6
CONTINUOUS
 10
-187.4899201202
 20
606.6223746207
  0
VERTEX
  8
0
 62
7
  6
CONTINUOUS
 10
-187.3440956992
 20
606.1811786281
  0
VERTEX
  8
0
 62
7
  6
CONTINUOUS
 10
-187.1804955126
 20
605.7346303647
  0
VERTEX
  8
0
 62
7
  6
CONTINUOUS
 10
-186.9990380671
 20
605.2824221392
  0
VERTEX
  8
0
 62
7
  6
CONTINUOUS
 10
-186.8019990161
 20
604.8285364626
  0
VERTEX
  8
0
 62
7
  6
CONTINUOUS
 10
-186.5908598522
 20
604.3756771186
  0
VERTEX
  8
0
 62
7
  6
CONTINUOUS
 10
-186.3687259581
 20
603.927372598
  0
VERTEX
  8
0
 62
7
  6
CONTINUOUS
 10
-186.1379251513
 20
603.4867687819
  0
VERTEX
  8
0
 62
7
  6
CONTINUOUS
 10
-185.9024638474
 20
603.0577172832
  0
VERTEX
  8
0
 62
7
  6
CONTINUOUS
 10
-185.6655101915
 20
602.6441380362
  0
VERTEX
  8
0
 62
7
  6
CONTINUOUS
 10
-185.4310017983
 20
602.248971957
  0
VERTEX
  8
0
 62
7
  6
CONTINUOUS
 10
-185.2027183094
 20
601.8765635162
  0
VERTEX
  8
0
 62
7
  6
CONTINUOUS
 10
-184.9823074127
 20
601.5266219838
  0
VERTEX
  8
0
 62
7
  6
CONTINUOUS
 10
-184.771729805
 20
601.2002499939
  0
VERTEX
  8
0
 62
7
  6
CONTINUOUS
 10
-184.5724589207
 20
600.8976119243
  0
VERTEX
  8
0
 62
7
  6
CONTINUOUS
 10
-184.3860204641
 20
600.6195153322
  0
VERTEX
  8
0
 62
7
  6
CONTINUOUS
 10
-184.2128024883
 20
600.3651333142
  0
VERTEX
  8
0
 62
7
  6
CONTINUOUS
 10
-184.0533735191
 20
600.1340969036
  0
VERTEX
  8
0
 62
7
  6
CONTINUOUS
 10
-183.907977312
 20
599.9258398479
  0
VERTEX
  8
0
 62
7
  6
CONTINUOUS
 10
-183.7769258718
 20
599.7399380165
  0
VERTEX
  8
0
 62
7
  6
CONTINUOUS
 10
-183.5571507128
 20
599.4319846144
  0
SEQEND
  0
LINE
  8
0
 62
7
  6
CONTINUOUS
 10
-183.660155421
 20
620.3722537923
 11
-183.9081760169
 21
620.0219159097
  0
LINE
  8
0
 62
7
  6
CONTINUOUS
 10
-183.4684242026
 20
620.6391476138
 11
-183.660155421
 21
620.3722537923
  0
POLYLINE
  8
0
 62
7
  6
CONTINUOUS
 66
1
 70
0
  0
VERTEX
  8
0
 62
7
  6
CONTINUOUS
 10
-183.2313289527
 20
620.964933211
  0
VERTEX
  8
0
 62
7
  6
CONTINUOUS
 10
-183.2853102007
 20
620.8911108837
  0
VERTEX
  8
0
 62
7
  6
CONTINUOUS
 10
-183.4684242026
 20
620.6391476138
  0
SEQEND
  0
LINE
  8
0
 62
7
  6
CONTINUOUS
 10
-183.224607958
 20
620.9740194371
 11
-183.2313289527
 21
620.964933211
  0
LINE
  8
0
 62
7
  6
CONTINUOUS
 10
-183.2313276215
 20
-317.0168943421
 11
-183.224607958
 21
-317.0259805629
  0
LINE
  8
0
 62
7
  6
CONTINUOUS
 10
-183.3936084928
 20
-316.7944415845
 11
-183.2313276215
 21
-317.0168943421
  0
LINE
  8
0
 62
7
  6
CONTINUOUS
 10
-183.5571507128
 20
-316.5680153856
 11
-183.3936084928
 21
-316.7944415845
  0
POLYLINE
  8
0
 62
7
  6
CONTINUOUS
 66
1
 70
0
  0
VERTEX
  8
0
 62
7
  6
CONTINUOUS
 10
-183.9081760169
 20
523.0219159097
  0
VERTEX
  8
0
 62
7
  6
CONTINUOUS
 10
-184.053581438
 20
522.8136445319
  0
VERTEX
  8
0
 62
7
  6
CONTINUOUS
 10
-184.2130116152
 20
522.5826006057
  0
VERTEX
  8
0
 62
7
  6
CONTINUOUS
 10
-184.3862416731
 20
522.3281947434
  0
VERTEX
  8
0
 62
7
  6
CONTINUOUS
 10
-184.5726880292
 20
522.0500823359
  0
VERTEX
  8
0
 62
7
  6
CONTINUOUS
 10
-184.7719510512
 20
521.7474485274
  0
VERTEX
  8
0
 62
7
  6
CONTINUOUS
 10
-184.9825002003
 20
521.4211146697
  0
VERTEX
  8
0
 62
7
  6
CONTINUOUS
 10
-185.2028408404
 20
521.0712825132
  0
VERTEX
  8
0
 62
7
  6
CONTINUOUS
 10
-185.4310446159
 20
520.6989960059
  0
VERTEX
  8
0
 62
7
  6
CONTINUOUS
 10
-185.6654924691
 20
520.3039359962
  0
VERTEX
  8
0
 62
7
  6
CONTINUOUS
 10
-185.9024234669
 20
519.8903935329
  0
VERTEX
  8
0
 62
7
  6
CONTINUOUS
 10
-186.1379671932
 20
519.4611760983
  0
VERTEX
  8
0
 62
7
  6
CONTINUOUS
 10
-186.368853987
 20
519.0204152413
  0
VERTEX
  8
0
 62
7
  6
CONTINUOUS
 10
-186.5909477801
 20
518.5721902279
  0
VERTEX
  8
0
 62
7
  6
CONTINUOUS
 10
-186.8020156931
 20
518.1194653896
  0
VERTEX
  8
0
 62
7
  6
CONTINUOUS
 10
-186.9990257326
 20
517.6656442538
  0
VERTEX
  8
0
 62
7
  6
CONTINUOUS
 10
-187.1804648075
 20
517.2134884993
  0
VERTEX
  8
0
 62
7
  6
CONTINUOUS
 10
-187.3440374977
 20
516.7670420339
  0
VERTEX
  8
0
 62
7
  6
CONTINUOUS
 10
-187.4898584714
 20
516.325861698
  0
VERTEX
  8
0
 62
7
  6
CONTINUOUS
 10
-187.6175720216
 20
515.8913294454
  0
VERTEX
  8
0
 62
7
  6
CONTINUOUS
 10
-187.7274599564
 20
515.462013844
  0
VERTEX
  8
0
 62
7
  6
CONTINUOUS
 10
-187.8200394222
 20
515.036876064
  0
VERTEX
  8
0
 62
7
  6
CONTINUOUS
 10
-187.895208407
 20
514.6161202518
  0
VERTEX
  8
0
 62
7
  6
CONTINUOUS
 10
-187.9531919796
 20
514.1998231412
  0
VERTEX
  8
0
 62
7
  6
CONTINUOUS
 10
-187.9941890494
 20
513.7873281399
  0
VERTEX
  8
0
 62
7
  6
CONTINUOUS
 10
-188.0186324233
 20
513.3786980088
  0
VERTEX
  8
0
 62
7
  6
CONTINUOUS
 10
-188.0265687004
 20
512.9718514219
  0
VERTEX
  8
0
 62
7
  6
CONTINUOUS
 10
-188.0184816227
 20
512.5653222309
  0
VERTEX
  8
0
 62
7
  6
CONTINUOUS
 10
-187.9939195427
 20
512.1573276637
  0
VERTEX
  8
0
 62
7
  6
CONTINUOUS
 10
-187.9528855557
 20
511.745599913
  0
VERTEX
  8
0
 62
7
  6
CONTINUOUS
 10
-187.8949235838
 20
511.3301279348
  0
VERTEX
  8
0
 62
7
  6
CONTINUOUS
 10
-187.8198425099
 20
510.9101438956
  0
VERTEX
  8
0
 62
7
  6
CONTINUOUS
 10
-187.7273711461
 20
510.4856503557
  0
VERTEX
  8
0
 62
7
  6
CONTINUOUS
 10
-187.6175730316
 20
510.0567166555
  0
VERTEX
  8
0
 62
7
  6
CONTINUOUS
 10
-187.4899201202
 20
509.6223746207
  0
VERTEX
  8
0
 62
7
  6
CONTINUOUS
 10
-187.3440956992
 20
509.1811786281
  0
VERTEX
  8
0
 62
7
  6
CONTINUOUS
 10
-187.1804955126
 20
508.7346303647
  0
VERTEX
  8
0
 62
7
  6
CONTINUOUS
 10
-186.9990380671
 20
508.2824221392
  0
VERTEX
  8
0
 62
7
  6
CONTINUOUS
 10
-186.8019990161
 20
507.8285364626
  0
VERTEX
  8
0
 62
7
  6
CONTINUOUS
 10
-186.5908598522
 20
507.3756771186
  0
VERTEX
  8
0
 62
7
  6
CONTINUOUS
 10
-186.3687259581
 20
506.927372598
  0
VERTEX
  8
0
 62
7
  6
CONTINUOUS
 10
-186.1379251513
 20
506.4867687819
  0
VERTEX
  8
0
 62
7
  6
CONTINUOUS
 10
-185.9024638474
 20
506.0577172832
  0
VERTEX
  8
0
 62
7
  6
CONTINUOUS
 10
-185.6655101915
 20
505.6441380362
  0
VERTEX
  8
0
 62
7
  6
CONTINUOUS
 10
-185.4310017983
 20
505.248971957
  0
VERTEX
  8
0
 62
7
  6
CONTINUOUS
 10
-185.2027183094
 20
504.8765635162
  0
VERTEX
  8
0
 62
7
  6
CONTINUOUS
 10
-184.9823074127
 20
504.5266219838
  0
VERTEX
  8
0
 62
7
  6
CONTINUOUS
 10
-184.771729805
 20
504.2002499939
  0
VERTEX
  8
0
 62
7
  6
CONTINUOUS
 10
-184.5724589207
 20
503.8976119243
  0
VERTEX
  8
0
 62
7
  6
CONTINUOUS
 10
-184.3860204641
 20
503.6195153322
  0
VERTEX
  8
0
 62
7
  6
CONTINUOUS
 10
-184.2128024883
 20
503.3651333142
  0
VERTEX
  8
0
 62
7
  6
CONTINUOUS
 10
-184.0533735191
 20
503.1340969036
  0
VERTEX
  8
0
 62
7
  6
CONTINUOUS
 10
-183.907977312
 20
502.9258398479
  0
VERTEX
  8
0
 62
7
  6
CONTINUOUS
 10
-183.7769258718
 20
502.7399380165
  0
VERTEX
  8
0
 62
7
  6
CONTINUOUS
 10
-183.5571507128
 20
502.4319846144
  0
SEQEND
  0
LINE
  8
0
 62
7
  6
CONTINUOUS
 10
-183.660155421
 20
523.3722537923
 11
-183.9081760169
 21
523.0219159097
  0
LINE
  8
0
 62
7
  6
CONTINUOUS
 10
-183.4684242026
 20
523.6391476138
 11
-183.660155421
 21
523.3722537923
  0
POLYLINE
  8
0
 62
7
  6
CONTINUOUS
 66
1
 70
0
  0
VERTEX
  8
0
 62
7
  6
CONTINUOUS
 10
-183.2313289527
 20
523.964933211
  0
VERTEX
  8
0
 62
7
  6
CONTINUOUS
 10
-183.2853102007
 20
523.8911108837
  0
VERTEX
  8
0
 62
7
  6
CONTINUOUS
 10
-183.4684242026
 20
523.6391476138
  0
SEQEND
  0
LINE
  8
0
 62
7
  6
CONTINUOUS
 10
-183.224607958
 20
523.9740194371
 11
-183.2313289527
 21
523.964933211
  0
LINE
  8
0
 62
7
  6
CONTINUOUS
 10
-183.2313276215
 20
-220.0168943421
 11
-183.224607958
 21
-220.0259805629
  0
LINE
  8
0
 62
7
  6
CONTINUOUS
 10
-183.3936084928
 20
-219.7944415845
 11
-183.2313276215
 21
-220.0168943421
  0
LINE
  8
0
 62
7
  6
CONTINUOUS
 10
-183.5571507128
 20
-219.5680153856
 11
-183.3936084928
 21
-219.7944415845
  0
LINE
  8
0
 62
7
  6
CONTINUOUS
 10
-183.224607958
 20
-360.5259805629
 11
-213.224607958
 21
-360.5259805629
  0
LINE
  8
0
 62
7
  6
CONTINUOUS
 10
551.775392042
 20
-360.5259805629
 11
581.775392042
 21
-360.5259805629
  0
POLYLINE
  8
0
 62
7
  6
CONTINUOUS
 66
1
 70
0
  0
VERTEX
  8
0
 62
7
  6
CONTINUOUS
 10
-183.9081760169
 20
426.0219159097
  0
VERTEX
  8
0
 62
7
  6
CONTINUOUS
 10
-184.053581438
 20
425.8136445319
  0
VERTEX
  8
0
 62
7
  6
CONTINUOUS
 10
-184.2130116152
 20
425.5826006057
  0
VERTEX
  8
0
 62
7
  6
CONTINUOUS
 10
-184.3862416731
 20
425.3281947434
  0
VERTEX
  8
0
 62
7
  6
CONTINUOUS
 10
-184.5726880292
 20
425.0500823359
  0
VERTEX
  8
0
 62
7
  6
CONTINUOUS
 10
-184.7719510512
 20
424.7474485274
  0
VERTEX
  8
0
 62
7
  6
CONTINUOUS
 10
-184.9825002003
 20
424.4211146697
  0
VERTEX
  8
0
 62
7
  6
CONTINUOUS
 10
-185.2028408404
 20
424.0712825132
  0
VERTEX
  8
0
 62
7
  6
CONTINUOUS
 10
-185.4310446159
 20
423.6989960059
  0
VERTEX
  8
0
 62
7
  6
CONTINUOUS
 10
-185.6654924691
 20
423.3039359962
  0
VERTEX
  8
0
 62
7
  6
CONTINUOUS
 10
-185.9024234669
 20
422.8903935329
  0
VERTEX
  8
0
 62
7
  6
CONTINUOUS
 10
-186.1379671932
 20
422.4611760983
  0
VERTEX
  8
0
 62
7
  6
CONTINUOUS
 10
-186.368853987
 20
422.0204152413
  0
VERTEX
  8
0
 62
7
  6
CONTINUOUS
 10
-186.5909477801
 20
421.5721902279
  0
VERTEX
  8
0
 62
7
  6
CONTINUOUS
 10
-186.8020156931
 20
421.1194653896
  0
VERTEX
  8
0
 62
7
  6
CONTINUOUS
 10
-186.9990257326
 20
420.6656442538
  0
VERTEX
  8
0
 62
7
  6
CONTINUOUS
 10
-187.1804648075
 20
420.2134884993
  0
VERTEX
  8
0
 62
7
  6
CONTINUOUS
 10
-187.3440374977
 20
419.7670420339
  0
VERTEX
  8
0
 62
7
  6
CONTINUOUS
 10
-187.4898584714
 20
419.325861698
  0
VERTEX
  8
0
 62
7
  6
CONTINUOUS
 10
-187.6175720216
 20
418.8913294454
  0
VERTEX
  8
0
 62
7
  6
CONTINUOUS
 10
-187.7274599564
 20
418.462013844
  0
VERTEX
  8
0
 62
7
  6
CONTINUOUS
 10
-187.8200394222
 20
418.036876064
  0
VERTEX
  8
0
 62
7
  6
CONTINUOUS
 10
-187.895208407
 20
417.6161202518
  0
VERTEX
  8
0
 62
7
  6
CONTINUOUS
 10
-187.9531919796
 20
417.1998231412
  0
VERTEX
  8
0
 62
7
  6
CONTINUOUS
 10
-187.9941890494
 20
416.7873281399
  0
VERTEX
  8
0
 62
7
  6
CONTINUOUS
 10
-188.0186324233
 20
416.3786980088
  0
VERTEX
  8
0
 62
7
  6
CONTINUOUS
 10
-188.0265687004
 20
415.9718514219
  0
VERTEX
  8
0
 62
7
  6
CONTINUOUS
 10
-188.0184816227
 20
415.5653222309
  0
VERTEX
  8
0
 62
7
  6
CONTINUOUS
 10
-187.9939195427
 20
415.1573276637
  0
VERTEX
  8
0
 62
7
  6
CONTINUOUS
 10
-187.9528855557
 20
414.745599913
  0
VERTEX
  8
0
 62
7
  6
CONTINUOUS
 10
-187.8949235838
 20
414.3301279348
  0
VERTEX
  8
0
 62
7
  6
CONTINUOUS
 10
-187.8198425099
 20
413.9101438956
  0
VERTEX
  8
0
 62
7
  6
CONTINUOUS
 10
-187.7273711461
 20
413.4856503557
  0
VERTEX
  8
0
 62
7
  6
CONTINUOUS
 10
-187.6175730316
 20
413.0567166555
  0
VERTEX
  8
0
 62
7
  6
CONTINUOUS
 10
-187.4899201202
 20
412.6223746207
  0
VERTEX
  8
0
 62
7
  6
CONTINUOUS
 10
-187.3440956992
 20
412.1811786281
  0
VERTEX
  8
0
 62
7
  6
CONTINUOUS
 10
-187.1804955126
 20
411.7346303647
  0
VERTEX
  8
0
 62
7
  6
CONTINUOUS
 10
-186.9990380671
 20
411.2824221392
  0
VERTEX
  8
0
 62
7
  6
CONTINUOUS
 10
-186.8019990161
 20
410.8285364626
  0
VERTEX
  8
0
 62
7
  6
CONTINUOUS
 10
-186.5908598522
 20
410.3756771186
  0
VERTEX
  8
0
 62
7
  6
CONTINUOUS
 10
-186.3687259581
 20
409.927372598
  0
VERTEX
  8
0
 62
7
  6
CONTINUOUS
 10
-186.1379251513
 20
409.4867687819
  0
VERTEX
  8
0
 62
7
  6
CONTINUOUS
 10
-185.9024638474
 20
409.0577172832
  0
VERTEX
  8
0
 62
7
  6
CONTINUOUS
 10
-185.6655101915
 20
408.6441380362
  0
VERTEX
  8
0
 62
7
  6
CONTINUOUS
 10
-185.4310017983
 20
408.248971957
  0
VERTEX
  8
0
 62
7
  6
CONTINUOUS
 10
-185.2027183094
 20
407.8765635162
  0
VERTEX
  8
0
 62
7
  6
CONTINUOUS
 10
-184.9823074127
 20
407.5266219838
  0
VERTEX
  8
0
 62
7
  6
CONTINUOUS
 10
-184.771729805
 20
407.2002499939
  0
VERTEX
  8
0
 62
7
  6
CONTINUOUS
 10
-184.5724589207
 20
406.8976119243
  0
VERTEX
  8
0
 62
7
  6
CONTINUOUS
 10
-184.3860204641
 20
406.6195153322
  0
VERTEX
  8
0
 62
7
  6
CONTINUOUS
 10
-184.2128024883
 20
406.3651333142
  0
VERTEX
  8
0
 62
7
  6
CONTINUOUS
 10
-184.0533735191
 20
406.1340969036
  0
VERTEX
  8
0
 62
7
  6
CONTINUOUS
 10
-183.907977312
 20
405.9258398479
  0
VERTEX
  8
0
 62
7
  6
CONTINUOUS
 10
-183.7769258718
 20
405.7399380165
  0
VERTEX
  8
0
 62
7
  6
CONTINUOUS
 10
-183.5571507128
 20
405.4319846144
  0
SEQEND
  0
LINE
  8
0
 62
7
  6
CONTINUOUS
 10
-183.660155421
 20
426.3722537923
 11
-183.9081760169
 21
426.0219159097
  0
LINE
  8
0
 62
7
  6
CONTINUOUS
 10
-183.4684242026
 20
426.6391476138
 11
-183.660155421
 21
426.3722537923
  0
POLYLINE
  8
0
 62
7
  6
CONTINUOUS
 66
1
 70
0
  0
VERTEX
  8
0
 62
7
  6
CONTINUOUS
 10
-183.2313289527
 20
426.964933211
  0
VERTEX
  8
0
 62
7
  6
CONTINUOUS
 10
-183.2853102007
 20
426.8911108837
  0
VERTEX
  8
0
 62
7
  6
CONTINUOUS
 10
-183.4684242026
 20
426.6391476138
  0
SEQEND
  0
LINE
  8
0
 62
7
  6
CONTINUOUS
 10
-183.224607958
 20
426.9740194371
 11
-183.2313289527
 21
426.964933211
  0
LINE
  8
0
 62
7
  6
CONTINUOUS
 10
-183.224607958
 20
-317.0259805629
 11
551.775392042
 21
-317.0259805629
  0
LINE
  8
0
 62
7
  6
CONTINUOUS
 10
551.775392042
 20
-295.0259805629
 11
-183.224607958
 21
-295.0259805629
  0
LINE
  8
0
 62
7
  6
CONTINUOUS
 10
-183.2313276215
 20
-123.0168943421
 11
-183.224607958
 21
-123.0259805629
  0
LINE
  8
0
 62
7
  6
CONTINUOUS
 10
-183.3936084928
 20
-122.7944415845
 11
-183.2313276215
 21
-123.0168943421
  0
LINE
  8
0
 62
7
  6
CONTINUOUS
 10
-183.5571507128
 20
-122.5680153856
 11
-183.3936084928
 21
-122.7944415845
  0
LINE
  8
0
 62
7
  6
CONTINUOUS
 10
-213.224607958
 20
664.4740194371
 11
-213.224607958
 21
-360.5259805629
  0
LINE
  8
0
 62
7
  6
CONTINUOUS
 10
-183.224607958
 20
664.4740194371
 11
-183.224607958
 21
620.9740194371
  0
LINE
  8
0
 62
7
  6
CONTINUOUS
 10
-183.224607958
 20
598.9740194371
 11
-183.224607958
 21
523.9740194371
  0
LINE
  8
0
 62
7
  6
CONTINUOUS
 10
-183.224607958
 20
501.9740194371
 11
-183.224607958
 21
426.9740194371
  0
LINE
  8
0
 62
7
  6
CONTINUOUS
 10
-183.224607958
 20
404.9740194371
 11
-183.224607958
 21
259.9740194371
  0
LINE
  8
0
 62
7
  6
CONTINUOUS
 10
-183.224607958
 20
237.9740194371
 11
-183.224607958
 21
162.9740194371
  0
LINE
  8
0
 62
7
  6
CONTINUOUS
 10
-183.224607958
 20
140.9740194371
 11
-183.224607958
 21
65.9740194371
  0
LINE
  8
0
 62
7
  6
CONTINUOUS
 10
-183.224607958
 20
43.9740194371
 11
-183.224607958
 21
-101.0259805629
  0
LINE
  8
0
 62
7
  6
CONTINUOUS
 10
-183.224607958
 20
-123.0259805629
 11
-183.224607958
 21
-198.0259805629
  0
LINE
  8
0
 62
7
  6
CONTINUOUS
 10
-183.224607958
 20
-220.0259805629
 11
-183.224607958
 21
-295.0259805629
  0
LINE
  8
0
 62
7
  6
CONTINUOUS
 10
-183.224607958
 20
-317.0259805629
 11
-183.224607958
 21
-360.5259805629
  0
POLYLINE
  8
0
 62
7
  6
CONTINUOUS
 66
1
 70
0
  0
VERTEX
  8
0
 62
7
  6
CONTINUOUS
 10
-183.9081760169
 20
259.0219159097
  0
VERTEX
  8
0
 62
7
  6
CONTINUOUS
 10
-184.053581438
 20
258.8136445319
  0
VERTEX
  8
0
 62
7
  6
CONTINUOUS
 10
-184.2130116152
 20
258.5826006057
  0
VERTEX
  8
0
 62
7
  6
CONTINUOUS
 10
-184.3862416731
 20
258.3281947434
  0
VERTEX
  8
0
 62
7
  6
CONTINUOUS
 10
-184.5726880292
 20
258.0500823359
  0
VERTEX
  8
0
 62
7
  6
CONTINUOUS
 10
-184.7719510512
 20
257.7474485274
  0
VERTEX
  8
0
 62
7
  6
CONTINUOUS
 10
-184.9825002003
 20
257.4211146697
  0
VERTEX
  8
0
 62
7
  6
CONTINUOUS
 10
-185.2028408404
 20
257.0712825132
  0
VERTEX
  8
0
 62
7
  6
CONTINUOUS
 10
-185.4310446159
 20
256.6989960059
  0
VERTEX
  8
0
 62
7
  6
CONTINUOUS
 10
-185.6654924691
 20
256.3039359962
  0
VERTEX
  8
0
 62
7
  6
CONTINUOUS
 10
-185.9024234669
 20
255.8903935329
  0
VERTEX
  8
0
 62
7
  6
CONTINUOUS
 10
-186.1379671932
 20
255.4611760983
  0
VERTEX
  8
0
 62
7
  6
CONTINUOUS
 10
-186.368853987
 20
255.0204152413
  0
VERTEX
  8
0
 62
7
  6
CONTINUOUS
 10
-186.5909477801
 20
254.5721902279
  0
VERTEX
  8
0
 62
7
  6
CONTINUOUS
 10
-186.8020156931
 20
254.1194653896
  0
VERTEX
  8
0
 62
7
  6
CONTINUOUS
 10
-186.9990257326
 20
253.6656442538
  0
VERTEX
  8
0
 62
7
  6
CONTINUOUS
 10
-187.1804648075
 20
253.2134884993
  0
VERTEX
  8
0
 62
7
  6
CONTINUOUS
 10
-187.3440374977
 20
252.7670420339
  0
VERTEX
  8
0
 62
7
  6
CONTINUOUS
 10
-187.4898584714
 20
252.325861698
  0
VERTEX
  8
0
 62
7
  6
CONTINUOUS
 10
-187.6175720216
 20
251.8913294454
  0
VERTEX
  8
0
 62
7
  6
CONTINUOUS
 10
-187.7274599564
 20
251.462013844
  0
VERTEX
  8
0
 62
7
  6
CONTINUOUS
 10
-187.8200394222
 20
251.036876064
  0
VERTEX
  8
0
 62
7
  6
CONTINUOUS
 10
-187.895208407
 20
250.6161202518
  0
VERTEX
  8
0
 62
7
  6
CONTINUOUS
 10
-187.9531919796
 20
250.1998231412
  0
VERTEX
  8
0
 62
7
  6
CONTINUOUS
 10
-187.9941890494
 20
249.7873281399
  0
VERTEX
  8
0
 62
7
  6
CONTINUOUS
 10
-188.0186324233
 20
249.3786980088
  0
VERTEX
  8
0
 62
7
  6
CONTINUOUS
 10
-188.0265687004
 20
248.9718514219
  0
VERTEX
  8
0
 62
7
  6
CONTINUOUS
 10
-188.0184816227
 20
248.5653222309
  0
VERTEX
  8
0
 62
7
  6
CONTINUOUS
 10
-187.9939195427
 20
248.1573276637
  0
VERTEX
  8
0
 62
7
  6
CONTINUOUS
 10
-187.9528855557
 20
247.745599913
  0
VERTEX
  8
0
 62
7
  6
CONTINUOUS
 10
-187.8949235838
 20
247.3301279348
  0
VERTEX
  8
0
 62
7
  6
CONTINUOUS
 10
-187.8198425099
 20
246.9101438956
  0
VERTEX
  8
0
 62
7
  6
CONTINUOUS
 10
-187.7273711461
 20
246.4856503557
  0
VERTEX
  8
0
 62
7
  6
CONTINUOUS
 10
-187.6175730316
 20
246.0567166555
  0
VERTEX
  8
0
 62
7
  6
CONTINUOUS
 10
-187.4899201202
 20
245.6223746207
  0
VERTEX
  8
0
 62
7
  6
CONTINUOUS
 10
-187.3440956992
 20
245.1811786281
  0
VERTEX
  8
0
 62
7
  6
CONTINUOUS
 10
-187.1804955126
 20
244.7346303647
  0
VERTEX
  8
0
 62
7
  6
CONTINUOUS
 10
-186.9990380671
 20
244.2824221392
  0
VERTEX
  8
0
 62
7
  6
CONTINUOUS
 10
-186.8019990161
 20
243.8285364626
  0
VERTEX
  8
0
 62
7
  6
CONTINUOUS
 10
-186.5908598522
 20
243.3756771186
  0
VERTEX
  8
0
 62
7
  6
CONTINUOUS
 10
-186.3687259581
 20
242.927372598
  0
VERTEX
  8
0
 62
7
  6
CONTINUOUS
 10
-186.1379251513
 20
242.4867687819
  0
VERTEX
  8
0
 62
7
  6
CONTINUOUS
 10
-185.9024638474
 20
242.0577172832
  0
VERTEX
  8
0
 62
7
  6
CONTINUOUS
 10
-185.6655101915
 20
241.6441380362
  0
VERTEX
  8
0
 62
7
  6
CONTINUOUS
 10
-185.4310017983
 20
241.248971957
  0
VERTEX
  8
0
 62
7
  6
CONTINUOUS
 10
-185.2027183094
 20
240.8765635162
  0
VERTEX
  8
0
 62
7
  6
CONTINUOUS
 10
-184.9823074127
 20
240.5266219838
  0
VERTEX
  8
0
 62
7
  6
CONTINUOUS
 10
-184.771729805
 20
240.2002499939
  0
VERTEX
  8
0
 62
7
  6
CONTINUOUS
 10
-184.5724589207
 20
239.8976119243
  0
VERTEX
  8
0
 62
7
  6
CONTINUOUS
 10
-184.3860204641
 20
239.6195153322
  0
VERTEX
  8
0
 62
7
  6
CONTINUOUS
 10
-184.2128024883
 20
239.3651333142
  0
VERTEX
  8
0
 62
7
  6
CONTINUOUS
 10
-184.0533735191
 20
239.1340969036
  0
VERTEX
  8
0
 62
7
  6
CONTINUOUS
 10
-183.907977312
 20
238.9258398479
  0
VERTEX
  8
0
 62
7
  6
CONTINUOUS
 10
-183.7769258718
 20
238.7399380165
  0
VERTEX
  8
0
 62
7
  6
CONTINUOUS
 10
-183.5571507128
 20
238.4319846144
  0
SEQEND
  0
LINE
  8
0
 62
7
  6
CONTINUOUS
 10
-183.660155421
 20
259.3722537923
 11
-183.9081760169
 21
259.0219159097
  0
LINE
  8
0
 62
7
  6
CONTINUOUS
 10
-183.4684242026
 20
259.6391476138
 11
-183.660155421
 21
259.3722537923
  0
POLYLINE
  8
0
 62
7
  6
CONTINUOUS
 66
1
 70
0
  0
VERTEX
  8
0
 62
7
  6
CONTINUOUS
 10
-183.2313289527
 20
259.964933211
  0
VERTEX
  8
0
 62
7
  6
CONTINUOUS
 10
-183.2853102007
 20
259.8911108837
  0
VERTEX
  8
0
 62
7
  6
CONTINUOUS
 10
-183.4684242026
 20
259.6391476138
  0
SEQEND
  0
LINE
  8
0
 62
7
  6
CONTINUOUS
 10
-183.224607958
 20
259.9740194371
 11
-183.2313289527
 21
259.964933211
  0
LINE
  8
0
 62
7
  6
CONTINUOUS
 10
-183.224607958
 20
-220.0259805629
 11
551.775392042
 21
-220.0259805629
  0
LINE
  8
0
 62
7
  6
CONTINUOUS
 10
551.775392042
 20
-198.0259805629
 11
-183.224607958
 21
-198.0259805629
  0
LINE
  8
0
 62
7
  6
CONTINUOUS
 10
-183.2313276215
 20
43.9831056579
 11
-183.224607958
 21
43.9740194371
  0
LINE
  8
0
 62
7
  6
CONTINUOUS
 10
-183.3936084928
 20
44.2055584155
 11
-183.2313276215
 21
43.9831056579
  0
LINE
  8
0
 62
7
  6
CONTINUOUS
 10
-183.5571507128
 20
44.4319846144
 11
-183.3936084928
 21
44.2055584155
  0
POLYLINE
  8
0
 62
7
  6
CONTINUOUS
 66
1
 70
0
  0
VERTEX
  8
0
 62
7
  6
CONTINUOUS
 10
-183.9083236486
 20
162.0217055602
  0
VERTEX
  8
0
 62
7
  6
CONTINUOUS
 10
-184.0537598522
 20
161.8133877413
  0
VERTEX
  8
0
 62
7
  6
CONTINUOUS
 10
-184.213224575
 20
161.582290057
  0
VERTEX
  8
0
 62
7
  6
CONTINUOUS
 10
-184.3864949024
 20
161.3278198476
  0
VERTEX
  8
0
 62
7
  6
CONTINUOUS
 10
-184.5729847427
 20
161.0496360229
  0
VERTEX
  8
0
 62
7
  6
CONTINUOUS
 10
-184.7722930591
 20
160.7469235133
  0
VERTEX
  8
0
 62
7
  6
CONTINUOUS
 10
-184.98288489
 20
160.4205115972
  0
VERTEX
  8
0
 62
7
  6
CONTINUOUS
 10
-185.2032587463
 20
160.0706105658
  0
VERTEX
  8
0
 62
7
  6
CONTINUOUS
 10
-185.4314876209
 20
159.6982623101
  0
VERTEX
  8
0
 62
7
  6
CONTINUOUS
 10
-185.6659471706
 20
159.3031594147
  0
VERTEX
  8
0
 62
7
  6
CONTINUOUS
 10
-185.9028912545
 20
158.88956009
  0
VERTEX
  8
0
 62
7
  6
CONTINUOUS
 10
-186.1384688707
 20
158.4602415972
  0
VERTEX
  8
0
 62
7
  6
CONTINUOUS
 10
-186.3694026424
 20
158.0193393687
  0
VERTEX
  8
0
 62
7
  6
CONTINUOUS
 10
-186.5915742131
 20
157.5708750766
  0
VERTEX
  8
0
 62
7
  6
CONTINUOUS
 10
-186.8026904643
 20
157.1179672628
  0
VERTEX
  8
0
 62
7
  6
CONTINUOUS
 10
-186.9996363888
 20
156.6641891349
  0
VERTEX
  8
0
 62
7
  6
CONTINUOUS
 10
-187.1809599804
 20
156.2121983685
  0
VERTEX
  8
0
 62
7
  6
CONTINUOUS
 10
-187.3443237467
 20
155.7663453578
  0
VERTEX
  8
0
 62
7
  6
CONTINUOUS
 10
-187.4900884282
 20
155.3251251554
  0
VERTEX
  8
0
 62
7
  6
CONTINUOUS
 10
-187.6182791801
 20
154.8886842143
  0
VERTEX
  8
0
 62
7
  6
CONTINUOUS
 10
-187.7287846821
 20
154.456418728
  0
VERTEX
  8
0
 62
7
  6
CONTINUOUS
 10
-187.8218884821
 20
154.0271632162
  0
VERTEX
  8
0
 62
7
  6
CONTINUOUS
 10
-187.89732562
 20
153.6027491536
  0
VERTEX
  8
0
 62
7
  6
CONTINUOUS
 10
-187.9549472065
 20
153.1844273308
  0
VERTEX
  8
0
 62
7
  6
CONTINUOUS
 10
-187.9953357766
 20
152.7727743196
  0
VERTEX
  8
0
 62
7
  6
CONTINUOUS
 10
-188.0190664325
 20
152.3706936419
  0
VERTEX
  8
0
 62
7
  6
CONTINUOUS
 10
-188.0265688109
 20
151.972455238
  0
VERTEX
  8
0
 62
7
  6
CONTINUOUS
 10
-188.0189747341
 20
151.5746157227
  0
VERTEX
  8
0
 62
7
  6
CONTINUOUS
 10
-187.995175814
 20
151.1732185941
  0
VERTEX
  8
0
 62
7
  6
CONTINUOUS
 10
-187.954782555
 20
150.7621812718
  0
VERTEX
  8
0
 62
7
  6
CONTINUOUS
 10
-187.8971913554
 20
150.344438606
  0
VERTEX
  8
0
 62
7
  6
CONTINUOUS
 10
-187.8218122733
 20
149.9204816263
  0
VERTEX
  8
0
 62
7
  6
CONTINUOUS
 10
-187.7287702707
 20
149.4915592139
  0
VERTEX
  8
0
 62
7
  6
CONTINUOUS
 10
-187.618304203
 20
149.0594525154
  0
VERTEX
  8
0
 62
7
  6
CONTINUOUS
 10
-187.4901327709
 20
148.6230557631
  0
VERTEX
  8
0
 62
7
  6
CONTINUOUS
 10
-187.3443528178
 20
148.1817863913
  0
VERTEX
  8
0
 62
7
  6
CONTINUOUS
 10
-187.1809659036
 20
147.7358559402
  0
VERTEX
  8
0
 62
7
  6
CONTINUOUS
 10
-186.9996430054
 20
147.2838596584
  0
VERTEX
  8
0
 62
7
  6
CONTINUOUS
 10
-186.8026869715
 20
146.8300638557
  0
VERTEX
  8
0
 62
7
  6
CONTINUOUS
 10
-186.5915009164
 20
146.3770240329
  0
VERTEX
  8
0
 62
7
  6
CONTINUOUS
 10
-186.3692845208
 20
145.9284678657
  0
VERTEX
  8
0
 62
7
  6
CONTINUOUS
 10
-186.138429763
 20
145.4877094066
  0
VERTEX
  8
0
 62
7
  6
CONTINUOUS
 10
-185.9029284321
 20
145.0585450254
  0
VERTEX
  8
0
 62
7
  6
CONTINUOUS
 10
-185.6659611541
 20
144.6449078995
  0
VERTEX
  8
0
 62
7
  6
CONTINUOUS
 10
-185.4314423942
 20
144.2497016586
  0
VERTEX
  8
0
 62
7
  6
CONTINUOUS
 10
-185.2031353845
 20
143.8772339958
  0
VERTEX
  8
0
 62
7
  6
CONTINUOUS
 10
-184.9826926469
 20
143.527225897
  0
VERTEX
  8
0
 62
7
  6
CONTINUOUS
 10
-184.7720725615
 20
143.2007761925
  0
VERTEX
  8
0
 62
7
  6
CONTINUOUS
 10
-184.5727561754
 20
142.8980590418
  0
VERTEX
  8
0
 62
7
  6
CONTINUOUS
 10
-184.386273902
 20
142.6198905585
  0
VERTEX
  8
0
 62
7
  6
CONTINUOUS
 10
-184.2130153479
 20
142.3654437115
  0
VERTEX
  8
0
 62
7
  6
CONTINUOUS
 10
-184.0535517475
 20
142.134353418
  0
VERTEX
  8
0
 62
7
  6
CONTINUOUS
 10
-183.9081247697
 20
141.9260499466
  0
VERTEX
  8
0
 62
7
  6
CONTINUOUS
 10
-183.777045701
 20
141.7401070776
  0
VERTEX
  8
0
 62
7
  6
CONTINUOUS
 10
-183.5572233901
 20
141.4320857485
  0
SEQEND
  0
LINE
  8
0
 62
7
  6
CONTINUOUS
 10
-183.6602504617
 20
162.3721206716
 11
-183.9083236486
 21
162.0217055602
  0
LINE
  8
0
 62
7
  6
CONTINUOUS
 10
-183.4684773121
 20
162.6390741317
 11
-183.6602504617
 21
162.3721206716
  0
POLYLINE
  8
0
 62
7
  6
CONTINUOUS
 66
1
 70
0
  0
VERTEX
  8
0
 62
7
  6
CONTINUOUS
 10
-183.2313303416
 20
162.9649314152
  0
VERTEX
  8
0
 62
7
  6
CONTINUOUS
 10
-183.2853230886
 20
162.8910932323
  0
VERTEX
  8
0
 62
7
  6
CONTINUOUS
 10
-183.4684773121
 20
162.6390741317
  0
SEQEND
  0
LINE
  8
0
 62
7
  6
CONTINUOUS
 10
-183.224607958
 20
162.9740194371
 11
-183.2313303416
 21
162.9649314152
  0
LINE
  8
0
 62
7
  6
CONTINUOUS
 10
-183.2313290077
 20
140.9831074452
 11
-183.224607958
 21
140.9740194371
  0
LINE
  8
0
 62
7
  6
CONTINUOUS
 10
-183.3936451481
 20
141.2056089157
 11
-183.2313290077
 21
140.9831074452
  0
LINE
  8
0
 62
7
  6
CONTINUOUS
 10
-183.5572233901
 20
141.4320857485
 11
-183.3936451481
 21
141.2056089157
  0
LINE
  8
0
 62
7
  6
CONTINUOUS
 10
-183.224607958
 20
-123.0259805629
 11
551.775392042
 21
-123.0259805629
  0
POLYLINE
  8
0
 62
7
  6
CONTINUOUS
 66
1
 70
0
  0
VERTEX
  8
0
 62
7
  6
CONTINUOUS
 10
-183.9081760169
 20
65.0219159097
  0
VERTEX
  8
0
 62
7
  6
CONTINUOUS
 10
-184.053581438
 20
64.8136445319
  0
VERTEX
  8
0
 62
7
  6
CONTINUOUS
 10
-184.2130116152
 20
64.5826006057
  0
VERTEX
  8
0
 62
7
  6
CONTINUOUS
 10
-184.3862416731
 20
64.3281947434
  0
VERTEX
  8
0
 62
7
  6
CONTINUOUS
 10
-184.5726880292
 20
64.0500823359
  0
VERTEX
  8
0
 62
7
  6
CONTINUOUS
 10
-184.7719510512
 20
63.7474485274
  0
VERTEX
  8
0
 62
7
  6
CONTINUOUS
 10
-184.9825002003
 20
63.4211146697
  0
VERTEX
  8
0
 62
7
  6
CONTINUOUS
 10
-185.2028408404
 20
63.0712825132
  0
VERTEX
  8
0
 62
7
  6
CONTINUOUS
 10
-185.4310446159
 20
62.6989960059
  0
VERTEX
  8
0
 62
7
  6
CONTINUOUS
 10
-185.6654924691
 20
62.3039359962
  0
VERTEX
  8
0
 62
7
  6
CONTINUOUS
 10
-185.9024234669
 20
61.8903935329
  0
VERTEX
  8
0
 62
7
  6
CONTINUOUS
 10
-186.1379671932
 20
61.4611760983
  0
VERTEX
  8
0
 62
7
  6
CONTINUOUS
 10
-186.368853987
 20
61.0204152413
  0
VERTEX
  8
0
 62
7
  6
CONTINUOUS
 10
-186.5909477801
 20
60.5721902279
  0
VERTEX
  8
0
 62
7
  6
CONTINUOUS
 10
-186.8020156931
 20
60.1194653896
  0
VERTEX
  8
0
 62
7
  6
CONTINUOUS
 10
-186.9990257326
 20
59.6656442538
  0
VERTEX
  8
0
 62
7
  6
CONTINUOUS
 10
-187.1804648075
 20
59.2134884993
  0
VERTEX
  8
0
 62
7
  6
CONTINUOUS
 10
-187.3440374977
 20
58.7670420339
  0
VERTEX
  8
0
 62
7
  6
CONTINUOUS
 10
-187.4898584714
 20
58.325861698
  0
VERTEX
  8
0
 62
7
  6
CONTINUOUS
 10
-187.6175720216
 20
57.8913294454
  0
VERTEX
  8
0
 62
7
  6
CONTINUOUS
 10
-187.7274599564
 20
57.462013844
  0
VERTEX
  8
0
 62
7
  6
CONTINUOUS
 10
-187.8200394222
 20
57.036876064
  0
VERTEX
  8
0
 62
7
  6
CONTINUOUS
 10
-187.895208407
 20
56.6161202518
  0
VERTEX
  8
0
 62
7
  6
CONTINUOUS
 10
-187.9531919796
 20
56.1998231412
  0
VERTEX
  8
0
 62
7
  6
CONTINUOUS
 10
-187.9941890494
 20
55.7873281399
  0
VERTEX
  8
0
 62
7
  6
CONTINUOUS
 10
-188.0186324233
 20
55.3786980088
  0
VERTEX
  8
0
 62
7
  6
CONTINUOUS
 10
-188.0265687004
 20
54.9718514219
  0
VERTEX
  8
0
 62
7
  6
CONTINUOUS
 10
-188.0184816227
 20
54.5653222309
  0
VERTEX
  8
0
 62
7
  6
CONTINUOUS
 10
-187.9939195427
 20
54.1573276637
  0
VERTEX
  8
0
 62
7
  6
CONTINUOUS
 10
-187.9528855557
 20
53.745599913
  0
VERTEX
  8
0
 62
7
  6
CONTINUOUS
 10
-187.8949235838
 20
53.3301279348
  0
VERTEX
  8
0
 62
7
  6
CONTINUOUS
 10
-187.8198425099
 20
52.9101438956
  0
VERTEX
  8
0
 62
7
  6
CONTINUOUS
 10
-187.7273711461
 20
52.4856503557
  0
VERTEX
  8
0
 62
7
  6
CONTINUOUS
 10
-187.6175730316
 20
52.0567166555
  0
VERTEX
  8
0
 62
7
  6
CONTINUOUS
 10
-187.4899201202
 20
51.6223746207
  0
VERTEX
  8
0
 62
7
  6
CONTINUOUS
 10
-187.3440956992
 20
51.1811786281
  0
VERTEX
  8
0
 62
7
  6
CONTINUOUS
 10
-187.1804955126
 20
50.7346303647
  0
VERTEX
  8
0
 62
7
  6
CONTINUOUS
 10
-186.9990380671
 20
50.2824221392
  0
VERTEX
  8
0
 62
7
  6
CONTINUOUS
 10
-186.8019990161
 20
49.8285364626
  0
VERTEX
  8
0
 62
7
  6
CONTINUOUS
 10
-186.5908598522
 20
49.3756771186
  0
VERTEX
  8
0
 62
7
  6
CONTINUOUS
 10
-186.3687259581
 20
48.927372598
  0
VERTEX
  8
0
 62
7
  6
CONTINUOUS
 10
-186.1379251513
 20
48.4867687819
  0
VERTEX
  8
0
 62
7
  6
CONTINUOUS
 10
-185.9024638474
 20
48.0577172832
  0
VERTEX
  8
0
 62
7
  6
CONTINUOUS
 10
-185.6655101915
 20
47.6441380362
  0
VERTEX
  8
0
 62
7
  6
CONTINUOUS
 10
-185.4310017983
 20
47.248971957
  0
VERTEX
  8
0
 62
7
  6
CONTINUOUS
 10
-185.2027183094
 20
46.8765635162
  0
VERTEX
  8
0
 62
7
  6
CONTINUOUS
 10
-184.9823074127
 20
46.5266219838
  0
VERTEX
  8
0
 62
7
  6
CONTINUOUS
 10
-184.771729805
 20
46.2002499939
  0
VERTEX
  8
0
 62
7
  6
CONTINUOUS
 10
-184.5724589207
 20
45.8976119243
  0
VERTEX
  8
0
 62
7
  6
CONTINUOUS
 10
-184.3860204641
 20
45.6195153322
  0
VERTEX
  8
0
 62
7
  6
CONTINUOUS
 10
-184.2128024883
 20
45.3651333142
  0
VERTEX
  8
0
 62
7
  6
CONTINUOUS
 10
-184.0533735191
 20
45.1340969036
  0
VERTEX
  8
0
 62
7
  6
CONTINUOUS
 10
-183.907977312
 20
44.9258398479
  0
VERTEX
  8
0
 62
7
  6
CONTINUOUS
 10
-183.7769258718
 20
44.7399380165
  0
VERTEX
  8
0
 62
7
  6
CONTINUOUS
 10
-183.5571507128
 20
44.4319846144
  0
SEQEND
  0
LINE
  8
0
 62
7
  6
CONTINUOUS
 10
-183.660155421
 20
65.3722537923
 11
-183.9081760169
 21
65.0219159097
  0
LINE
  8
0
 62
7
  6
CONTINUOUS
 10
-183.4684242026
 20
65.6391476138
 11
-183.660155421
 21
65.3722537923
  0
POLYLINE
  8
0
 62
7
  6
CONTINUOUS
 66
1
 70
0
  0
VERTEX
  8
0
 62
7
  6
CONTINUOUS
 10
-183.2313289527
 20
65.964933211
  0
VERTEX
  8
0
 62
7
  6
CONTINUOUS
 10
-183.2853102007
 20
65.8911108837
  0
VERTEX
  8
0
 62
7
  6
CONTINUOUS
 10
-183.4684242026
 20
65.6391476138
  0
SEQEND
  0
LINE
  8
0
 62
7
  6
CONTINUOUS
 10
-183.224607958
 20
65.9740194371
 11
-183.2313289527
 21
65.964933211
  0
LINE
  8
0
 62
7
  6
CONTINUOUS
 10
551.775392042
 20
-101.0259805629
 11
-183.224607958
 21
-101.0259805629
  0
LINE
  8
0
 62
7
  6
CONTINUOUS
 10
-183.2313276215
 20
237.9831056579
 11
-183.224607958
 21
237.9740194371
  0
LINE
  8
0
 62
7
  6
CONTINUOUS
 10
-183.3936084928
 20
238.2055584155
 11
-183.2313276215
 21
237.9831056579
  0
LINE
  8
0
 62
7
  6
CONTINUOUS
 10
-183.5571507128
 20
238.4319846144
 11
-183.3936084928
 21
238.2055584155
  0
POLYLINE
  8
0
 62
7
  6
CONTINUOUS
 66
1
 70
0
  0
VERTEX
  8
0
 62
7
  6
CONTINUOUS
 10
-183.9081760169
 20
-101.9780840903
  0
VERTEX
  8
0
 62
7
  6
CONTINUOUS
 10
-184.053581438
 20
-102.1863554681
  0
VERTEX
  8
0
 62
7
  6
CONTINUOUS
 10
-184.2130116152
 20
-102.4173993943
  0
VERTEX
  8
0
 62
7
  6
CONTINUOUS
 10
-184.3862416731
 20
-102.6718052566
  0
VERTEX
  8
0
 62
7
  6
CONTINUOUS
 10
-184.5726880292
 20
-102.9499176641
  0
VERTEX
  8
0
 62
7
  6
CONTINUOUS
 10
-184.7719510512
 20
-103.2525514726
  0
VERTEX
  8
0
 62
7
  6
CONTINUOUS
 10
-184.9825002003
 20
-103.5788853303
  0
VERTEX
  8
0
 62
7
  6
CONTINUOUS
 10
-185.2028408404
 20
-103.9287174868
  0
VERTEX
  8
0
 62
7
  6
CONTINUOUS
 10
-185.4310446159
 20
-104.3010039941
  0
VERTEX
  8
0
 62
7
  6
CONTINUOUS
 10
-185.6654924691
 20
-104.6960640038
  0
VERTEX
  8
0
 62
7
  6
CONTINUOUS
 10
-185.9024234669
 20
-105.1096064671
  0
VERTEX
  8
0
 62
7
  6
CONTINUOUS
 10
-186.1379671932
 20
-105.5388239017
  0
VERTEX
  8
0
 62
7
  6
CONTINUOUS
 10
-186.368853987
 20
-105.9795847587
  0
VERTEX
  8
0
 62
7
  6
CONTINUOUS
 10
-186.5909477801
 20
-106.4278097721
  0
VERTEX
  8
0
 62
7
  6
CONTINUOUS
 10
-186.8020156931
 20
-106.8805346104
  0
VERTEX
  8
0
 62
7
  6
CONTINUOUS
 10
-186.9990257326
 20
-107.3343557462
  0
VERTEX
  8
0
 62
7
  6
CONTINUOUS
 10
-187.1804648075
 20
-107.7865115007
  0
VERTEX
  8
0
 62
7
  6
CONTINUOUS
 10
-187.3440374977
 20
-108.2329579661
  0
VERTEX
  8
0
 62
7
  6
CONTINUOUS
 10
-187.4898584714
 20
-108.674138302
  0
VERTEX
  8
0
 62
7
  6
CONTINUOUS
 10
-187.6175720216
 20
-109.1086705546
  0
VERTEX
  8
0
 62
7
  6
CONTINUOUS
 10
-187.7274599564
 20
-109.537986156
  0
VERTEX
  8
0
 62
7
  6
CONTINUOUS
 10
-187.8200394222
 20
-109.963123936
  0
VERTEX
  8
0
 62
7
  6
CONTINUOUS
 10
-187.895208407
 20
-110.3838797482
  0
VERTEX
  8
0
 62
7
  6
CONTINUOUS
 10
-187.9531919796
 20
-110.8001768588
  0
VERTEX
  8
0
 62
7
  6
CONTINUOUS
 10
-187.9941890494
 20
-111.2126718601
  0
VERTEX
  8
0
 62
7
  6
CONTINUOUS
 10
-188.0186324233
 20
-111.6213019912
  0
VERTEX
  8
0
 62
7
  6
CONTINUOUS
 10
-188.0265687004
 20
-112.0281485781
  0
VERTEX
  8
0
 62
7
  6
CONTINUOUS
 10
-188.0184816227
 20
-112.4346777691
  0
VERTEX
  8
0
 62
7
  6
CONTINUOUS
 10
-187.9939195427
 20
-112.8426723363
  0
VERTEX
  8
0
 62
7
  6
CONTINUOUS
 10
-187.9528855557
 20
-113.254400087
  0
VERTEX
  8
0
 62
7
  6
CONTINUOUS
 10
-187.8949235838
 20
-113.6698720652
  0
VERTEX
  8
0
 62
7
  6
CONTINUOUS
 10
-187.8198425099
 20
-114.0898561044
  0
VERTEX
  8
0
 62
7
  6
CONTINUOUS
 10
-187.7273711461
 20
-114.5143496443
  0
VERTEX
  8
0
 62
7
  6
CONTINUOUS
 10
-187.6175730316
 20
-114.9432833445
  0
VERTEX
  8
0
 62
7
  6
CONTINUOUS
 10
-187.4899201202
 20
-115.3776253793
  0
VERTEX
  8
0
 62
7
  6
CONTINUOUS
 10
-187.3440956992
 20
-115.8188213719
  0
VERTEX
  8
0
 62
7
  6
CONTINUOUS
 10
-187.1804955126
 20
-116.2653696353
  0
VERTEX
  8
0
 62
7
  6
CONTINUOUS
 10
-186.9990380671
 20
-116.7175778608
  0
VERTEX
  8
0
 62
7
  6
CONTINUOUS
 10
-186.8019990161
 20
-117.1714635374
  0
VERTEX
  8
0
 62
7
  6
CONTINUOUS
 10
-186.5908598522
 20
-117.6243228814
  0
VERTEX
  8
0
 62
7
  6
CONTINUOUS
 10
-186.3687259581
 20
-118.072627402
  0
VERTEX
  8
0
 62
7
  6
CONTINUOUS
 10
-186.1379251513
 20
-118.5132312181
  0
VERTEX
  8
0
 62
7
  6
CONTINUOUS
 10
-185.9024638474
 20
-118.9422827168
  0
VERTEX
  8
0
 62
7
  6
CONTINUOUS
 10
-185.6655101915
 20
-119.3558619638
  0
VERTEX
  8
0
 62
7
  6
CONTINUOUS
 10
-185.4310017983
 20
-119.751028043
  0
VERTEX
  8
0
 62
7
  6
CONTINUOUS
 10
-185.2027183094
 20
-120.1234364838
  0
VERTEX
  8
0
 62
7
  6
CONTINUOUS
 10
-184.9823074127
 20
-120.4733780162
  0
VERTEX
  8
0
 62
7
  6
CONTINUOUS
 10
-184.771729805
 20
-120.7997500061
  0
VERTEX
  8
0
 62
7
  6
CONTINUOUS
 10
-184.5724589207
 20
-121.1023880757
  0
VERTEX
  8
0
 62
7
  6
CONTINUOUS
 10
-184.3860204641
 20
-121.3804846678
  0
VERTEX
  8
0
 62
7
  6
CONTINUOUS
 10
-184.2128024883
 20
-121.6348666858
  0
VERTEX
  8
0
 62
7
  6
CONTINUOUS
 10
-184.0533735191
 20
-121.8659030964
  0
VERTEX
  8
0
 62
7
  6
CONTINUOUS
 10
-183.907977312
 20
-122.0741601521
  0
VERTEX
  8
0
 62
7
  6
CONTINUOUS
 10
-183.7769258718
 20
-122.2600619835
  0
VERTEX
  8
0
 62
7
  6
CONTINUOUS
 10
-183.5571507128
 20
-122.5680153856
  0
SEQEND
  0
LINE
  8
0
 62
7
  6
CONTINUOUS
 10
-183.660155421
 20
-101.6277462077
 11
-183.9081760169
 21
-101.9780840903
  0
LINE
  8
0
 62
7
  6
CONTINUOUS
 10
-183.4684242026
 20
-101.3608523862
 11
-183.660155421
 21
-101.6277462077
  0
POLYLINE
  8
0
 62
7
  6
CONTINUOUS
 66
1
 70
0
  0
VERTEX
  8
0
 62
7
  6
CONTINUOUS
 10
-183.2313289527
 20
-101.035066789
  0
VERTEX
  8
0
 62
7
  6
CONTINUOUS
 10
-183.2853102007
 20
-101.1088891163
  0
VERTEX
  8
0
 62
7
  6
CONTINUOUS
 10
-183.4684242026
 20
-101.3608523862
  0
SEQEND
  0
LINE
  8
0
 62
7
  6
CONTINUOUS
 10
-183.224607958
 20
-101.0259805629
 11
-183.2313289527
 21
-101.035066789
  0
LINE
  8
0
 62
7
  6
CONTINUOUS
 10
-183.2313276215
 20
404.9831056579
 11
-183.224607958
 21
404.9740194371
  0
LINE
  8
0
 62
7
  6
CONTINUOUS
 10
-183.3936084928
 20
405.2055584155
 11
-183.2313276215
 21
404.9831056579
  0
LINE
  8
0
 62
7
  6
CONTINUOUS
 10
-183.5571507128
 20
405.4319846144
 11
-183.3936084928
 21
405.2055584155
  0
POLYLINE
  8
0
 62
7
  6
CONTINUOUS
 66
1
 70
0
  0
VERTEX
  8
0
 62
7
  6
CONTINUOUS
 10
-183.9081760169
 20
-198.9780840903
  0
VERTEX
  8
0
 62
7
  6
CONTINUOUS
 10
-184.053581438
 20
-199.1863554681
  0
VERTEX
  8
0
 62
7
  6
CONTINUOUS
 10
-184.2130116152
 20
-199.4173993943
  0
VERTEX
  8
0
 62
7
  6
CONTINUOUS
 10
-184.3862416731
 20
-199.6718052566
  0
VERTEX
  8
0
 62
7
  6
CONTINUOUS
 10
-184.5726880292
 20
-199.9499176641
  0
VERTEX
  8
0
 62
7
  6
CONTINUOUS
 10
-184.7719510512
 20
-200.2525514726
  0
VERTEX
  8
0
 62
7
  6
CONTINUOUS
 10
-184.9825002003
 20
-200.5788853303
  0
VERTEX
  8
0
 62
7
  6
CONTINUOUS
 10
-185.2028408404
 20
-200.9287174868
  0
VERTEX
  8
0
 62
7
  6
CONTINUOUS
 10
-185.4310446159
 20
-201.3010039941
  0
VERTEX
  8
0
 62
7
  6
CONTINUOUS
 10
-185.6654924691
 20
-201.6960640038
  0
VERTEX
  8
0
 62
7
  6
CONTINUOUS
 10
-185.9024234669
 20
-202.1096064671
  0
VERTEX
  8
0
 62
7
  6
CONTINUOUS
 10
-186.1379671932
 20
-202.5388239017
  0
VERTEX
  8
0
 62
7
  6
CONTINUOUS
 10
-186.368853987
 20
-202.9795847587
  0
VERTEX
  8
0
 62
7
  6
CONTINUOUS
 10
-186.5909477801
 20
-203.4278097721
  0
VERTEX
  8
0
 62
7
  6
CONTINUOUS
 10
-186.8020156931
 20
-203.8805346104
  0
VERTEX
  8
0
 62
7
  6
CONTINUOUS
 10
-186.9990257326
 20
-204.3343557462
  0
VERTEX
  8
0
 62
7
  6
CONTINUOUS
 10
-187.1804648075
 20
-204.7865115007
  0
VERTEX
  8
0
 62
7
  6
CONTINUOUS
 10
-187.3440374977
 20
-205.2329579661
  0
VERTEX
  8
0
 62
7
  6
CONTINUOUS
 10
-187.4898584714
 20
-205.674138302
  0
VERTEX
  8
0
 62
7
  6
CONTINUOUS
 10
-187.6175720216
 20
-206.1086705546
  0
VERTEX
  8
0
 62
7
  6
CONTINUOUS
 10
-187.7274599564
 20
-206.537986156
  0
VERTEX
  8
0
 62
7
  6
CONTINUOUS
 10
-187.8200394222
 20
-206.963123936
  0
VERTEX
  8
0
 62
7
  6
CONTINUOUS
 10
-187.895208407
 20
-207.3838797482
  0
VERTEX
  8
0
 62
7
  6
CONTINUOUS
 10
-187.9531919796
 20
-207.8001768588
  0
VERTEX
  8
0
 62
7
  6
CONTINUOUS
 10
-187.9941890494
 20
-208.2126718601
  0
VERTEX
  8
0
 62
7
  6
CONTINUOUS
 10
-188.0186324233
 20
-208.6213019912
  0
VERTEX
  8
0
 62
7
  6
CONTINUOUS
 10
-188.0265687004
 20
-209.0281485781
  0
VERTEX
  8
0
 62
7
  6
CONTINUOUS
 10
-188.0184816227
 20
-209.4346777691
  0
VERTEX
  8
0
 62
7
  6
CONTINUOUS
 10
-187.9939195427
 20
-209.8426723363
  0
VERTEX
  8
0
 62
7
  6
CONTINUOUS
 10
-187.9528855557
 20
-210.254400087
  0
VERTEX
  8
0
 62
7
  6
CONTINUOUS
 10
-187.8949235838
 20
-210.6698720652
  0
VERTEX
  8
0
 62
7
  6
CONTINUOUS
 10
-187.8198425099
 20
-211.0898561044
  0
VERTEX
  8
0
 62
7
  6
CONTINUOUS
 10
-187.7273711461
 20
-211.5143496443
  0
VERTEX
  8
0
 62
7
  6
CONTINUOUS
 10
-187.6175730316
 20
-211.9432833445
  0
VERTEX
  8
0
 62
7
  6
CONTINUOUS
 10
-187.4899201202
 20
-212.3776253793
  0
VERTEX
  8
0
 62
7
  6
CONTINUOUS
 10
-187.3440956992
 20
-212.8188213719
  0
VERTEX
  8
0
 62
7
  6
CONTINUOUS
 10
-187.1804955126
 20
-213.2653696353
  0
VERTEX
  8
0
 62
7
  6
CONTINUOUS
 10
-186.9990380671
 20
-213.7175778608
  0
VERTEX
  8
0
 62
7
  6
CONTINUOUS
 10
-186.8019990161
 20
-214.1714635374
  0
VERTEX
  8
0
 62
7
  6
CONTINUOUS
 10
-186.5908598522
 20
-214.6243228814
  0
VERTEX
  8
0
 62
7
  6
CONTINUOUS
 10
-186.3687259581
 20
-215.072627402
  0
VERTEX
  8
0
 62
7
  6
CONTINUOUS
 10
-186.1379251513
 20
-215.5132312181
  0
VERTEX
  8
0
 62
7
  6
CONTINUOUS
 10
-185.9024638474
 20
-215.9422827168
  0
VERTEX
  8
0
 62
7
  6
CONTINUOUS
 10
-185.6655101915
 20
-216.3558619638
  0
VERTEX
  8
0
 62
7
  6
CONTINUOUS
 10
-185.4310017983
 20
-216.751028043
  0
VERTEX
  8
0
 62
7
  6
CONTINUOUS
 10
-185.2027183094
 20
-217.1234364838
  0
VERTEX
  8
0
 62
7
  6
CONTINUOUS
 10
-184.9823074127
 20
-217.4733780162
  0
VERTEX
  8
0
 62
7
  6
CONTINUOUS
 10
-184.771729805
 20
-217.7997500061
  0
VERTEX
  8
0
 62
7
  6
CONTINUOUS
 10
-184.5724589207
 20
-218.1023880757
  0
VERTEX
  8
0
 62
7
  6
CONTINUOUS
 10
-184.3860204641
 20
-218.3804846678
  0
VERTEX
  8
0
 62
7
  6
CONTINUOUS
 10
-184.2128024883
 20
-218.6348666858
  0
VERTEX
  8
0
 62
7
  6
CONTINUOUS
 10
-184.0533735191
 20
-218.8659030964
  0
VERTEX
  8
0
 62
7
  6
CONTINUOUS
 10
-183.907977312
 20
-219.0741601521
  0
VERTEX
  8
0
 62
7
  6
CONTINUOUS
 10
-183.7769258718
 20
-219.2600619835
  0
VERTEX
  8
0
 62
7
  6
CONTINUOUS
 10
-183.5571507128
 20
-219.5680153856
  0
SEQEND
  0
LINE
  8
0
 62
7
  6
CONTINUOUS
 10
-183.660155421
 20
-198.6277462077
 11
-183.9081760169
 21
-198.9780840903
  0
LINE
  8
0
 62
7
  6
CONTINUOUS
 10
-183.4684242026
 20
-198.3608523862
 11
-183.660155421
 21
-198.6277462077
  0
POLYLINE
  8
0
 62
7
  6
CONTINUOUS
 66
1
 70
0
  0
VERTEX
  8
0
 62
7
  6
CONTINUOUS
 10
-183.2313289527
 20
-198.035066789
  0
VERTEX
  8
0
 62
7
  6
CONTINUOUS
 10
-183.2853102007
 20
-198.1088891163
  0
VERTEX
  8
0
 62
7
  6
CONTINUOUS
 10
-183.4684242026
 20
-198.3608523862
  0
SEQEND
  0
LINE
  8
0
 62
7
  6
CONTINUOUS
 10
-183.224607958
 20
-198.0259805629
 11
-183.2313289527
 21
-198.035066789
  0
LINE
  8
0
 62
7
  6
CONTINUOUS
 10
-183.224607958
 20
43.9740194371
 11
551.775392042
 21
43.9740194371
  0
LINE
  8
0
 62
7
  6
CONTINUOUS
 10
551.775392042
 20
65.9740194371
 11
-183.224607958
 21
65.9740194371
  0
LINE
  8
0
 62
7
  6
CONTINUOUS
 10
-183.2313276215
 20
501.9831056579
 11
-183.224607958
 21
501.9740194371
  0
LINE
  8
0
 62
7
  6
CONTINUOUS
 10
-183.3936084928
 20
502.2055584155
 11
-183.2313276215
 21
501.9831056579
  0
LINE
  8
0
 62
7
  6
CONTINUOUS
 10
-183.5571507128
 20
502.4319846144
 11
-183.3936084928
 21
502.2055584155
  0
POLYLINE
  8
0
 62
7
  6
CONTINUOUS
 66
1
 70
0
  0
VERTEX
  8
0
 62
7
  6
CONTINUOUS
 10
-183.9081760169
 20
-295.9780840903
  0
VERTEX
  8
0
 62
7
  6
CONTINUOUS
 10
-184.053581438
 20
-296.1863554681
  0
VERTEX
  8
0
 62
7
  6
CONTINUOUS
 10
-184.2130116152
 20
-296.4173993943
  0
VERTEX
  8
0
 62
7
  6
CONTINUOUS
 10
-184.3862416731
 20
-296.6718052566
  0
VERTEX
  8
0
 62
7
  6
CONTINUOUS
 10
-184.5726880292
 20
-296.9499176641
  0
VERTEX
  8
0
 62
7
  6
CONTINUOUS
 10
-184.7719510512
 20
-297.2525514726
  0
VERTEX
  8
0
 62
7
  6
CONTINUOUS
 10
-184.9825002003
 20
-297.5788853303
  0
VERTEX
  8
0
 62
7
  6
CONTINUOUS
 10
-185.2028408404
 20
-297.9287174868
  0
VERTEX
  8
0
 62
7
  6
CONTINUOUS
 10
-185.4310446159
 20
-298.3010039941
  0
VERTEX
  8
0
 62
7
  6
CONTINUOUS
 10
-185.6654924691
 20
-298.6960640038
  0
VERTEX
  8
0
 62
7
  6
CONTINUOUS
 10
-185.9024234669
 20
-299.1096064671
  0
VERTEX
  8
0
 62
7
  6
CONTINUOUS
 10
-186.1379671932
 20
-299.5388239017
  0
VERTEX
  8
0
 62
7
  6
CONTINUOUS
 10
-186.368853987
 20
-299.9795847587
  0
VERTEX
  8
0
 62
7
  6
CONTINUOUS
 10
-186.5909477801
 20
-300.4278097721
  0
VERTEX
  8
0
 62
7
  6
CONTINUOUS
 10
-186.8020156931
 20
-300.8805346104
  0
VERTEX
  8
0
 62
7
  6
CONTINUOUS
 10
-186.9990257326
 20
-301.3343557462
  0
VERTEX
  8
0
 62
7
  6
CONTINUOUS
 10
-187.1804648075
 20
-301.7865115007
  0
VERTEX
  8
0
 62
7
  6
CONTINUOUS
 10
-187.3440374977
 20
-302.2329579661
  0
VERTEX
  8
0
 62
7
  6
CONTINUOUS
 10
-187.4898584714
 20
-302.674138302
  0
VERTEX
  8
0
 62
7
  6
CONTINUOUS
 10
-187.6175720216
 20
-303.1086705546
  0
VERTEX
  8
0
 62
7
  6
CONTINUOUS
 10
-187.7274599564
 20
-303.537986156
  0
VERTEX
  8
0
 62
7
  6
CONTINUOUS
 10
-187.8200394222
 20
-303.963123936
  0
VERTEX
  8
0
 62
7
  6
CONTINUOUS
 10
-187.895208407
 20
-304.3838797482
  0
VERTEX
  8
0
 62
7
  6
CONTINUOUS
 10
-187.9531919796
 20
-304.8001768588
  0
VERTEX
  8
0
 62
7
  6
CONTINUOUS
 10
-187.9941890494
 20
-305.2126718601
  0
VERTEX
  8
0
 62
7
  6
CONTINUOUS
 10
-188.0186324233
 20
-305.6213019912
  0
VERTEX
  8
0
 62
7
  6
CONTINUOUS
 10
-188.0265687004
 20
-306.0281485781
  0
VERTEX
  8
0
 62
7
  6
CONTINUOUS
 10
-188.0184816227
 20
-306.4346777691
  0
VERTEX
  8
0
 62
7
  6
CONTINUOUS
 10
-187.9939195427
 20
-306.8426723363
  0
VERTEX
  8
0
 62
7
  6
CONTINUOUS
 10
-187.9528855557
 20
-307.254400087
  0
VERTEX
  8
0
 62
7
  6
CONTINUOUS
 10
-187.8949235838
 20
-307.6698720652
  0
VERTEX
  8
0
 62
7
  6
CONTINUOUS
 10
-187.8198425099
 20
-308.0898561044
  0
VERTEX
  8
0
 62
7
  6
CONTINUOUS
 10
-187.7273711461
 20
-308.5143496443
  0
VERTEX
  8
0
 62
7
  6
CONTINUOUS
 10
-187.6175730316
 20
-308.9432833445
  0
VERTEX
  8
0
 62
7
  6
CONTINUOUS
 10
-187.4899201202
 20
-309.3776253793
  0
VERTEX
  8
0
 62
7
  6
CONTINUOUS
 10
-187.3440956992
 20
-309.8188213719
  0
VERTEX
  8
0
 62
7
  6
CONTINUOUS
 10
-187.1804955126
 20
-310.2653696353
  0
VERTEX
  8
0
 62
7
  6
CONTINUOUS
 10
-186.9990380671
 20
-310.7175778608
  0
VERTEX
  8
0
 62
7
  6
CONTINUOUS
 10
-186.8019990161
 20
-311.1714635374
  0
VERTEX
  8
0
 62
7
  6
CONTINUOUS
 10
-186.5908598522
 20
-311.6243228814
  0
VERTEX
  8
0
 62
7
  6
CONTINUOUS
 10
-186.3687259581
 20
-312.072627402
  0
VERTEX
  8
0
 62
7
  6
CONTINUOUS
 10
-186.1379251513
 20
-312.5132312181
  0
VERTEX
  8
0
 62
7
  6
CONTINUOUS
 10
-185.9024638474
 20
-312.9422827168
  0
VERTEX
  8
0
 62
7
  6
CONTINUOUS
 10
-185.6655101915
 20
-313.3558619638
  0
VERTEX
  8
0
 62
7
  6
CONTINUOUS
 10
-185.4310017983
 20
-313.751028043
  0
VERTEX
  8
0
 62
7
  6
CONTINUOUS
 10
-185.2027183094
 20
-314.1234364838
  0
VERTEX
  8
0
 62
7
  6
CONTINUOUS
 10
-184.9823074127
 20
-314.4733780162
  0
VERTEX
  8
0
 62
7
  6
CONTINUOUS
 10
-184.771729805
 20
-314.7997500061
  0
VERTEX
  8
0
 62
7
  6
CONTINUOUS
 10
-184.5724589207
 20
-315.1023880757
  0
VERTEX
  8
0
 62
7
  6
CONTINUOUS
 10
-184.3860204641
 20
-315.3804846678
  0
VERTEX
  8
0
 62
7
  6
CONTINUOUS
 10
-184.2128024883
 20
-315.6348666858
  0
VERTEX
  8
0
 62
7
  6
CONTINUOUS
 10
-184.0533735191
 20
-315.8659030964
  0
VERTEX
  8
0
 62
7
  6
CONTINUOUS
 10
-183.907977312
 20
-316.0741601521
  0
VERTEX
  8
0
 62
7
  6
CONTINUOUS
 10
-183.7769258718
 20
-316.2600619835
  0
VERTEX
  8
0
 62
7
  6
CONTINUOUS
 10
-183.5571507128
 20
-316.5680153856
  0
SEQEND
  0
POLYLINE
  8
0
 62
7
  6
CONTINUOUS
 66
1
 70
0
  0
VERTEX
  8
0
 62
7
  6
CONTINUOUS
 10
-183.5572557702
 20
-295.4840923471
  0
VERTEX
  8
0
 62
7
  6
CONTINUOUS
 10
-183.660155421
 20
-295.6277462077
  0
VERTEX
  8
0
 62
7
  6
CONTINUOUS
 10
-183.9081760169
 20
-295.9780840903
  0
SEQEND
  0
LINE
  8
0
 62
7
  6
CONTINUOUS
 10
-183.3936688554
 20
-295.2576012627
 11
-183.5572557702
 21
-295.4840923471
  0
LINE
  8
0
 62
7
  6
CONTINUOUS
 10
-183.2313289527
 20
-295.035066789
 11
-183.3936688554
 21
-295.2576012627
  0
LINE
  8
0
 62
7
  6
CONTINUOUS
 10
-183.224607958
 20
-295.0259805629
 11
-183.2313289527
 21
-295.035066789
  0
LINE
  8
0
 62
7
  6
CONTINUOUS
 10
-183.224607958
 20
140.9740194371
 11
551.775392042
 21
140.9740194371
  0
LINE
  8
0
 62
7
  6
CONTINUOUS
 10
-183.2313276215
 20
598.9831056579
 11
-183.224607958
 21
598.9740194371
  0
LINE
  8
0
 62
7
  6
CONTINUOUS
 10
-183.3936084928
 20
599.2055584155
 11
-183.2313276215
 21
598.9831056579
  0
LINE
  8
0
 62
7
  6
CONTINUOUS
 10
-183.5571507128
 20
599.4319846144
 11
-183.3936084928
 21
599.2055584155
  0
LINE
  8
0
 62
7
  6
CONTINUOUS
 10
552.4587613959
 20
599.9258398479
 11
552.210804565
 21
599.575596077
  0
LINE
  8
0
 62
7
  6
CONTINUOUS
 10
552.210804565
 20
599.575596077
 11
552.0191291345
 21
599.3087817467
  0
POLYLINE
  8
0
 62
7
  6
CONTINUOUS
 66
1
 70
0
  0
VERTEX
  8
0
 62
7
  6
CONTINUOUS
 10
552.0191291345
 20
599.3087817467
  0
VERTEX
  8
0
 62
7
  6
CONTINUOUS
 10
551.8360730163
 20
599.056896873
  0
VERTEX
  8
0
 62
7
  6
CONTINUOUS
 10
551.7821117054
 20
598.9831056579
  0
SEQEND
  0
LINE
  8
0
 62
7
  6
CONTINUOUS
 10
551.7821117054
 20
598.9831056579
 11
551.775392042
 21
598.9740194371
  0
LINE
  8
0
 62
7
  6
CONTINUOUS
 10
551.775392042
 20
162.9740194371
 11
-183.224607958
 21
162.9740194371
  0
LINE
  8
0
 62
7
  6
CONTINUOUS
 10
551.775392042
 20
-295.0259805629
 11
551.7821130366
 21
-295.035066789
  0
LINE
  8
0
 62
7
  6
CONTINUOUS
 10
551.7821130366
 20
-295.035066789
 11
551.9444529393
 21
-295.2576012627
  0
LINE
  8
0
 62
7
  6
CONTINUOUS
 10
551.9444529393
 20
-295.2576012627
 11
552.1080398541
 21
-295.4840923471
  0
POLYLINE
  8
0
 62
7
  6
CONTINUOUS
 66
1
 70
0
  0
VERTEX
  8
0
 62
7
  6
CONTINUOUS
 10
552.1080398541
 20
-295.4840923471
  0
VERTEX
  8
0
 62
7
  6
CONTINUOUS
 10
552.3278787307
 20
-295.7921388064
  0
VERTEX
  8
0
 62
7
  6
CONTINUOUS
 10
552.4589601009
 20
-295.9780840903
  0
VERTEX
  8
0
 62
7
  6
CONTINUOUS
 10
552.6043655219
 20
-296.1863554681
  0
VERTEX
  8
0
 62
7
  6
CONTINUOUS
 10
552.7637956991
 20
-296.4173993943
  0
VERTEX
  8
0
 62
7
  6
CONTINUOUS
 10
552.937025757
 20
-296.6718052566
  0
VERTEX
  8
0
 62
7
  6
CONTINUOUS
 10
553.1234721131
 20
-296.9499176641
  0
VERTEX
  8
0
 62
7
  6
CONTINUOUS
 10
553.3227351351
 20
-297.2525514726
  0
VERTEX
  8
0
 62
7
  6
CONTINUOUS
 10
553.5332842842
 20
-297.5788853303
  0
VERTEX
  8
0
 62
7
  6
CONTINUOUS
 10
553.7536249243
 20
-297.9287174868
  0
VERTEX
  8
0
 62
7
  6
CONTINUOUS
 10
553.9818286998
 20
-298.3010039941
  0
VERTEX
  8
0
 62
7
  6
CONTINUOUS
 10
554.216276553
 20
-298.6960640038
  0
VERTEX
  8
0
 62
7
  6
CONTINUOUS
 10
554.4532075508
 20
-299.1096064671
  0
VERTEX
  8
0
 62
7
  6
CONTINUOUS
 10
554.6887512771
 20
-299.5388239017
  0
VERTEX
  8
0
 62
7
  6
CONTINUOUS
 10
554.9196380709
 20
-299.9795847587
  0
VERTEX
  8
0
 62
7
  6
CONTINUOUS
 10
555.141731864
 20
-300.4278097721
  0
VERTEX
  8
0
 62
7
  6
CONTINUOUS
 10
555.352799777
 20
-300.8805346104
  0
VERTEX
  8
0
 62
7
  6
CONTINUOUS
 10
555.5498098165
 20
-301.3343557462
  0
VERTEX
  8
0
 62
7
  6
CONTINUOUS
 10
555.7312488914
 20
-301.7865115007
  0
VERTEX
  8
0
 62
7
  6
CONTINUOUS
 10
555.8948215816
 20
-302.2329579661
  0
VERTEX
  8
0
 62
7
  6
CONTINUOUS
 10
556.0406425553
 20
-302.674138302
  0
VERTEX
  8
0
 62
7
  6
CONTINUOUS
 10
556.1683561055
 20
-303.1086705546
  0
VERTEX
  8
0
 62
7
  6
CONTINUOUS
 10
556.2782440403
 20
-303.537986156
  0
VERTEX
  8
0
 62
7
  6
CONTINUOUS
 10
556.3708235061
 20
-303.963123936
  0
VERTEX
  8
0
 62
7
  6
CONTINUOUS
 10
556.4459924909
 20
-304.3838797482
  0
VERTEX
  8
0
 62
7
  6
CONTINUOUS
 10
556.5039760635
 20
-304.8001768588
  0
VERTEX
  8
0
 62
7
  6
CONTINUOUS
 10
556.5449731333
 20
-305.2126718601
  0
VERTEX
  8
0
 62
7
  6
CONTINUOUS
 10
556.5694165072
 20
-305.6213019912
  0
VERTEX
  8
0
 62
7
  6
CONTINUOUS
 10
556.5773527843
 20
-306.0281485781
  0
VERTEX
  8
0
 62
7
  6
CONTINUOUS
 10
556.5692657066
 20
-306.4346777691
  0
VERTEX
  8
0
 62
7
  6
CONTINUOUS
 10
556.5447036266
 20
-306.8426723363
  0
VERTEX
  8
0
 62
7
  6
CONTINUOUS
 10
556.5036696396
 20
-307.254400087
  0
VERTEX
  8
0
 62
7
  6
CONTINUOUS
 10
556.4457076677
 20
-307.6698720652
  0
VERTEX
  8
0
 62
7
  6
CONTINUOUS
 10
556.3706265938
 20
-308.0898561044
  0
VERTEX
  8
0
 62
7
  6
CONTINUOUS
 10
556.27815523
 20
-308.5143496443
  0
VERTEX
  8
0
 62
7
  6
CONTINUOUS
 10
556.1683571155
 20
-308.9432833445
  0
VERTEX
  8
0
 62
7
  6
CONTINUOUS
 10
556.0407042041
 20
-309.3776253793
  0
VERTEX
  8
0
 62
7
  6
CONTINUOUS
 10
555.8948797831
 20
-309.8188213719
  0
VERTEX
  8
0
 62
7
  6
CONTINUOUS
 10
555.7312795965
 20
-310.2653696353
  0
VERTEX
  8
0
 62
7
  6
CONTINUOUS
 10
555.549822151
 20
-310.7175778608
  0
VERTEX
  8
0
 62
7
  6
CONTINUOUS
 10
555.3527831
 20
-311.1714635374
  0
VERTEX
  8
0
 62
7
  6
CONTINUOUS
 10
555.1416439361
 20
-311.6243228814
  0
VERTEX
  8
0
 62
7
  6
CONTINUOUS
 10
554.919510042
 20
-312.072627402
  0
VERTEX
  8
0
 62
7
  6
CONTINUOUS
 10
554.6887092352
 20
-312.5132312181
  0
VERTEX
  8
0
 62
7
  6
CONTINUOUS
 10
554.4532479313
 20
-312.9422827168
  0
VERTEX
  8
0
 62
7
  6
CONTINUOUS
 10
554.2162942754
 20
-313.3558619638
  0
VERTEX
  8
0
 62
7
  6
CONTINUOUS
 10
553.9817858822
 20
-313.751028043
  0
VERTEX
  8
0
 62
7
  6
CONTINUOUS
 10
553.7535023933
 20
-314.1234364838
  0
VERTEX
  8
0
 62
7
  6
CONTINUOUS
 10
553.5330914966
 20
-314.4733780162
  0
VERTEX
  8
0
 62
7
  6
CONTINUOUS
 10
553.3225138889
 20
-314.7997500061
  0
VERTEX
  8
0
 62
7
  6
CONTINUOUS
 10
553.1232430046
 20
-315.1023880757
  0
VERTEX
  8
0
 62
7
  6
CONTINUOUS
 10
552.936804548
 20
-315.3804846678
  0
VERTEX
  8
0
 62
7
  6
CONTINUOUS
 10
552.7635865722
 20
-315.6348666858
  0
VERTEX
  8
0
 62
7
  6
CONTINUOUS
 10
552.604157603
 20
-315.8659030964
  0
VERTEX
  8
0
 62
7
  6
CONTINUOUS
 10
552.4587613959
 20
-316.0741601521
  0
SEQEND
  0
LINE
  8
0
 62
7
  6
CONTINUOUS
 10
551.9443925767
 20
502.2055584155
 11
551.7821117054
 21
501.9831056579
  0
LINE
  8
0
 62
7
  6
CONTINUOUS
 10
551.7821117054
 20
501.9831056579
 11
551.775392042
 21
501.9740194371
  0
LINE
  8
0
 62
7
  6
CONTINUOUS
 10
-183.224607958
 20
237.9740194371
 11
551.775392042
 21
237.9740194371
  0
LINE
  8
0
 62
7
  6
CONTINUOUS
 10
551.775392042
 20
-198.0259805629
 11
551.7821130366
 21
-198.035066789
  0
LINE
  8
0
 62
7
  6
CONTINUOUS
 10
551.7821130366
 20
-198.035066789
 11
551.9444529393
 21
-198.2576012627
  0
LINE
  8
0
 62
7
  6
CONTINUOUS
 10
552.4587613959
 20
502.9258398479
 11
552.210804565
 21
502.575596077
  0
POLYLINE
  8
0
 62
7
  6
CONTINUOUS
 66
1
 70
0
  0
VERTEX
  8
0
 62
7
  6
CONTINUOUS
 10
552.210804565
 20
502.575596077
  0
VERTEX
  8
0
 62
7
  6
CONTINUOUS
 10
552.0191291345
 20
502.3087817467
  0
VERTEX
  8
0
 62
7
  6
CONTINUOUS
 10
551.9443925767
 20
502.2055584155
  0
SEQEND
  0
LINE
  8
0
 62
7
  6
CONTINUOUS
 10
551.775392042
 20
259.9740194371
 11
-183.224607958
 21
259.9740194371
  0
LINE
  8
0
 62
7
  6
CONTINUOUS
 10
551.9444529393
 20
-198.2576012627
 11
552.1080398541
 21
-198.4840923471
  0
POLYLINE
  8
0
 62
7
  6
CONTINUOUS
 66
1
 70
0
  0
VERTEX
  8
0
 62
7
  6
CONTINUOUS
 10
552.1080398541
 20
-198.4840923471
  0
VERTEX
  8
0
 62
7
  6
CONTINUOUS
 10
552.3278787307
 20
-198.7921388064
  0
VERTEX
  8
0
 62
7
  6
CONTINUOUS
 10
552.4589601009
 20
-198.9780840903
  0
VERTEX
  8
0
 62
7
  6
CONTINUOUS
 10
552.6043655219
 20
-199.1863554681
  0
VERTEX
  8
0
 62
7
  6
CONTINUOUS
 10
552.7637956991
 20
-199.4173993943
  0
VERTEX
  8
0
 62
7
  6
CONTINUOUS
 10
552.937025757
 20
-199.6718052566
  0
VERTEX
  8
0
 62
7
  6
CONTINUOUS
 10
553.1234721131
 20
-199.9499176641
  0
VERTEX
  8
0
 62
7
  6
CONTINUOUS
 10
553.3227351351
 20
-200.2525514726
  0
VERTEX
  8
0
 62
7
  6
CONTINUOUS
 10
553.5332842842
 20
-200.5788853303
  0
VERTEX
  8
0
 62
7
  6
CONTINUOUS
 10
553.7536249243
 20
-200.9287174868
  0
VERTEX
  8
0
 62
7
  6
CONTINUOUS
 10
553.9818286998
 20
-201.3010039941
  0
VERTEX
  8
0
 62
7
  6
CONTINUOUS
 10
554.216276553
 20
-201.6960640038
  0
VERTEX
  8
0
 62
7
  6
CONTINUOUS
 10
554.4532075508
 20
-202.1096064671
  0
VERTEX
  8
0
 62
7
  6
CONTINUOUS
 10
554.6887512771
 20
-202.5388239017
  0
VERTEX
  8
0
 62
7
  6
CONTINUOUS
 10
554.9196380709
 20
-202.9795847587
  0
VERTEX
  8
0
 62
7
  6
CONTINUOUS
 10
555.141731864
 20
-203.4278097721
  0
VERTEX
  8
0
 62
7
  6
CONTINUOUS
 10
555.352799777
 20
-203.8805346104
  0
VERTEX
  8
0
 62
7
  6
CONTINUOUS
 10
555.5498098165
 20
-204.3343557462
  0
VERTEX
  8
0
 62
7
  6
CONTINUOUS
 10
555.7312488914
 20
-204.7865115007
  0
VERTEX
  8
0
 62
7
  6
CONTINUOUS
 10
555.8948215816
 20
-205.2329579661
  0
VERTEX
  8
0
 62
7
  6
CONTINUOUS
 10
556.0406425553
 20
-205.674138302
  0
VERTEX
  8
0
 62
7
  6
CONTINUOUS
 10
556.1683561055
 20
-206.1086705546
  0
VERTEX
  8
0
 62
7
  6
CONTINUOUS
 10
556.2782440403
 20
-206.537986156
  0
VERTEX
  8
0
 62
7
  6
CONTINUOUS
 10
556.3708235061
 20
-206.963123936
  0
VERTEX
  8
0
 62
7
  6
CONTINUOUS
 10
556.4459924909
 20
-207.3838797482
  0
VERTEX
  8
0
 62
7
  6
CONTINUOUS
 10
556.5039760635
 20
-207.8001768588
  0
VERTEX
  8
0
 62
7
  6
CONTINUOUS
 10
556.5449731333
 20
-208.2126718601
  0
VERTEX
  8
0
 62
7
  6
CONTINUOUS
 10
556.5694165072
 20
-208.6213019912
  0
VERTEX
  8
0
 62
7
  6
CONTINUOUS
 10
556.5773527843
 20
-209.0281485781
  0
VERTEX
  8
0
 62
7
  6
CONTINUOUS
 10
556.5692657066
 20
-209.4346777691
  0
VERTEX
  8
0
 62
7
  6
CONTINUOUS
 10
556.5447036266
 20
-209.8426723363
  0
VERTEX
  8
0
 62
7
  6
CONTINUOUS
 10
556.5036696396
 20
-210.254400087
  0
VERTEX
  8
0
 62
7
  6
CONTINUOUS
 10
556.4457076677
 20
-210.6698720652
  0
VERTEX
  8
0
 62
7
  6
CONTINUOUS
 10
556.3706265938
 20
-211.0898561044
  0
VERTEX
  8
0
 62
7
  6
CONTINUOUS
 10
556.27815523
 20
-211.5143496443
  0
VERTEX
  8
0
 62
7
  6
CONTINUOUS
 10
556.1683571155
 20
-211.9432833445
  0
VERTEX
  8
0
 62
7
  6
CONTINUOUS
 10
556.0407042041
 20
-212.3776253793
  0
VERTEX
  8
0
 62
7
  6
CONTINUOUS
 10
555.8948797831
 20
-212.8188213719
  0
VERTEX
  8
0
 62
7
  6
CONTINUOUS
 10
555.7312795965
 20
-213.2653696353
  0
VERTEX
  8
0
 62
7
  6
CONTINUOUS
 10
555.549822151
 20
-213.7175778608
  0
VERTEX
  8
0
 62
7
  6
CONTINUOUS
 10
555.3527831
 20
-214.1714635374
  0
VERTEX
  8
0
 62
7
  6
CONTINUOUS
 10
555.1416439361
 20
-214.6243228814
  0
VERTEX
  8
0
 62
7
  6
CONTINUOUS
 10
554.919510042
 20
-215.072627402
  0
VERTEX
  8
0
 62
7
  6
CONTINUOUS
 10
554.6887092352
 20
-215.5132312181
  0
VERTEX
  8
0
 62
7
  6
CONTINUOUS
 10
554.4532479313
 20
-215.9422827168
  0
VERTEX
  8
0
 62
7
  6
CONTINUOUS
 10
554.2162942754
 20
-216.3558619638
  0
VERTEX
  8
0
 62
7
  6
CONTINUOUS
 10
553.9817858822
 20
-216.751028043
  0
VERTEX
  8
0
 62
7
  6
CONTINUOUS
 10
553.7535023933
 20
-217.1234364838
  0
VERTEX
  8
0
 62
7
  6
CONTINUOUS
 10
553.5330914966
 20
-217.4733780162
  0
VERTEX
  8
0
 62
7
  6
CONTINUOUS
 10
553.3225138889
 20
-217.7997500061
  0
VERTEX
  8
0
 62
7
  6
CONTINUOUS
 10
553.1232430046
 20
-218.1023880757
  0
VERTEX
  8
0
 62
7
  6
CONTINUOUS
 10
552.936804548
 20
-218.3804846678
  0
VERTEX
  8
0
 62
7
  6
CONTINUOUS
 10
552.7635865722
 20
-218.6348666858
  0
VERTEX
  8
0
 62
7
  6
CONTINUOUS
 10
552.604157603
 20
-218.8659030964
  0
VERTEX
  8
0
 62
7
  6
CONTINUOUS
 10
552.4587613959
 20
-219.0741601521
  0
SEQEND
  0
LINE
  8
0
 62
7
  6
CONTINUOUS
 10
552.4587613959
 20
405.9258398479
 11
552.210804565
 21
405.575596077
  0
LINE
  8
0
 62
7
  6
CONTINUOUS
 10
552.210804565
 20
405.575596077
 11
552.0191291345
 21
405.3087817467
  0
POLYLINE
  8
0
 62
7
  6
CONTINUOUS
 66
1
 70
0
  0
VERTEX
  8
0
 62
7
  6
CONTINUOUS
 10
552.0191291345
 20
405.3087817467
  0
VERTEX
  8
0
 62
7
  6
CONTINUOUS
 10
551.8360730163
 20
405.056896873
  0
VERTEX
  8
0
 62
7
  6
CONTINUOUS
 10
551.7821117054
 20
404.9831056579
  0
SEQEND
  0
LINE
  8
0
 62
7
  6
CONTINUOUS
 10
551.7821117054
 20
404.9831056579
 11
551.775392042
 21
404.9740194371
  0
LINE
  8
0
 62
7
  6
CONTINUOUS
 10
551.775392042
 20
-101.0259805629
 11
551.7821130366
 21
-101.035066789
  0
LINE
  8
0
 62
7
  6
CONTINUOUS
 10
551.7821130366
 20
-101.035066789
 11
551.9444529393
 21
-101.2576012627
  0
LINE
  8
0
 62
7
  6
CONTINUOUS
 10
551.9444529393
 20
-101.2576012627
 11
552.1080398541
 21
-101.4840923471
  0
POLYLINE
  8
0
 62
7
  6
CONTINUOUS
 66
1
 70
0
  0
VERTEX
  8
0
 62
7
  6
CONTINUOUS
 10
552.1080398541
 20
-101.4840923471
  0
VERTEX
  8
0
 62
7
  6
CONTINUOUS
 10
552.3278787307
 20
-101.7921388064
  0
VERTEX
  8
0
 62
7
  6
CONTINUOUS
 10
552.4589601009
 20
-101.9780840903
  0
VERTEX
  8
0
 62
7
  6
CONTINUOUS
 10
552.6043655219
 20
-102.1863554681
  0
VERTEX
  8
0
 62
7
  6
CONTINUOUS
 10
552.7637956991
 20
-102.4173993943
  0
VERTEX
  8
0
 62
7
  6
CONTINUOUS
 10
552.937025757
 20
-102.6718052566
  0
VERTEX
  8
0
 62
7
  6
CONTINUOUS
 10
553.1234721131
 20
-102.9499176641
  0
VERTEX
  8
0
 62
7
  6
CONTINUOUS
 10
553.3227351351
 20
-103.2525514726
  0
VERTEX
  8
0
 62
7
  6
CONTINUOUS
 10
553.5332842842
 20
-103.5788853303
  0
VERTEX
  8
0
 62
7
  6
CONTINUOUS
 10
553.7536249243
 20
-103.9287174868
  0
VERTEX
  8
0
 62
7
  6
CONTINUOUS
 10
553.9818286998
 20
-104.3010039941
  0
VERTEX
  8
0
 62
7
  6
CONTINUOUS
 10
554.216276553
 20
-104.6960640038
  0
VERTEX
  8
0
 62
7
  6
CONTINUOUS
 10
554.4532075508
 20
-105.1096064671
  0
VERTEX
  8
0
 62
7
  6
CONTINUOUS
 10
554.6887512771
 20
-105.5388239017
  0
VERTEX
  8
0
 62
7
  6
CONTINUOUS
 10
554.9196380709
 20
-105.9795847587
  0
VERTEX
  8
0
 62
7
  6
CONTINUOUS
 10
555.141731864
 20
-106.4278097721
  0
VERTEX
  8
0
 62
7
  6
CONTINUOUS
 10
555.352799777
 20
-106.8805346104
  0
VERTEX
  8
0
 62
7
  6
CONTINUOUS
 10
555.5498098165
 20
-107.3343557462
  0
VERTEX
  8
0
 62
7
  6
CONTINUOUS
 10
555.7312488914
 20
-107.7865115007
  0
VERTEX
  8
0
 62
7
  6
CONTINUOUS
 10
555.8948215816
 20
-108.2329579661
  0
VERTEX
  8
0
 62
7
  6
CONTINUOUS
 10
556.0406425553
 20
-108.674138302
  0
VERTEX
  8
0
 62
7
  6
CONTINUOUS
 10
556.1683561055
 20
-109.1086705546
  0
VERTEX
  8
0
 62
7
  6
CONTINUOUS
 10
556.2782440403
 20
-109.537986156
  0
VERTEX
  8
0
 62
7
  6
CONTINUOUS
 10
556.3708235061
 20
-109.963123936
  0
VERTEX
  8
0
 62
7
  6
CONTINUOUS
 10
556.4459924909
 20
-110.3838797482
  0
VERTEX
  8
0
 62
7
  6
CONTINUOUS
 10
556.5039760635
 20
-110.8001768588
  0
VERTEX
  8
0
 62
7
  6
CONTINUOUS
 10
556.5449731333
 20
-111.2126718601
  0
VERTEX
  8
0
 62
7
  6
CONTINUOUS
 10
556.5694165072
 20
-111.6213019912
  0
VERTEX
  8
0
 62
7
  6
CONTINUOUS
 10
556.5773527843
 20
-112.0281485781
  0
VERTEX
  8
0
 62
7
  6
CONTINUOUS
 10
556.5692657066
 20
-112.4346777691
  0
VERTEX
  8
0
 62
7
  6
CONTINUOUS
 10
556.5447036266
 20
-112.8426723363
  0
VERTEX
  8
0
 62
7
  6
CONTINUOUS
 10
556.5036696396
 20
-113.254400087
  0
VERTEX
  8
0
 62
7
  6
CONTINUOUS
 10
556.4457076677
 20
-113.6698720652
  0
VERTEX
  8
0
 62
7
  6
CONTINUOUS
 10
556.3706265938
 20
-114.0898561044
  0
VERTEX
  8
0
 62
7
  6
CONTINUOUS
 10
556.27815523
 20
-114.5143496443
  0
VERTEX
  8
0
 62
7
  6
CONTINUOUS
 10
556.1683571155
 20
-114.9432833445
  0
VERTEX
  8
0
 62
7
  6
CONTINUOUS
 10
556.0407042041
 20
-115.3776253793
  0
VERTEX
  8
0
 62
7
  6
CONTINUOUS
 10
555.8948797831
 20
-115.8188213719
  0
VERTEX
  8
0
 62
7
  6
CONTINUOUS
 10
555.7312795965
 20
-116.2653696353
  0
VERTEX
  8
0
 62
7
  6
CONTINUOUS
 10
555.549822151
 20
-116.7175778608
  0
VERTEX
  8
0
 62
7
  6
CONTINUOUS
 10
555.3527831
 20
-117.1714635374
  0
VERTEX
  8
0
 62
7
  6
CONTINUOUS
 10
555.1416439361
 20
-117.6243228814
  0
VERTEX
  8
0
 62
7
  6
CONTINUOUS
 10
554.919510042
 20
-118.072627402
  0
VERTEX
  8
0
 62
7
  6
CONTINUOUS
 10
554.6887092352
 20
-118.5132312181
  0
VERTEX
  8
0
 62
7
  6
CONTINUOUS
 10
554.4532479313
 20
-118.9422827168
  0
VERTEX
  8
0
 62
7
  6
CONTINUOUS
 10
554.2162942754
 20
-119.3558619638
  0
VERTEX
  8
0
 62
7
  6
CONTINUOUS
 10
553.9817858822
 20
-119.751028043
  0
VERTEX
  8
0
 62
7
  6
CONTINUOUS
 10
553.7535023933
 20
-120.1234364838
  0
VERTEX
  8
0
 62
7
  6
CONTINUOUS
 10
553.5330914966
 20
-120.4733780162
  0
VERTEX
  8
0
 62
7
  6
CONTINUOUS
 10
553.3225138889
 20
-120.7997500061
  0
VERTEX
  8
0
 62
7
  6
CONTINUOUS
 10
553.1232430046
 20
-121.1023880757
  0
VERTEX
  8
0
 62
7
  6
CONTINUOUS
 10
552.936804548
 20
-121.3804846678
  0
VERTEX
  8
0
 62
7
  6
CONTINUOUS
 10
552.7635865722
 20
-121.6348666858
  0
VERTEX
  8
0
 62
7
  6
CONTINUOUS
 10
552.604157603
 20
-121.8659030964
  0
VERTEX
  8
0
 62
7
  6
CONTINUOUS
 10
552.4587613959
 20
-122.0741601521
  0
SEQEND
  0
LINE
  8
0
 62
7
  6
CONTINUOUS
 10
552.4587613959
 20
238.9258398479
 11
552.210804565
 21
238.575596077
  0
LINE
  8
0
 62
7
  6
CONTINUOUS
 10
552.210804565
 20
238.575596077
 11
552.0191291345
 21
238.3087817467
  0
POLYLINE
  8
0
 62
7
  6
CONTINUOUS
 66
1
 70
0
  0
VERTEX
  8
0
 62
7
  6
CONTINUOUS
 10
552.0191291345
 20
238.3087817467
  0
VERTEX
  8
0
 62
7
  6
CONTINUOUS
 10
551.8360730163
 20
238.056896873
  0
VERTEX
  8
0
 62
7
  6
CONTINUOUS
 10
551.7821117054
 20
237.9831056579
  0
SEQEND
  0
LINE
  8
0
 62
7
  6
CONTINUOUS
 10
551.7821117054
 20
237.9831056579
 11
551.775392042
 21
237.9740194371
  0
LINE
  8
0
 62
7
  6
CONTINUOUS
 10
-183.224607958
 20
404.9740194371
 11
551.775392042
 21
404.9740194371
  0
LINE
  8
0
 62
7
  6
CONTINUOUS
 10
551.775392042
 20
65.9740194371
 11
551.7821130366
 21
65.964933211
  0
LINE
  8
0
 62
7
  6
CONTINUOUS
 10
551.7821130366
 20
65.964933211
 11
551.9444529393
 21
65.7423987373
  0
LINE
  8
0
 62
7
  6
CONTINUOUS
 10
551.9444529393
 20
65.7423987373
 11
552.1080398541
 21
65.5159076529
  0
POLYLINE
  8
0
 62
7
  6
CONTINUOUS
 66
1
 70
0
  0
VERTEX
  8
0
 62
7
  6
CONTINUOUS
 10
552.1080398541
 20
65.5159076529
  0
VERTEX
  8
0
 62
7
  6
CONTINUOUS
 10
552.3278787307
 20
65.2078611936
  0
VERTEX
  8
0
 62
7
  6
CONTINUOUS
 10
552.4589601009
 20
65.0219159097
  0
VERTEX
  8
0
 62
7
  6
CONTINUOUS
 10
552.6043655219
 20
64.8136445319
  0
VERTEX
  8
0
 62
7
  6
CONTINUOUS
 10
552.7637956991
 20
64.5826006057
  0
VERTEX
  8
0
 62
7
  6
CONTINUOUS
 10
552.937025757
 20
64.3281947434
  0
VERTEX
  8
0
 62
7
  6
CONTINUOUS
 10
553.1234721131
 20
64.0500823359
  0
VERTEX
  8
0
 62
7
  6
CONTINUOUS
 10
553.3227351351
 20
63.7474485274
  0
VERTEX
  8
0
 62
7
  6
CONTINUOUS
 10
553.5332842842
 20
63.4211146697
  0
VERTEX
  8
0
 62
7
  6
CONTINUOUS
 10
553.7536249243
 20
63.0712825132
  0
VERTEX
  8
0
 62
7
  6
CONTINUOUS
 10
553.9818286998
 20
62.6989960059
  0
VERTEX
  8
0
 62
7
  6
CONTINUOUS
 10
554.216276553
 20
62.3039359962
  0
VERTEX
  8
0
 62
7
  6
CONTINUOUS
 10
554.4532075508
 20
61.8903935329
  0
VERTEX
  8
0
 62
7
  6
CONTINUOUS
 10
554.6887512771
 20
61.4611760983
  0
VERTEX
  8
0
 62
7
  6
CONTINUOUS
 10
554.9196380709
 20
61.0204152413
  0
VERTEX
  8
0
 62
7
  6
CONTINUOUS
 10
555.141731864
 20
60.5721902279
  0
VERTEX
  8
0
 62
7
  6
CONTINUOUS
 10
555.352799777
 20
60.1194653896
  0
VERTEX
  8
0
 62
7
  6
CONTINUOUS
 10
555.5498098165
 20
59.6656442538
  0
VERTEX
  8
0
 62
7
  6
CONTINUOUS
 10
555.7312488914
 20
59.2134884993
  0
VERTEX
  8
0
 62
7
  6
CONTINUOUS
 10
555.8948215816
 20
58.7670420339
  0
VERTEX
  8
0
 62
7
  6
CONTINUOUS
 10
556.0406425553
 20
58.325861698
  0
VERTEX
  8
0
 62
7
  6
CONTINUOUS
 10
556.1683561055
 20
57.8913294454
  0
VERTEX
  8
0
 62
7
  6
CONTINUOUS
 10
556.2782440403
 20
57.462013844
  0
VERTEX
  8
0
 62
7
  6
CONTINUOUS
 10
556.3708235061
 20
57.036876064
  0
VERTEX
  8
0
 62
7
  6
CONTINUOUS
 10
556.4459924909
 20
56.6161202518
  0
VERTEX
  8
0
 62
7
  6
CONTINUOUS
 10
556.5039760635
 20
56.1998231412
  0
VERTEX
  8
0
 62
7
  6
CONTINUOUS
 10
556.5449731333
 20
55.7873281399
  0
VERTEX
  8
0
 62
7
  6
CONTINUOUS
 10
556.5694165072
 20
55.3786980088
  0
VERTEX
  8
0
 62
7
  6
CONTINUOUS
 10
556.5773527843
 20
54.9718514219
  0
VERTEX
  8
0
 62
7
  6
CONTINUOUS
 10
556.5692657066
 20
54.5653222309
  0
VERTEX
  8
0
 62
7
  6
CONTINUOUS
 10
556.5447036266
 20
54.1573276637
  0
VERTEX
  8
0
 62
7
  6
CONTINUOUS
 10
556.5036696396
 20
53.745599913
  0
VERTEX
  8
0
 62
7
  6
CONTINUOUS
 10
556.4457076677
 20
53.3301279348
  0
VERTEX
  8
0
 62
7
  6
CONTINUOUS
 10
556.3706265938
 20
52.9101438956
  0
VERTEX
  8
0
 62
7
  6
CONTINUOUS
 10
556.27815523
 20
52.4856503557
  0
VERTEX
  8
0
 62
7
  6
CONTINUOUS
 10
556.1683571155
 20
52.0567166555
  0
VERTEX
  8
0
 62
7
  6
CONTINUOUS
 10
556.0407042041
 20
51.6223746207
  0
VERTEX
  8
0
 62
7
  6
CONTINUOUS
 10
555.8948797831
 20
51.1811786281
  0
VERTEX
  8
0
 62
7
  6
CONTINUOUS
 10
555.7312795965
 20
50.7346303647
  0
VERTEX
  8
0
 62
7
  6
CONTINUOUS
 10
555.549822151
 20
50.2824221392
  0
VERTEX
  8
0
 62
7
  6
CONTINUOUS
 10
555.3527831
 20
49.8285364626
  0
VERTEX
  8
0
 62
7
  6
CONTINUOUS
 10
555.1416439361
 20
49.3756771186
  0
VERTEX
  8
0
 62
7
  6
CONTINUOUS
 10
554.919510042
 20
48.927372598
  0
VERTEX
  8
0
 62
7
  6
CONTINUOUS
 10
554.6887092352
 20
48.4867687819
  0
VERTEX
  8
0
 62
7
  6
CONTINUOUS
 10
554.4532479313
 20
48.0577172832
  0
VERTEX
  8
0
 62
7
  6
CONTINUOUS
 10
554.2162942754
 20
47.6441380362
  0
VERTEX
  8
0
 62
7
  6
CONTINUOUS
 10
553.9817858822
 20
47.248971957
  0
VERTEX
  8
0
 62
7
  6
CONTINUOUS
 10
553.7535023933
 20
46.8765635162
  0
VERTEX
  8
0
 62
7
  6
CONTINUOUS
 10
553.5330914966
 20
46.5266219838
  0
VERTEX
  8
0
 62
7
  6
CONTINUOUS
 10
553.3225138889
 20
46.2002499939
  0
VERTEX
  8
0
 62
7
  6
CONTINUOUS
 10
553.1232430046
 20
45.8976119243
  0
VERTEX
  8
0
 62
7
  6
CONTINUOUS
 10
552.936804548
 20
45.6195153322
  0
VERTEX
  8
0
 62
7
  6
CONTINUOUS
 10
552.7635865722
 20
45.3651333142
  0
VERTEX
  8
0
 62
7
  6
CONTINUOUS
 10
552.604157603
 20
45.1340969036
  0
VERTEX
  8
0
 62
7
  6
CONTINUOUS
 10
552.4587613959
 20
44.9258398479
  0
SEQEND
  0
LINE
  8
0
 62
7
  6
CONTINUOUS
 10
552.4589088536
 20
141.9260499466
 11
552.2108996035
 21
141.5757291935
  0
LINE
  8
0
 62
7
  6
CONTINUOUS
 10
552.2108996035
 20
141.5757291935
 11
552.0191823021
 21
141.3088553087
  0
POLYLINE
  8
0
 62
7
  6
CONTINUOUS
 66
1
 70
0
  0
VERTEX
  8
0
 62
7
  6
CONTINUOUS
 10
552.0191823021
 20
141.3088553087
  0
VERTEX
  8
0
 62
7
  6
CONTINUOUS
 10
551.8360859029
 20
141.056914525
  0
VERTEX
  8
0
 62
7
  6
CONTINUOUS
 10
551.7821130916
 20
140.9831074452
  0
SEQEND
  0
LINE
  8
0
 62
7
  6
CONTINUOUS
 10
551.7821130916
 20
140.9831074452
 11
551.775392042
 21
140.9740194371
  0
LINE
  8
0
 62
7
  6
CONTINUOUS
 10
551.775392042
 20
426.9740194371
 11
-183.224607958
 21
426.9740194371
  0
LINE
  8
0
 62
7
  6
CONTINUOUS
 10
551.775392042
 20
162.9740194371
 11
551.7821144255
 21
162.9649314152
  0
LINE
  8
0
 62
7
  6
CONTINUOUS
 10
551.7821144255
 20
162.9649314152
 11
551.9444895567
 21
162.7423482933
  0
LINE
  8
0
 62
7
  6
CONTINUOUS
 10
551.9444895567
 20
162.7423482933
 11
552.1081124882
 21
162.5158065759
  0
POLYLINE
  8
0
 62
7
  6
CONTINUOUS
 66
1
 70
0
  0
VERTEX
  8
0
 62
7
  6
CONTINUOUS
 10
552.1081124882
 20
162.5158065759
  0
VERTEX
  8
0
 62
7
  6
CONTINUOUS
 10
552.3279986501
 20
162.2076919936
  0
VERTEX
  8
0
 62
7
  6
CONTINUOUS
 10
552.4591077325
 20
162.0217055602
  0
VERTEX
  8
0
 62
7
  6
CONTINUOUS
 10
552.6045439361
 20
161.8133877413
  0
VERTEX
  8
0
 62
7
  6
CONTINUOUS
 10
552.7640086589
 20
161.582290057
  0
VERTEX
  8
0
 62
7
  6
CONTINUOUS
 10
552.9372789863
 20
161.3278198476
  0
VERTEX
  8
0
 62
7
  6
CONTINUOUS
 10
553.1237688266
 20
161.0496360229
  0
VERTEX
  8
0
 62
7
  6
CONTINUOUS
 10
553.323077143
 20
160.7469235133
  0
VERTEX
  8
0
 62
7
  6
CONTINUOUS
 10
553.5336689739
 20
160.4205115972
  0
VERTEX
  8
0
 62
7
  6
CONTINUOUS
 10
553.7540428302
 20
160.0706105658
  0
VERTEX
  8
0
 62
7
  6
CONTINUOUS
 10
553.9822717048
 20
159.6982623101
  0
VERTEX
  8
0
 62
7
  6
CONTINUOUS
 10
554.2167312545
 20
159.3031594147
  0
VERTEX
  8
0
 62
7
  6
CONTINUOUS
 10
554.4536753384
 20
158.88956009
  0
VERTEX
  8
0
 62
7
  6
CONTINUOUS
 10
554.6892529546
 20
158.4602415972
  0
VERTEX
  8
0
 62
7
  6
CONTINUOUS
 10
554.9201867263
 20
158.0193393687
  0
VERTEX
  8
0
 62
7
  6
CONTINUOUS
 10
555.142358297
 20
157.5708750766
  0
VERTEX
  8
0
 62
7
  6
CONTINUOUS
 10
555.3534745482
 20
157.1179672628
  0
VERTEX
  8
0
 62
7
  6
CONTINUOUS
 10
555.5504204727
 20
156.6641891349
  0
VERTEX
  8
0
 62
7
  6
CONTINUOUS
 10
555.7317440643
 20
156.2121983685
  0
VERTEX
  8
0
 62
7
  6
CONTINUOUS
 10
555.8951078306
 20
155.7663453578
  0
VERTEX
  8
0
 62
7
  6
CONTINUOUS
 10
556.0408725122
 20
155.3251251554
  0
VERTEX
  8
0
 62
7
  6
CONTINUOUS
 10
556.169063264
 20
154.8886842143
  0
VERTEX
  8
0
 62
7
  6
CONTINUOUS
 10
556.279568766
 20
154.456418728
  0
VERTEX
  8
0
 62
7
  6
CONTINUOUS
 10
556.372672566
 20
154.0271632162
  0
VERTEX
  8
0
 62
7
  6
CONTINUOUS
 10
556.4481097039
 20
153.6027491536
  0
VERTEX
  8
0
 62
7
  6
CONTINUOUS
 10
556.5057312904
 20
153.1844273308
  0
VERTEX
  8
0
 62
7
  6
CONTINUOUS
 10
556.5461198605
 20
152.7727743196
  0
VERTEX
  8
0
 62
7
  6
CONTINUOUS
 10
556.5698505164
 20
152.3706936419
  0
VERTEX
  8
0
 62
7
  6
CONTINUOUS
 10
556.5773528948
 20
151.972455238
  0
VERTEX
  8
0
 62
7
  6
CONTINUOUS
 10
556.569758818
 20
151.5746157227
  0
VERTEX
  8
0
 62
7
  6
CONTINUOUS
 10
556.5459598979
 20
151.1732185941
  0
VERTEX
  8
0
 62
7
  6
CONTINUOUS
 10
556.5055666389
 20
150.7621812718
  0
VERTEX
  8
0
 62
7
  6
CONTINUOUS
 10
556.4479754393
 20
150.344438606
  0
VERTEX
  8
0
 62
7
  6
CONTINUOUS
 10
556.3725963572
 20
149.9204816263
  0
VERTEX
  8
0
 62
7
  6
CONTINUOUS
 10
556.2795543546
 20
149.4915592139
  0
VERTEX
  8
0
 62
7
  6
CONTINUOUS
 10
556.1690882869
 20
149.0594525154
  0
VERTEX
  8
0
 62
7
  6
CONTINUOUS
 10
556.0409168548
 20
148.6230557631
  0
VERTEX
  8
0
 62
7
  6
CONTINUOUS
 10
555.8951369017
 20
148.1817863913
  0
VERTEX
  8
0
 62
7
  6
CONTINUOUS
 10
555.7317499875
 20
147.7358559402
  0
VERTEX
  8
0
 62
7
  6
CONTINUOUS
 10
555.5504270893
 20
147.2838596584
  0
VERTEX
  8
0
 62
7
  6
CONTINUOUS
 10
555.3534710554
 20
146.8300638557
  0
VERTEX
  8
0
 62
7
  6
CONTINUOUS
 10
555.1422850003
 20
146.3770240329
  0
VERTEX
  8
0
 62
7
  6
CONTINUOUS
 10
554.9200686047
 20
145.9284678657
  0
VERTEX
  8
0
 62
7
  6
CONTINUOUS
 10
554.6892138469
 20
145.4877094066
  0
VERTEX
  8
0
 62
7
  6
CONTINUOUS
 10
554.453712516
 20
145.0585450254
  0
VERTEX
  8
0
 62
7
  6
CONTINUOUS
 10
554.216745238
 20
144.6449078995
  0
VERTEX
  8
0
 62
7
  6
CONTINUOUS
 10
553.9822264781
 20
144.2497016586
  0
VERTEX
  8
0
 62
7
  6
CONTINUOUS
 10
553.7539194684
 20
143.8772339958
  0
VERTEX
  8
0
 62
7
  6
CONTINUOUS
 10
553.5334767308
 20
143.527225897
  0
VERTEX
  8
0
 62
7
  6
CONTINUOUS
 10
553.3228566454
 20
143.2007761925
  0
VERTEX
  8
0
 62
7
  6
CONTINUOUS
 10
553.1235402593
 20
142.8980590418
  0
VERTEX
  8
0
 62
7
  6
CONTINUOUS
 10
552.9370579859
 20
142.6198905585
  0
VERTEX
  8
0
 62
7
  6
CONTINUOUS
 10
552.7637994318
 20
142.3654437115
  0
VERTEX
  8
0
 62
7
  6
CONTINUOUS
 10
552.6043358314
 20
142.134353418
  0
VERTEX
  8
0
 62
7
  6
CONTINUOUS
 10
552.4589088536
 20
141.9260499466
  0
SEQEND
  0
LINE
  8
0
 62
7
  6
CONTINUOUS
 10
-183.224607958
 20
501.9740194371
 11
551.775392042
 21
501.9740194371
  0
LINE
  8
0
 62
7
  6
CONTINUOUS
 10
551.775392042
 20
664.4740194371
 11
551.775392042
 21
620.9740194371
  0
LINE
  8
0
 62
7
  6
CONTINUOUS
 10
551.775392042
 20
598.9740194371
 11
551.775392042
 21
523.9740194371
  0
LINE
  8
0
 62
7
  6
CONTINUOUS
 10
551.775392042
 20
501.9740194371
 11
551.775392042
 21
426.9740194371
  0
LINE
  8
0
 62
7
  6
CONTINUOUS
 10
551.775392042
 20
404.9740194371
 11
551.775392042
 21
259.9740194371
  0
LINE
  8
0
 62
7
  6
CONTINUOUS
 10
551.775392042
 20
237.9740194371
 11
551.775392042
 21
162.9740194371
  0
LINE
  8
0
 62
7
  6
CONTINUOUS
 10
551.775392042
 20
140.9740194371
 11
551.775392042
 21
65.9740194371
  0
LINE
  8
0
 62
7
  6
CONTINUOUS
 10
551.775392042
 20
43.9740194371
 11
551.775392042
 21
-101.0259805629
  0
LINE
  8
0
 62
7
  6
CONTINUOUS
 10
551.775392042
 20
-123.0259805629
 11
551.775392042
 21
-198.0259805629
  0
LINE
  8
0
 62
7
  6
CONTINUOUS
 10
551.775392042
 20
-220.0259805629
 11
551.775392042
 21
-295.0259805629
  0
LINE
  8
0
 62
7
  6
CONTINUOUS
 10
551.775392042
 20
-317.0259805629
 11
551.775392042
 21
-360.5259805629
  0
LINE
  8
0
 62
7
  6
CONTINUOUS
 10
552.4587613959
 20
44.9258398479
 11
552.210804565
 21
44.575596077
  0
LINE
  8
0
 62
7
  6
CONTINUOUS
 10
552.210804565
 20
44.575596077
 11
552.0191291345
 21
44.3087817467
  0
POLYLINE
  8
0
 62
7
  6
CONTINUOUS
 66
1
 70
0
  0
VERTEX
  8
0
 62
7
  6
CONTINUOUS
 10
552.0191291345
 20
44.3087817467
  0
VERTEX
  8
0
 62
7
  6
CONTINUOUS
 10
551.8360730163
 20
44.056896873
  0
VERTEX
  8
0
 62
7
  6
CONTINUOUS
 10
551.7821117054
 20
43.9831056579
  0
SEQEND
  0
LINE
  8
0
 62
7
  6
CONTINUOUS
 10
551.7821117054
 20
43.9831056579
 11
551.775392042
 21
43.9740194371
  0
LINE
  8
0
 62
7
  6
CONTINUOUS
 10
551.775392042
 20
523.9740194371
 11
-183.224607958
 21
523.9740194371
  0
LINE
  8
0
 62
7
  6
CONTINUOUS
 10
551.775392042
 20
259.9740194371
 11
551.7821130366
 21
259.964933211
  0
LINE
  8
0
 62
7
  6
CONTINUOUS
 10
551.7821130366
 20
259.964933211
 11
551.9444529393
 21
259.7423987373
  0
LINE
  8
0
 62
7
  6
CONTINUOUS
 10
551.9444529393
 20
259.7423987373
 11
552.1080398541
 21
259.5159076529
  0
POLYLINE
  8
0
 62
7
  6
CONTINUOUS
 66
1
 70
0
  0
VERTEX
  8
0
 62
7
  6
CONTINUOUS
 10
552.1080398541
 20
259.5159076529
  0
VERTEX
  8
0
 62
7
  6
CONTINUOUS
 10
552.3278787307
 20
259.2078611936
  0
VERTEX
  8
0
 62
7
  6
CONTINUOUS
 10
552.4589601009
 20
259.0219159097
  0
VERTEX
  8
0
 62
7
  6
CONTINUOUS
 10
552.6043655219
 20
258.8136445319
  0
VERTEX
  8
0
 62
7
  6
CONTINUOUS
 10
552.7637956991
 20
258.5826006057
  0
VERTEX
  8
0
 62
7
  6
CONTINUOUS
 10
552.937025757
 20
258.3281947434
  0
VERTEX
  8
0
 62
7
  6
CONTINUOUS
 10
553.1234721131
 20
258.0500823359
  0
VERTEX
  8
0
 62
7
  6
CONTINUOUS
 10
553.3227351351
 20
257.7474485274
  0
VERTEX
  8
0
 62
7
  6
CONTINUOUS
 10
553.5332842842
 20
257.4211146697
  0
VERTEX
  8
0
 62
7
  6
CONTINUOUS
 10
553.7536249243
 20
257.0712825132
  0
VERTEX
  8
0
 62
7
  6
CONTINUOUS
 10
553.9818286998
 20
256.6989960059
  0
VERTEX
  8
0
 62
7
  6
CONTINUOUS
 10
554.216276553
 20
256.3039359962
  0
VERTEX
  8
0
 62
7
  6
CONTINUOUS
 10
554.4532075508
 20
255.8903935329
  0
VERTEX
  8
0
 62
7
  6
CONTINUOUS
 10
554.6887512771
 20
255.4611760983
  0
VERTEX
  8
0
 62
7
  6
CONTINUOUS
 10
554.9196380709
 20
255.0204152413
  0
VERTEX
  8
0
 62
7
  6
CONTINUOUS
 10
555.141731864
 20
254.5721902279
  0
VERTEX
  8
0
 62
7
  6
CONTINUOUS
 10
555.352799777
 20
254.1194653896
  0
VERTEX
  8
0
 62
7
  6
CONTINUOUS
 10
555.5498098165
 20
253.6656442538
  0
VERTEX
  8
0
 62
7
  6
CONTINUOUS
 10
555.7312488914
 20
253.2134884993
  0
VERTEX
  8
0
 62
7
  6
CONTINUOUS
 10
555.8948215816
 20
252.7670420339
  0
VERTEX
  8
0
 62
7
  6
CONTINUOUS
 10
556.0406425553
 20
252.325861698
  0
VERTEX
  8
0
 62
7
  6
CONTINUOUS
 10
556.1683561055
 20
251.8913294454
  0
VERTEX
  8
0
 62
7
  6
CONTINUOUS
 10
556.2782440403
 20
251.462013844
  0
VERTEX
  8
0
 62
7
  6
CONTINUOUS
 10
556.3708235061
 20
251.036876064
  0
VERTEX
  8
0
 62
7
  6
CONTINUOUS
 10
556.4459924909
 20
250.6161202518
  0
VERTEX
  8
0
 62
7
  6
CONTINUOUS
 10
556.5039760635
 20
250.1998231412
  0
VERTEX
  8
0
 62
7
  6
CONTINUOUS
 10
556.5449731333
 20
249.7873281399
  0
VERTEX
  8
0
 62
7
  6
CONTINUOUS
 10
556.5694165072
 20
249.3786980088
  0
VERTEX
  8
0
 62
7
  6
CONTINUOUS
 10
556.5773527843
 20
248.9718514219
  0
VERTEX
  8
0
 62
7
  6
CONTINUOUS
 10
556.5692657066
 20
248.5653222309
  0
VERTEX
  8
0
 62
7
  6
CONTINUOUS
 10
556.5447036266
 20
248.1573276637
  0
VERTEX
  8
0
 62
7
  6
CONTINUOUS
 10
556.5036696396
 20
247.745599913
  0
VERTEX
  8
0
 62
7
  6
CONTINUOUS
 10
556.4457076677
 20
247.3301279348
  0
VERTEX
  8
0
 62
7
  6
CONTINUOUS
 10
556.3706265938
 20
246.9101438956
  0
VERTEX
  8
0
 62
7
  6
CONTINUOUS
 10
556.27815523
 20
246.4856503557
  0
VERTEX
  8
0
 62
7
  6
CONTINUOUS
 10
556.1683571155
 20
246.0567166555
  0
VERTEX
  8
0
 62
7
  6
CONTINUOUS
 10
556.0407042041
 20
245.6223746207
  0
VERTEX
  8
0
 62
7
  6
CONTINUOUS
 10
555.8948797831
 20
245.1811786281
  0
VERTEX
  8
0
 62
7
  6
CONTINUOUS
 10
555.7312795965
 20
244.7346303647
  0
VERTEX
  8
0
 62
7
  6
CONTINUOUS
 10
555.549822151
 20
244.2824221392
  0
VERTEX
  8
0
 62
7
  6
CONTINUOUS
 10
555.3527831
 20
243.8285364626
  0
VERTEX
  8
0
 62
7
  6
CONTINUOUS
 10
555.1416439361
 20
243.3756771186
  0
VERTEX
  8
0
 62
7
  6
CONTINUOUS
 10
554.919510042
 20
242.927372598
  0
VERTEX
  8
0
 62
7
  6
CONTINUOUS
 10
554.6887092352
 20
242.4867687819
  0
VERTEX
  8
0
 62
7
  6
CONTINUOUS
 10
554.4532479313
 20
242.0577172832
  0
VERTEX
  8
0
 62
7
  6
CONTINUOUS
 10
554.2162942754
 20
241.6441380362
  0
VERTEX
  8
0
 62
7
  6
CONTINUOUS
 10
553.9817858822
 20
241.248971957
  0
VERTEX
  8
0
 62
7
  6
CONTINUOUS
 10
553.7535023933
 20
240.8765635162
  0
VERTEX
  8
0
 62
7
  6
CONTINUOUS
 10
553.5330914966
 20
240.5266219838
  0
VERTEX
  8
0
 62
7
  6
CONTINUOUS
 10
553.3225138889
 20
240.2002499939
  0
VERTEX
  8
0
 62
7
  6
CONTINUOUS
 10
553.1232430046
 20
239.8976119243
  0
VERTEX
  8
0
 62
7
  6
CONTINUOUS
 10
552.936804548
 20
239.6195153322
  0
VERTEX
  8
0
 62
7
  6
CONTINUOUS
 10
552.7635865722
 20
239.3651333142
  0
VERTEX
  8
0
 62
7
  6
CONTINUOUS
 10
552.604157603
 20
239.1340969036
  0
VERTEX
  8
0
 62
7
  6
CONTINUOUS
 10
552.4587613959
 20
238.9258398479
  0
SEQEND
  0
LINE
  8
0
 62
7
  6
CONTINUOUS
 10
581.775392042
 20
664.4740194371
 11
581.775392042
 21
-360.5259805629
  0
LINE
  8
0
 62
7
  6
CONTINUOUS
 10
552.4587613959
 20
-122.0741601521
 11
552.210804565
 21
-122.424403923
  0
LINE
  8
0
 62
7
  6
CONTINUOUS
 10
552.210804565
 20
-122.424403923
 11
552.0191291345
 21
-122.6912182533
  0
POLYLINE
  8
0
 62
7
  6
CONTINUOUS
 66
1
 70
0
  0
VERTEX
  8
0
 62
7
  6
CONTINUOUS
 10
552.0191291345
 20
-122.6912182533
  0
VERTEX
  8
0
 62
7
  6
CONTINUOUS
 10
551.8360730163
 20
-122.943103127
  0
VERTEX
  8
0
 62
7
  6
CONTINUOUS
 10
551.7821117054
 20
-123.0168943421
  0
SEQEND
  0
LINE
  8
0
 62
7
  6
CONTINUOUS
 10
551.7821117054
 20
-123.0168943421
 11
551.775392042
 21
-123.0259805629
  0
LINE
  8
0
 62
7
  6
CONTINUOUS
 10
-183.224607958
 20
598.9740194371
 11
551.775392042
 21
598.9740194371
  0
LINE
  8
0
 62
7
  6
CONTINUOUS
 10
551.775392042
 20
620.9740194371
 11
-183.224607958
 21
620.9740194371
  0
LINE
  8
0
 62
7
  6
CONTINUOUS
 10
551.775392042
 20
426.9740194371
 11
551.7821130366
 21
426.964933211
  0
LINE
  8
0
 62
7
  6
CONTINUOUS
 10
551.7821130366
 20
426.964933211
 11
551.9444529393
 21
426.7423987373
  0
LINE
  8
0
 62
7
  6
CONTINUOUS
 10
551.9444529393
 20
426.7423987373
 11
552.1080398541
 21
426.5159076529
  0
POLYLINE
  8
0
 62
7
  6
CONTINUOUS
 66
1
 70
0
  0
VERTEX
  8
0
 62
7
  6
CONTINUOUS
 10
552.1080398541
 20
426.5159076529
  0
VERTEX
  8
0
 62
7
  6
CONTINUOUS
 10
552.3278787307
 20
426.2078611936
  0
VERTEX
  8
0
 62
7
  6
CONTINUOUS
 10
552.4589601009
 20
426.0219159097
  0
VERTEX
  8
0
 62
7
  6
CONTINUOUS
 10
552.6043655219
 20
425.8136445319
  0
VERTEX
  8
0
 62
7
  6
CONTINUOUS
 10
552.7637956991
 20
425.5826006057
  0
VERTEX
  8
0
 62
7
  6
CONTINUOUS
 10
552.937025757
 20
425.3281947434
  0
VERTEX
  8
0
 62
7
  6
CONTINUOUS
 10
553.1234721131
 20
425.0500823359
  0
VERTEX
  8
0
 62
7
  6
CONTINUOUS
 10
553.3227351351
 20
424.7474485274
  0
VERTEX
  8
0
 62
7
  6
CONTINUOUS
 10
553.5332842842
 20
424.4211146697
  0
VERTEX
  8
0
 62
7
  6
CONTINUOUS
 10
553.7536249243
 20
424.0712825132
  0
VERTEX
  8
0
 62
7
  6
CONTINUOUS
 10
553.9818286998
 20
423.6989960059
  0
VERTEX
  8
0
 62
7
  6
CONTINUOUS
 10
554.216276553
 20
423.3039359962
  0
VERTEX
  8
0
 62
7
  6
CONTINUOUS
 10
554.4532075508
 20
422.8903935329
  0
VERTEX
  8
0
 62
7
  6
CONTINUOUS
 10
554.6887512771
 20
422.4611760983
  0
VERTEX
  8
0
 62
7
  6
CONTINUOUS
 10
554.9196380709
 20
422.0204152413
  0
VERTEX
  8
0
 62
7
  6
CONTINUOUS
 10
555.141731864
 20
421.5721902279
  0
VERTEX
  8
0
 62
7
  6
CONTINUOUS
 10
555.352799777
 20
421.1194653896
  0
VERTEX
  8
0
 62
7
  6
CONTINUOUS
 10
555.5498098165
 20
420.6656442538
  0
VERTEX
  8
0
 62
7
  6
CONTINUOUS
 10
555.7312488914
 20
420.2134884993
  0
VERTEX
  8
0
 62
7
  6
CONTINUOUS
 10
555.8948215816
 20
419.7670420339
  0
VERTEX
  8
0
 62
7
  6
CONTINUOUS
 10
556.0406425553
 20
419.325861698
  0
VERTEX
  8
0
 62
7
  6
CONTINUOUS
 10
556.1683561055
 20
418.8913294454
  0
VERTEX
  8
0
 62
7
  6
CONTINUOUS
 10
556.2782440403
 20
418.462013844
  0
VERTEX
  8
0
 62
7
  6
CONTINUOUS
 10
556.3708235061
 20
418.036876064
  0
VERTEX
  8
0
 62
7
  6
CONTINUOUS
 10
556.4459924909
 20
417.6161202518
  0
VERTEX
  8
0
 62
7
  6
CONTINUOUS
 10
556.5039760635
 20
417.1998231412
  0
VERTEX
  8
0
 62
7
  6
CONTINUOUS
 10
556.5449731333
 20
416.7873281399
  0
VERTEX
  8
0
 62
7
  6
CONTINUOUS
 10
556.5694165072
 20
416.3786980088
  0
VERTEX
  8
0
 62
7
  6
CONTINUOUS
 10
556.5773527843
 20
415.9718514219
  0
VERTEX
  8
0
 62
7
  6
CONTINUOUS
 10
556.5692657066
 20
415.5653222309
  0
VERTEX
  8
0
 62
7
  6
CONTINUOUS
 10
556.5447036266
 20
415.1573276637
  0
VERTEX
  8
0
 62
7
  6
CONTINUOUS
 10
556.5036696396
 20
414.745599913
  0
VERTEX
  8
0
 62
7
  6
CONTINUOUS
 10
556.4457076677
 20
414.3301279348
  0
VERTEX
  8
0
 62
7
  6
CONTINUOUS
 10
556.3706265938
 20
413.9101438956
  0
VERTEX
  8
0
 62
7
  6
CONTINUOUS
 10
556.27815523
 20
413.4856503557
  0
VERTEX
  8
0
 62
7
  6
CONTINUOUS
 10
556.1683571155
 20
413.0567166555
  0
VERTEX
  8
0
 62
7
  6
CONTINUOUS
 10
556.0407042041
 20
412.6223746207
  0
VERTEX
  8
0
 62
7
  6
CONTINUOUS
 10
555.8948797831
 20
412.1811786281
  0
VERTEX
  8
0
 62
7
  6
CONTINUOUS
 10
555.7312795965
 20
411.7346303647
  0
VERTEX
  8
0
 62
7
  6
CONTINUOUS
 10
555.549822151
 20
411.2824221392
  0
VERTEX
  8
0
 62
7
  6
CONTINUOUS
 10
555.3527831
 20
410.8285364626
  0
VERTEX
  8
0
 62
7
  6
CONTINUOUS
 10
555.1416439361
 20
410.3756771186
  0
VERTEX
  8
0
 62
7
  6
CONTINUOUS
 10
554.919510042
 20
409.927372598
  0
VERTEX
  8
0
 62
7
  6
CONTINUOUS
 10
554.6887092352
 20
409.4867687819
  0
VERTEX
  8
0
 62
7
  6
CONTINUOUS
 10
554.4532479313
 20
409.0577172832
  0
VERTEX
  8
0
 62
7
  6
CONTINUOUS
 10
554.2162942754
 20
408.6441380362
  0
VERTEX
  8
0
 62
7
  6
CONTINUOUS
 10
553.9817858822
 20
408.248971957
  0
VERTEX
  8
0
 62
7
  6
CONTINUOUS
 10
553.7535023933
 20
407.8765635162
  0
VERTEX
  8
0
 62
7
  6
CONTINUOUS
 10
553.5330914966
 20
407.5266219838
  0
VERTEX
  8
0
 62
7
  6
CONTINUOUS
 10
553.3225138889
 20
407.2002499939
  0
VERTEX
  8
0
 62
7
  6
CONTINUOUS
 10
553.1232430046
 20
406.8976119243
  0
VERTEX
  8
0
 62
7
  6
CONTINUOUS
 10
552.936804548
 20
406.6195153322
  0
VERTEX
  8
0
 62
7
  6
CONTINUOUS
 10
552.7635865722
 20
406.3651333142
  0
VERTEX
  8
0
 62
7
  6
CONTINUOUS
 10
552.604157603
 20
406.1340969036
  0
VERTEX
  8
0
 62
7
  6
CONTINUOUS
 10
552.4587613959
 20
405.9258398479
  0
SEQEND
  0
LINE
  8
0
 62
7
  6
CONTINUOUS
 10
552.4587613959
 20
-219.0741601521
 11
552.210804565
 21
-219.424403923
  0
LINE
  8
0
 62
7
  6
CONTINUOUS
 10
552.210804565
 20
-219.424403923
 11
552.0191291345
 21
-219.6912182533
  0
POLYLINE
  8
0
 62
7
  6
CONTINUOUS
 66
1
 70
0
  0
VERTEX
  8
0
 62
7
  6
CONTINUOUS
 10
552.0191291345
 20
-219.6912182533
  0
VERTEX
  8
0
 62
7
  6
CONTINUOUS
 10
551.8360730163
 20
-219.943103127
  0
VERTEX
  8
0
 62
7
  6
CONTINUOUS
 10
551.7821117054
 20
-220.0168943421
  0
SEQEND
  0
LINE
  8
0
 62
7
  6
CONTINUOUS
 10
551.7821117054
 20
-220.0168943421
 11
551.775392042
 21
-220.0259805629
  0
LINE
  8
0
 62
7
  6
CONTINUOUS
 10
-183.224607958
 20
664.4740194371
 11
-213.224607958
 21
664.4740194371
  0
LINE
  8
0
 62
7
  6
CONTINUOUS
 10
551.775392042
 20
664.4740194371
 11
581.775392042
 21
664.4740194371
  0
LINE
  8
0
 62
7
  6
CONTINUOUS
 10
551.775392042
 20
523.9740194371
 11
551.7821130366
 21
523.964933211
  0
LINE
  8
0
 62
7
  6
CONTINUOUS
 10
551.7821130366
 20
523.964933211
 11
551.9444529393
 21
523.7423987373
  0
LINE
  8
0
 62
7
  6
CONTINUOUS
 10
551.9444529393
 20
523.7423987373
 11
552.1080398541
 21
523.5159076529
  0
POLYLINE
  8
0
 62
7
  6
CONTINUOUS
 66
1
 70
0
  0
VERTEX
  8
0
 62
7
  6
CONTINUOUS
 10
552.1080398541
 20
523.5159076529
  0
VERTEX
  8
0
 62
7
  6
CONTINUOUS
 10
552.3278787307
 20
523.2078611936
  0
VERTEX
  8
0
 62
7
  6
CONTINUOUS
 10
552.4589601009
 20
523.0219159097
  0
VERTEX
  8
0
 62
7
  6
CONTINUOUS
 10
552.6043655219
 20
522.8136445319
  0
VERTEX
  8
0
 62
7
  6
CONTINUOUS
 10
552.7637956991
 20
522.5826006057
  0
VERTEX
  8
0
 62
7
  6
CONTINUOUS
 10
552.937025757
 20
522.3281947434
  0
VERTEX
  8
0
 62
7
  6
CONTINUOUS
 10
553.1234721131
 20
522.0500823359
  0
VERTEX
  8
0
 62
7
  6
CONTINUOUS
 10
553.3227351351
 20
521.7474485274
  0
VERTEX
  8
0
 62
7
  6
CONTINUOUS
 10
553.5332842842
 20
521.4211146697
  0
VERTEX
  8
0
 62
7
  6
CONTINUOUS
 10
553.7536249243
 20
521.0712825132
  0
VERTEX
  8
0
 62
7
  6
CONTINUOUS
 10
553.9818286998
 20
520.6989960059
  0
VERTEX
  8
0
 62
7
  6
CONTINUOUS
 10
554.216276553
 20
520.3039359962
  0
VERTEX
  8
0
 62
7
  6
CONTINUOUS
 10
554.4532075508
 20
519.8903935329
  0
VERTEX
  8
0
 62
7
  6
CONTINUOUS
 10
554.6887512771
 20
519.4611760983
  0
VERTEX
  8
0
 62
7
  6
CONTINUOUS
 10
554.9196380709
 20
519.0204152413
  0
VERTEX
  8
0
 62
7
  6
CONTINUOUS
 10
555.141731864
 20
518.5721902279
  0
VERTEX
  8
0
 62
7
  6
CONTINUOUS
 10
555.352799777
 20
518.1194653896
  0
VERTEX
  8
0
 62
7
  6
CONTINUOUS
 10
555.5498098165
 20
517.6656442538
  0
VERTEX
  8
0
 62
7
  6
CONTINUOUS
 10
555.7312488914
 20
517.2134884993
  0
VERTEX
  8
0
 62
7
  6
CONTINUOUS
 10
555.8948215816
 20
516.7670420339
  0
VERTEX
  8
0
 62
7
  6
CONTINUOUS
 10
556.0406425553
 20
516.325861698
  0
VERTEX
  8
0
 62
7
  6
CONTINUOUS
 10
556.1683561055
 20
515.8913294454
  0
VERTEX
  8
0
 62
7
  6
CONTINUOUS
 10
556.2782440403
 20
515.462013844
  0
VERTEX
  8
0
 62
7
  6
CONTINUOUS
 10
556.3708235061
 20
515.036876064
  0
VERTEX
  8
0
 62
7
  6
CONTINUOUS
 10
556.4459924909
 20
514.6161202518
  0
VERTEX
  8
0
 62
7
  6
CONTINUOUS
 10
556.5039760635
 20
514.1998231412
  0
VERTEX
  8
0
 62
7
  6
CONTINUOUS
 10
556.5449731333
 20
513.7873281399
  0
VERTEX
  8
0
 62
7
  6
CONTINUOUS
 10
556.5694165072
 20
513.3786980088
  0
VERTEX
  8
0
 62
7
  6
CONTINUOUS
 10
556.5773527843
 20
512.9718514219
  0
VERTEX
  8
0
 62
7
  6
CONTINUOUS
 10
556.5692657066
 20
512.5653222309
  0
VERTEX
  8
0
 62
7
  6
CONTINUOUS
 10
556.5447036266
 20
512.1573276637
  0
VERTEX
  8
0
 62
7
  6
CONTINUOUS
 10
556.5036696396
 20
511.745599913
  0
VERTEX
  8
0
 62
7
  6
CONTINUOUS
 10
556.4457076677
 20
511.3301279348
  0
VERTEX
  8
0
 62
7
  6
CONTINUOUS
 10
556.3706265938
 20
510.9101438956
  0
VERTEX
  8
0
 62
7
  6
CONTINUOUS
 10
556.27815523
 20
510.4856503557
  0
VERTEX
  8
0
 62
7
  6
CONTINUOUS
 10
556.1683571155
 20
510.0567166555
  0
VERTEX
  8
0
 62
7
  6
CONTINUOUS
 10
556.0407042041
 20
509.6223746207
  0
VERTEX
  8
0
 62
7
  6
CONTINUOUS
 10
555.8948797831
 20
509.1811786281
  0
VERTEX
  8
0
 62
7
  6
CONTINUOUS
 10
555.7312795965
 20
508.7346303647
  0
VERTEX
  8
0
 62
7
  6
CONTINUOUS
 10
555.549822151
 20
508.2824221392
  0
VERTEX
  8
0
 62
7
  6
CONTINUOUS
 10
555.3527831
 20
507.8285364626
  0
VERTEX
  8
0
 62
7
  6
CONTINUOUS
 10
555.1416439361
 20
507.3756771186
  0
VERTEX
  8
0
 62
7
  6
CONTINUOUS
 10
554.919510042
 20
506.927372598
  0
VERTEX
  8
0
 62
7
  6
CONTINUOUS
 10
554.6887092352
 20
506.4867687819
  0
VERTEX
  8
0
 62
7
  6
CONTINUOUS
 10
554.4532479313
 20
506.0577172832
  0
VERTEX
  8
0
 62
7
  6
CONTINUOUS
 10
554.2162942754
 20
505.6441380362
  0
VERTEX
  8
0
 62
7
  6
CONTINUOUS
 10
553.9817858822
 20
505.248971957
  0
VERTEX
  8
0
 62
7
  6
CONTINUOUS
 10
553.7535023933
 20
504.8765635162
  0
VERTEX
  8
0
 62
7
  6
CONTINUOUS
 10
553.5330914966
 20
504.5266219838
  0
VERTEX
  8
0
 62
7
  6
CONTINUOUS
 10
553.3225138889
 20
504.2002499939
  0
VERTEX
  8
0
 62
7
  6
CONTINUOUS
 10
553.1232430046
 20
503.8976119243
  0
VERTEX
  8
0
 62
7
  6
CONTINUOUS
 10
552.936804548
 20
503.6195153322
  0
VERTEX
  8
0
 62
7
  6
CONTINUOUS
 10
552.7635865722
 20
503.3651333142
  0
VERTEX
  8
0
 62
7
  6
CONTINUOUS
 10
552.604157603
 20
503.1340969036
  0
VERTEX
  8
0
 62
7
  6
CONTINUOUS
 10
552.4587613959
 20
502.9258398479
  0
SEQEND
  0
LINE
  8
0
 62
7
  6
CONTINUOUS
 10
552.4587613959
 20
-316.0741601521
 11
552.210804565
 21
-316.424403923
  0
LINE
  8
0
 62
7
  6
CONTINUOUS
 10
552.210804565
 20
-316.424403923
 11
552.0191291345
 21
-316.6912182533
  0
POLYLINE
  8
0
 62
7
  6
CONTINUOUS
 66
1
 70
0
  0
VERTEX
  8
0
 62
7
  6
CONTINUOUS
 10
552.0191291345
 20
-316.6912182533
  0
VERTEX
  8
0
 62
7
  6
CONTINUOUS
 10
551.8360730163
 20
-316.943103127
  0
VERTEX
  8
0
 62
7
  6
CONTINUOUS
 10
551.7821117054
 20
-317.0168943421
  0
SEQEND
  0
LINE
  8
0
 62
7
  6
CONTINUOUS
 10
551.7821117054
 20
-317.0168943421
 11
551.775392042
 21
-317.0259805629
  0
LINE
  8
0
 62
7
  6
CONTINUOUS
 10
551.775392042
 20
620.9740194371
 11
551.7821130366
 21
620.964933211
  0
LINE
  8
0
 62
7
  6
CONTINUOUS
 10
551.7821130366
 20
620.964933211
 11
551.9444529393
 21
620.7423987373
  0
LINE
  8
0
 62
7
  6
CONTINUOUS
 10
551.9444529393
 20
620.7423987373
 11
552.1080398541
 21
620.5159076529
  0
POLYLINE
  8
0
 62
7
  6
CONTINUOUS
 66
1
 70
0
  0
VERTEX
  8
0
 62
7
  6
CONTINUOUS
 10
552.1080398541
 20
620.5159076529
  0
VERTEX
  8
0
 62
7
  6
CONTINUOUS
 10
552.3278787307
 20
620.2078611936
  0
VERTEX
  8
0
 62
7
  6
CONTINUOUS
 10
552.4589601009
 20
620.0219159097
  0
VERTEX
  8
0
 62
7
  6
CONTINUOUS
 10
552.6043655219
 20
619.8136445319
  0
VERTEX
  8
0
 62
7
  6
CONTINUOUS
 10
552.7637956991
 20
619.5826006057
  0
VERTEX
  8
0
 62
7
  6
CONTINUOUS
 10
552.937025757
 20
619.3281947434
  0
VERTEX
  8
0
 62
7
  6
CONTINUOUS
 10
553.1234721131
 20
619.0500823359
  0
VERTEX
  8
0
 62
7
  6
CONTINUOUS
 10
553.3227351351
 20
618.7474485274
  0
VERTEX
  8
0
 62
7
  6
CONTINUOUS
 10
553.5332842842
 20
618.4211146697
  0
VERTEX
  8
0
 62
7
  6
CONTINUOUS
 10
553.7536249243
 20
618.0712825132
  0
VERTEX
  8
0
 62
7
  6
CONTINUOUS
 10
553.9818286998
 20
617.6989960059
  0
VERTEX
  8
0
 62
7
  6
CONTINUOUS
 10
554.216276553
 20
617.3039359962
  0
VERTEX
  8
0
 62
7
  6
CONTINUOUS
 10
554.4532075508
 20
616.8903935329
  0
VERTEX
  8
0
 62
7
  6
CONTINUOUS
 10
554.6887512771
 20
616.4611760983
  0
VERTEX
  8
0
 62
7
  6
CONTINUOUS
 10
554.9196380709
 20
616.0204152413
  0
VERTEX
  8
0
 62
7
  6
CONTINUOUS
 10
555.141731864
 20
615.5721902279
  0
VERTEX
  8
0
 62
7
  6
CONTINUOUS
 10
555.352799777
 20
615.1194653896
  0
VERTEX
  8
0
 62
7
  6
CONTINUOUS
 10
555.5498098165
 20
614.6656442538
  0
VERTEX
  8
0
 62
7
  6
CONTINUOUS
 10
555.7312488914
 20
614.2134884993
  0
VERTEX
  8
0
 62
7
  6
CONTINUOUS
 10
555.8948215816
 20
613.7670420339
  0
VERTEX
  8
0
 62
7
  6
CONTINUOUS
 10
556.0406425553
 20
613.325861698
  0
VERTEX
  8
0
 62
7
  6
CONTINUOUS
 10
556.1683561055
 20
612.8913294454
  0
VERTEX
  8
0
 62
7
  6
CONTINUOUS
 10
556.2782440403
 20
612.462013844
  0
VERTEX
  8
0
 62
7
  6
CONTINUOUS
 10
556.3708235061
 20
612.036876064
  0
VERTEX
  8
0
 62
7
  6
CONTINUOUS
 10
556.4459924909
 20
611.6161202518
  0
VERTEX
  8
0
 62
7
  6
CONTINUOUS
 10
556.5039760635
 20
611.1998231412
  0
VERTEX
  8
0
 62
7
  6
CONTINUOUS
 10
556.5449731333
 20
610.7873281399
  0
VERTEX
  8
0
 62
7
  6
CONTINUOUS
 10
556.5694165072
 20
610.3786980088
  0
VERTEX
  8
0
 62
7
  6
CONTINUOUS
 10
556.5773527843
 20
609.9718514219
  0
VERTEX
  8
0
 62
7
  6
CONTINUOUS
 10
556.5692657066
 20
609.5653222309
  0
VERTEX
  8
0
 62
7
  6
CONTINUOUS
 10
556.5447036266
 20
609.1573276637
  0
VERTEX
  8
0
 62
7
  6
CONTINUOUS
 10
556.5036696396
 20
608.745599913
  0
VERTEX
  8
0
 62
7
  6
CONTINUOUS
 10
556.4457076677
 20
608.3301279348
  0
VERTEX
  8
0
 62
7
  6
CONTINUOUS
 10
556.3706265938
 20
607.9101438956
  0
VERTEX
  8
0
 62
7
  6
CONTINUOUS
 10
556.27815523
 20
607.4856503557
  0
VERTEX
  8
0
 62
7
  6
CONTINUOUS
 10
556.1683571155
 20
607.0567166555
  0
VERTEX
  8
0
 62
7
  6
CONTINUOUS
 10
556.0407042041
 20
606.6223746207
  0
VERTEX
  8
0
 62
7
  6
CONTINUOUS
 10
555.8948797831
 20
606.1811786281
  0
VERTEX
  8
0
 62
7
  6
CONTINUOUS
 10
555.7312795965
 20
605.7346303647
  0
VERTEX
  8
0
 62
7
  6
CONTINUOUS
 10
555.549822151
 20
605.2824221392
  0
VERTEX
  8
0
 62
7
  6
CONTINUOUS
 10
555.3527831
 20
604.8285364626
  0
VERTEX
  8
0
 62
7
  6
CONTINUOUS
 10
555.1416439361
 20
604.3756771186
  0
VERTEX
  8
0
 62
7
  6
CONTINUOUS
 10
554.919510042
 20
603.927372598
  0
VERTEX
  8
0
 62
7
  6
CONTINUOUS
 10
554.6887092352
 20
603.4867687819
  0
VERTEX
  8
0
 62
7
  6
CONTINUOUS
 10
554.4532479313
 20
603.0577172832
  0
VERTEX
  8
0
 62
7
  6
CONTINUOUS
 10
554.2162942754
 20
602.6441380362
  0
VERTEX
  8
0
 62
7
  6
CONTINUOUS
 10
553.9817858822
 20
602.248971957
  0
VERTEX
  8
0
 62
7
  6
CONTINUOUS
 10
553.7535023933
 20
601.8765635162
  0
VERTEX
  8
0
 62
7
  6
CONTINUOUS
 10
553.5330914966
 20
601.5266219838
  0
VERTEX
  8
0
 62
7
  6
CONTINUOUS
 10
553.3225138889
 20
601.2002499939
  0
VERTEX
  8
0
 62
7
  6
CONTINUOUS
 10
553.1232430046
 20
600.8976119243
  0
VERTEX
  8
0
 62
7
  6
CONTINUOUS
 10
552.936804548
 20
600.6195153322
  0
VERTEX
  8
0
 62
7
  6
CONTINUOUS
 10
552.7635865722
 20
600.3651333142
  0
VERTEX
  8
0
 62
7
  6
CONTINUOUS
 10
552.604157603
 20
600.1340969036
  0
VERTEX
  8
0
 62
7
  6
CONTINUOUS
 10
552.4587613959
 20
599.9258398479
  0
SEQEND
  0
ENDSEC
  0
EOF
