999
DXF file: K:\Client\125_Heirloom\001\00\Final_Data\Drawings\LADDER TOWEL WARMERS\wg1025en_2.dxf
999
Pro/ENGINEER 2017110 by Parametric Technology Corporation
  0
SECTION
  2
HEADER
  9
$EXTMAX
 10
420.0
 20
297.0
 30
0.0
  9
$EXTMIN
 10
0.0
 20
0.0
 30
0.0
  9
$LIMMIN
 10
0.0
 20
0.0
  9
$LIMMAX
 10
420.0
 20
297.0
  9
$VIEWCTR
 10
210.0
 20
148.5
  9
$VIEWSIZE
 40
297.0
  9
$CLAYER
  8
0
  9
$LTSCALE
 40
23.1
  9
$CELTYPE
  6
BYLAYER
  9
$DIMSCALE
 40
1.0
  9
$DIMASZ
 40
3.0
  9
$DIMEXO
 40
1.0
  9
$DIMDLI
 40
15.96
  9
$DIMEXE
 40
1.0
  9
$DIMCEN
 40
3.78
  9
$DIMLFAC
 40
1.0
  9
$DIMBLK
  1
_FILLED
  9
$DIMALT
 70
0
  9
$DIMALTF
 40
0.0393700787
  9
$DIMTXT
 40
3.0
  9
$AUNITS
 70
0
  9
$PDMODE
 70
3
  9
$PDSIZE
 40
5.0
  9
$TILEMODE
 70
1
  0
ENDSEC
  0
SECTION
  2
TABLES
  0
TABLE
  2
LTYPE
 70
6
  0
LTYPE
  2
BYBLOCK
 70
0
  3

 72
65
 73
0
 40
0.0
  0
LTYPE
  2
BYLAYER
 70
0
  3

 72
65
 73
0
 40
0.0
  0
LTYPE
  2
CONTINUOUS
 70
64
  3
Solid line
 72
65
 73
0
 40
0.0
  0
LTYPE
  2
CENTER
 70
64
  3
____ _ ____ _ ____ _ ____ _ ____ _ ____ _ ____
 72
65
 73
4
 40
0.6
 49
0.375
 49
-0.075
 49
0.075
 49
-0.075
  0
LTYPE
  2
HIDDEN
 70
64
  3
- - - - - - - - - - - - - - - - - - - -
 72
65
 73
2
 40
0.2
 49
0.1
 49
-0.1
  0
LTYPE
  2
PHANTOM
 70
64
  3
_____ _ _ _____ _ _ _____ _ _ _____
 72
65
 73
6
 40
0.8
 49
0.45
 49
-0.05
 49
0.1
 49
-0.05
 49
0.1
 49
-0.05
  0
LTYPE
  2
DOT
 70
64
  3
. . . . . . . . . . . . . . . . . . . .
 72
65
 73
2
 40
0.2
 49
0.1
 49
-0.1
  0
LTYPE
  2
DASHED
 70
64
  3
- - - - - - - - - - - - - - - - - - - -
 72
65
 73
2
 40
0.2
 49
0.1
 49
-0.1
  0
ENDTAB
  0
TABLE
  2
LAYER
 70
36
  0
LAYER
  2
0
 70
0
 62
7
  6
CONTINUOUS
  0
LAYER
  2
DEFAULT_1
 70
0
 62
7
  6
CENTER
  0
LAYER
  2
DEFAULT_2
 70
0
 62
8
  6
HIDDEN
  0
LAYER
  2
DEFAULT_3
 70
0
 62
7
  6
PHANTOM
  0
LAYER
  2
0000_BOM
 70
0
 62
7
  6
CONTINUOUS
  0
LAYER
  2
0000_REV_TABLE
 70
0
 62
7
  6
CONTINUOUS
  0
LAYER
  2
0000_STEVENS_NOTE
 70
0
 62
7
  6
CONTINUOUS
  0
LAYER
  2
01_DATUM_PLANES
 70
0
 62
7
  6
CONTINUOUS
  0
LAYER
  2
01_DEF_PLANES
 70
0
 62
7
  6
CONTINUOUS
  0
LAYER
  2
02_DATUM_COS
 70
0
 62
7
  6
CONTINUOUS
  0
LAYER
  2
99_SOLID
 70
0
 62
7
  6
CONTINUOUS
  0
LAYER
  2
CAD-MASTER_ZINC-PL
 70
0
 62
7
  6
CONTINUOUS
  0
LAYER
  2
CURVE
 70
0
 62
7
  6
CONTINUOUS
  0
LAYER
  2
SKEL
 70
0
 62
7
  6
CONTINUOUS
  0
LAYER
  2
SKETCH
 70
0
 62
7
  6
CONTINUOUS
  0
LAYER
  2
SURFACE
 70
0
 62
7
  6
CONTINUOUS
  0
ENDTAB
  0
TABLE
  2
STYLE
 70
1
  0
STYLE
  2
STANDARD
 70
0
 40
0.0
 41
0.75
 50
0.0
 71
0
 42
0.2
  3
txt
  4

  0
STYLE
  2
TEXTSTYLE_1
 70
0
 40
0.0
 41
0.8
 50
0.0
 71
0
 42
0.2
  3
gdt
  4

  0
ENDTAB
  0
ENDSEC
  0
SECTION
  2
BLOCKS
  0
ENDSEC
  0
SECTION
  2
ENTITIES
  0
LINE
  8
0
 62
7
  6
CONTINUOUS
 10
117.2073269735
 20
-359.9191740561
 11
147.2073269735
 21
-359.9191740561
  0
LINE
  8
0
 62
7
  6
CONTINUOUS
 10
147.2073269735
 20
-272.4191740561
 11
239.2073269735
 21
-272.4191740561
  0
LINE
  8
0
 62
7
  6
CONTINUOUS
 10
147.2073269735
 20
-247.4191740561
 11
239.2073269735
 21
-247.4191740561
  0
LINE
  8
0
 62
7
  6
CONTINUOUS
 10
145.6858536891
 20
575.7072403168
 11
146.1004647196
 21
576.2284389814
  0
LINE
  8
0
 62
7
  6
CONTINUOUS
 10
146.1004647196
 20
576.2284389814
 11
146.4455397286
 21
576.6556565026
  0
LINE
  8
0
 62
7
  6
CONTINUOUS
 10
146.4455397286
 20
576.6556565026
 11
146.7237848545
 21
576.9962591887
  0
LINE
  8
0
 62
7
  6
CONTINUOUS
 10
146.7237848545
 20
576.9962591887
 11
147.0203596715
 21
577.355880655
  0
LINE
  8
0
 62
7
  6
CONTINUOUS
 10
147.0203596715
 20
577.355880655
 11
147.1999602869
 21
577.5721113547
  0
LINE
  8
0
 62
7
  6
CONTINUOUS
 10
147.1999602869
 20
577.5721113547
 11
147.2073269735
 21
577.5808259439
  0
LINE
  8
0
 62
7
  6
CONTINUOUS
 10
147.2073269735
 20
-272.4191740561
 11
147.1999622735
 21
-272.4104678723
  0
LINE
  8
0
 62
7
  6
CONTINUOUS
 10
147.1999622735
 20
-272.4104678723
 11
146.8383640606
 21
-271.9739589257
  0
LINE
  8
0
 62
7
  6
CONTINUOUS
 10
146.8383640606
 20
-271.9739589257
 11
146.5926386679
 21
-271.6745084625
  0
LINE
  8
0
 62
7
  6
CONTINUOUS
 10
146.5926386679
 20
-271.6745084625
 11
146.2811910134
 21
-271.2912814439
  0
POLYLINE
  8
0
 62
7
  6
CONTINUOUS
 66
1
 70
0
  0
VERTEX
  8
0
 62
7
  6
CONTINUOUS
 10
146.2811910134
 20
-271.2912814439
  0
VERTEX
  8
0
 62
7
  6
CONTINUOUS
 10
145.9015127023
 20
-270.81784782
  0
VERTEX
  8
0
 62
7
  6
CONTINUOUS
 10
145.6855092692
 20
-270.545151564
  0
VERTEX
  8
0
 62
7
  6
CONTINUOUS
 10
145.4519553672
 20
-270.247273544
  0
VERTEX
  8
0
 62
7
  6
CONTINUOUS
 10
145.2017207469
 20
-269.9243861748
  0
VERTEX
  8
0
 62
7
  6
CONTINUOUS
 10
144.9356229623
 20
-269.5762662368
  0
VERTEX
  8
0
 62
7
  6
CONTINUOUS
 10
144.6548710232
 20
-269.2031038743
  0
VERTEX
  8
0
 62
7
  6
CONTINUOUS
 10
144.3606014331
 20
-268.8046549772
  0
VERTEX
  8
0
 62
7
  6
CONTINUOUS
 10
144.0550865735
 20
-268.3819990892
  0
VERTEX
  8
0
 62
7
  6
CONTINUOUS
 10
143.7398530303
 20
-267.9345097526
  0
VERTEX
  8
0
 62
7
  6
CONTINUOUS
 10
143.4198465489
 20
-267.4670608617
  0
VERTEX
  8
0
 62
7
  6
CONTINUOUS
 10
143.0998663001
 20
-266.9827270234
  0
VERTEX
  8
0
 62
7
  6
CONTINUOUS
 10
142.7845135458
 20
-266.4862796428
  0
VERTEX
  8
0
 62
7
  6
CONTINUOUS
 10
142.4787548979
 20
-265.9810005505
  0
VERTEX
  8
0
 62
7
  6
CONTINUOUS
 10
142.187853151
 20
-265.4744330763
  0
VERTEX
  8
0
 62
7
  6
CONTINUOUS
 10
141.9183547991
 20
-264.9737949192
  0
VERTEX
  8
0
 62
7
  6
CONTINUOUS
 10
141.672085533
 20
-264.4833448012
  0
VERTEX
  8
0
 62
7
  6
CONTINUOUS
 10
141.4533477086
 20
-264.0106131608
  0
VERTEX
  8
0
 62
7
  6
CONTINUOUS
 10
141.2602110168
 20
-263.5530025472
  0
VERTEX
  8
0
 62
7
  6
CONTINUOUS
 10
141.0919792508
 20
-263.1112255657
  0
VERTEX
  8
0
 62
7
  6
CONTINUOUS
 10
140.9473546788
 20
-262.6828824868
  0
VERTEX
  8
0
 62
7
  6
CONTINUOUS
 10
140.8246374721
 20
-262.2665813406
  0
VERTEX
  8
0
 62
7
  6
CONTINUOUS
 10
140.7230095534
 20
-261.8600114534
  0
VERTEX
  8
0
 62
7
  6
CONTINUOUS
 10
140.6408909361
 20
-261.4605426978
  0
VERTEX
  8
0
 62
7
  6
CONTINUOUS
 10
140.5780621319
 20
-261.0677414653
  0
VERTEX
  8
0
 62
7
  6
CONTINUOUS
 10
140.5337211554
 20
-260.680894713
  0
VERTEX
  8
0
 62
7
  6
CONTINUOUS
 10
140.5075479774
 20
-260.298210616
  0
VERTEX
  8
0
 62
7
  6
CONTINUOUS
 10
140.4987340087
 20
-259.9186995632
  0
VERTEX
  8
0
 62
7
  6
CONTINUOUS
 10
140.5075889251
 20
-259.5392418699
  0
VERTEX
  8
0
 62
7
  6
CONTINUOUS
 10
140.5337771999
 20
-259.1567670315
  0
VERTEX
  8
0
 62
7
  6
CONTINUOUS
 10
140.578126463
 20
-258.770137897
  0
VERTEX
  8
0
 62
7
  6
CONTINUOUS
 10
140.6409630626
 20
-258.3774125467
  0
VERTEX
  8
0
 62
7
  6
CONTINUOUS
 10
140.7231011554
 20
-257.9779347825
  0
VERTEX
  8
0
 62
7
  6
CONTINUOUS
 10
140.8247835332
 20
-257.571246709
  0
VERTEX
  8
0
 62
7
  6
CONTINUOUS
 10
140.9475615441
 20
-257.1548114985
  0
VERTEX
  8
0
 62
7
  6
CONTINUOUS
 10
141.0922296466
 20
-256.7264225423
  0
VERTEX
  8
0
 62
7
  6
CONTINUOUS
 10
141.260497751
 20
-256.2846312889
  0
VERTEX
  8
0
 62
7
  6
CONTINUOUS
 10
141.4536340757
 20
-255.8270694989
  0
VERTEX
  8
0
 62
7
  6
CONTINUOUS
 10
141.6724297119
 20
-255.3542896272
  0
VERTEX
  8
0
 62
7
  6
CONTINUOUS
 10
141.9189334975
 20
-254.8634591463
  0
VERTEX
  8
0
 62
7
  6
CONTINUOUS
 10
142.1887161308
 20
-254.3623647638
  0
VERTEX
  8
0
 62
7
  6
CONTINUOUS
 10
142.4799036039
 20
-253.8554142286
  0
VERTEX
  8
0
 62
7
  6
CONTINUOUS
 10
142.7858526471
 20
-253.3499118884
  0
VERTEX
  8
0
 62
7
  6
CONTINUOUS
 10
143.1011821399
 20
-252.853586462
  0
VERTEX
  8
0
 62
7
  6
CONTINUOUS
 10
143.4210008747
 20
-252.3695725856
  0
VERTEX
  8
0
 62
7
  6
CONTINUOUS
 10
143.7406909143
 20
-251.9026180149
  0
VERTEX
  8
0
 62
7
  6
CONTINUOUS
 10
144.0556129595
 20
-251.4556121105
  0
VERTEX
  8
0
 62
7
  6
CONTINUOUS
 10
144.3609683318
 20
-251.0331938813
  0
VERTEX
  8
0
 62
7
  6
CONTINUOUS
 10
144.6551560132
 20
-250.6348621374
  0
VERTEX
  8
0
 62
7
  6
CONTINUOUS
 10
144.9358896319
 20
-250.2617330845
  0
VERTEX
  8
0
 62
7
  6
CONTINUOUS
 10
145.2020043975
 20
-249.9135935454
  0
VERTEX
  8
0
 62
7
  6
CONTINUOUS
 10
145.4522708127
 20
-249.5906722438
  0
VERTEX
  8
0
 62
7
  6
CONTINUOUS
 10
145.6858536891
 20
-249.2927596832
  0
SEQEND
  0
LINE
  8
0
 62
7
  6
CONTINUOUS
 10
117.2073269735
 20
-359.9191740561
 11
117.2073269735
 21
665.0808259439
  0
LINE
  8
0
 62
7
  6
CONTINUOUS
 10
147.2073269735
 20
-359.9191740561
 11
147.2073269735
 21
-272.4191740561
  0
LINE
  8
0
 62
7
  6
CONTINUOUS
 10
147.2073269735
 20
-247.4191740561
 11
147.2073269735
 21
552.5808259439
  0
LINE
  8
0
 62
7
  6
CONTINUOUS
 10
147.2073269735
 20
577.5808259439
 11
147.2073269735
 21
665.0808259439
  0
LINE
  8
0
 62
7
  6
CONTINUOUS
 10
239.2073269735
 20
-272.4191740561
 11
239.2073269735
 21
-247.4191740561
  0
LINE
  8
0
 62
7
  6
CONTINUOUS
 10
239.2073269735
 20
552.5808259439
 11
239.2073269735
 21
577.5808259439
  0
LINE
  8
0
 62
7
  6
CONTINUOUS
 10
145.6858536891
 20
-249.2927596832
 11
146.1004647196
 21
-248.7715610186
  0
LINE
  8
0
 62
7
  6
CONTINUOUS
 10
146.1004647196
 20
-248.7715610186
 11
146.4455397286
 21
-248.3443434974
  0
LINE
  8
0
 62
7
  6
CONTINUOUS
 10
146.4455397286
 20
-248.3443434974
 11
146.7237848545
 21
-248.0037408113
  0
LINE
  8
0
 62
7
  6
CONTINUOUS
 10
146.7237848545
 20
-248.0037408113
 11
147.0203596715
 21
-247.644119345
  0
LINE
  8
0
 62
7
  6
CONTINUOUS
 10
147.0203596715
 20
-247.644119345
 11
147.1999602869
 21
-247.4278886453
  0
LINE
  8
0
 62
7
  6
CONTINUOUS
 10
147.1999602869
 20
-247.4278886453
 11
147.2073269735
 21
-247.4191740561
  0
LINE
  8
0
 62
7
  6
CONTINUOUS
 10
147.2073269735
 20
552.5808259439
 11
147.1999622735
 21
552.5895321277
  0
LINE
  8
0
 62
7
  6
CONTINUOUS
 10
147.1999622735
 20
552.5895321277
 11
146.8383640606
 21
553.0260410743
  0
LINE
  8
0
 62
7
  6
CONTINUOUS
 10
146.8383640606
 20
553.0260410743
 11
146.5926386679
 21
553.3254915375
  0
LINE
  8
0
 62
7
  6
CONTINUOUS
 10
146.5926386679
 20
553.3254915375
 11
146.2811910134
 21
553.7087185561
  0
POLYLINE
  8
0
 62
7
  6
CONTINUOUS
 66
1
 70
0
  0
VERTEX
  8
0
 62
7
  6
CONTINUOUS
 10
146.2811910134
 20
553.7087185561
  0
VERTEX
  8
0
 62
7
  6
CONTINUOUS
 10
145.9015127023
 20
554.18215218
  0
VERTEX
  8
0
 62
7
  6
CONTINUOUS
 10
145.6855092692
 20
554.454848436
  0
VERTEX
  8
0
 62
7
  6
CONTINUOUS
 10
145.4519553672
 20
554.752726456
  0
VERTEX
  8
0
 62
7
  6
CONTINUOUS
 10
145.2017207469
 20
555.0756138252
  0
VERTEX
  8
0
 62
7
  6
CONTINUOUS
 10
144.9356229623
 20
555.4237337632
  0
VERTEX
  8
0
 62
7
  6
CONTINUOUS
 10
144.6548710232
 20
555.7968961257
  0
VERTEX
  8
0
 62
7
  6
CONTINUOUS
 10
144.3606014331
 20
556.1953450228
  0
VERTEX
  8
0
 62
7
  6
CONTINUOUS
 10
144.0550865735
 20
556.6180009108
  0
VERTEX
  8
0
 62
7
  6
CONTINUOUS
 10
143.7398530303
 20
557.0654902474
  0
VERTEX
  8
0
 62
7
  6
CONTINUOUS
 10
143.4198465489
 20
557.5329391383
  0
VERTEX
  8
0
 62
7
  6
CONTINUOUS
 10
143.0998663001
 20
558.0172729766
  0
VERTEX
  8
0
 62
7
  6
CONTINUOUS
 10
142.7845135458
 20
558.5137203572
  0
VERTEX
  8
0
 62
7
  6
CONTINUOUS
 10
142.4787548979
 20
559.0189994495
  0
VERTEX
  8
0
 62
7
  6
CONTINUOUS
 10
142.187853151
 20
559.5255669237
  0
VERTEX
  8
0
 62
7
  6
CONTINUOUS
 10
141.9183547991
 20
560.0262050808
  0
VERTEX
  8
0
 62
7
  6
CONTINUOUS
 10
141.672085533
 20
560.5166551988
  0
VERTEX
  8
0
 62
7
  6
CONTINUOUS
 10
141.4533477086
 20
560.9893868392
  0
VERTEX
  8
0
 62
7
  6
CONTINUOUS
 10
141.2602110168
 20
561.4469974528
  0
VERTEX
  8
0
 62
7
  6
CONTINUOUS
 10
141.0919792508
 20
561.8887744343
  0
VERTEX
  8
0
 62
7
  6
CONTINUOUS
 10
140.9473546788
 20
562.3171175132
  0
VERTEX
  8
0
 62
7
  6
CONTINUOUS
 10
140.8246374721
 20
562.7334186594
  0
VERTEX
  8
0
 62
7
  6
CONTINUOUS
 10
140.7230095534
 20
563.1399885466
  0
VERTEX
  8
0
 62
7
  6
CONTINUOUS
 10
140.6408909361
 20
563.5394573022
  0
VERTEX
  8
0
 62
7
  6
CONTINUOUS
 10
140.5780621319
 20
563.9322585347
  0
VERTEX
  8
0
 62
7
  6
CONTINUOUS
 10
140.5337211554
 20
564.319105287
  0
VERTEX
  8
0
 62
7
  6
CONTINUOUS
 10
140.5075479774
 20
564.701789384
  0
VERTEX
  8
0
 62
7
  6
CONTINUOUS
 10
140.4987340087
 20
565.0813004368
  0
VERTEX
  8
0
 62
7
  6
CONTINUOUS
 10
140.5075889251
 20
565.4607581301
  0
VERTEX
  8
0
 62
7
  6
CONTINUOUS
 10
140.5337771999
 20
565.8432329685
  0
VERTEX
  8
0
 62
7
  6
CONTINUOUS
 10
140.578126463
 20
566.229862103
  0
VERTEX
  8
0
 62
7
  6
CONTINUOUS
 10
140.6409630626
 20
566.6225874533
  0
VERTEX
  8
0
 62
7
  6
CONTINUOUS
 10
140.7231011554
 20
567.0220652175
  0
VERTEX
  8
0
 62
7
  6
CONTINUOUS
 10
140.8247835332
 20
567.428753291
  0
VERTEX
  8
0
 62
7
  6
CONTINUOUS
 10
140.9475615441
 20
567.8451885015
  0
VERTEX
  8
0
 62
7
  6
CONTINUOUS
 10
141.0922296466
 20
568.2735774577
  0
VERTEX
  8
0
 62
7
  6
CONTINUOUS
 10
141.260497751
 20
568.7153687111
  0
VERTEX
  8
0
 62
7
  6
CONTINUOUS
 10
141.4536340757
 20
569.1729305011
  0
VERTEX
  8
0
 62
7
  6
CONTINUOUS
 10
141.6724297119
 20
569.6457103728
  0
VERTEX
  8
0
 62
7
  6
CONTINUOUS
 10
141.9189334975
 20
570.1365408537
  0
VERTEX
  8
0
 62
7
  6
CONTINUOUS
 10
142.1887161308
 20
570.6376352362
  0
VERTEX
  8
0
 62
7
  6
CONTINUOUS
 10
142.4799036039
 20
571.1445857714
  0
VERTEX
  8
0
 62
7
  6
CONTINUOUS
 10
142.7858526471
 20
571.6500881116
  0
VERTEX
  8
0
 62
7
  6
CONTINUOUS
 10
143.1011821399
 20
572.146413538
  0
VERTEX
  8
0
 62
7
  6
CONTINUOUS
 10
143.4210008747
 20
572.6304274144
  0
VERTEX
  8
0
 62
7
  6
CONTINUOUS
 10
143.7406909143
 20
573.0973819851
  0
VERTEX
  8
0
 62
7
  6
CONTINUOUS
 10
144.0556129595
 20
573.5443878895
  0
VERTEX
  8
0
 62
7
  6
CONTINUOUS
 10
144.3609683318
 20
573.9668061187
  0
VERTEX
  8
0
 62
7
  6
CONTINUOUS
 10
144.6551560132
 20
574.3651378626
  0
VERTEX
  8
0
 62
7
  6
CONTINUOUS
 10
144.9358896319
 20
574.7382669155
  0
VERTEX
  8
0
 62
7
  6
CONTINUOUS
 10
145.2020043975
 20
575.0864064546
  0
VERTEX
  8
0
 62
7
  6
CONTINUOUS
 10
145.4522708127
 20
575.4093277562
  0
VERTEX
  8
0
 62
7
  6
CONTINUOUS
 10
145.6858536891
 20
575.7072403168
  0
SEQEND
  0
LINE
  8
0
 62
7
  6
CONTINUOUS
 10
147.2073269735
 20
552.5808259439
 11
239.2073269735
 21
552.5808259439
  0
LINE
  8
0
 62
7
  6
CONTINUOUS
 10
147.2073269735
 20
577.5808259439
 11
239.2073269735
 21
577.5808259439
  0
LINE
  8
0
 62
7
  6
CONTINUOUS
 10
117.2073269735
 20
665.0808259439
 11
147.2073269735
 21
665.0808259439
  0
ENDSEC
  0
EOF
