999
DXF file: K:\Client\125_Heirloom\001\00\Final_Data\Drawings\LADDER TOWEL WARMERS\wg1220n_1.dxf
999
Pro/ENGINEER 2017110 by Parametric Technology Corporation
  0
SECTION
  2
HEADER
  9
$EXTMAX
 10
420.0
 20
297.0
 30
0.0
  9
$EXTMIN
 10
0.0
 20
0.0
 30
0.0
  9
$LIMMIN
 10
0.0
 20
0.0
  9
$LIMMAX
 10
420.0
 20
297.0
  9
$VIEWCTR
 10
210.0
 20
148.5
  9
$VIEWSIZE
 40
297.0
  9
$CLAYER
  8
0
  9
$LTSCALE
 40
23.1
  9
$CELTYPE
  6
BYLAYER
  9
$DIMSCALE
 40
1.0
  9
$DIMASZ
 40
3.0
  9
$DIMEXO
 40
1.0
  9
$DIMDLI
 40
15.96
  9
$DIMEXE
 40
1.0
  9
$DIMCEN
 40
3.78
  9
$DIMLFAC
 40
1.0
  9
$DIMBLK
  1
_FILLED
  9
$DIMALT
 70
0
  9
$DIMALTF
 40
0.0393700787
  9
$DIMTXT
 40
3.0
  9
$AUNITS
 70
0
  9
$PDMODE
 70
3
  9
$PDSIZE
 40
5.0
  9
$TILEMODE
 70
1
  0
ENDSEC
  0
SECTION
  2
TABLES
  0
TABLE
  2
LTYPE
 70
6
  0
LTYPE
  2
BYBLOCK
 70
0
  3

 72
65
 73
0
 40
0.0
  0
LTYPE
  2
BYLAYER
 70
0
  3

 72
65
 73
0
 40
0.0
  0
LTYPE
  2
CONTINUOUS
 70
64
  3
Solid line
 72
65
 73
0
 40
0.0
  0
LTYPE
  2
CENTER
 70
64
  3
____ _ ____ _ ____ _ ____ _ ____ _ ____ _ ____
 72
65
 73
4
 40
0.6
 49
0.375
 49
-0.075
 49
0.075
 49
-0.075
  0
LTYPE
  2
HIDDEN
 70
64
  3
- - - - - - - - - - - - - - - - - - - -
 72
65
 73
2
 40
0.2
 49
0.1
 49
-0.1
  0
LTYPE
  2
PHANTOM
 70
64
  3
_____ _ _ _____ _ _ _____ _ _ _____
 72
65
 73
6
 40
0.8
 49
0.45
 49
-0.05
 49
0.1
 49
-0.05
 49
0.1
 49
-0.05
  0
LTYPE
  2
DOT
 70
64
  3
. . . . . . . . . . . . . . . . . . . .
 72
65
 73
2
 40
0.2
 49
0.1
 49
-0.1
  0
LTYPE
  2
DASHED
 70
64
  3
- - - - - - - - - - - - - - - - - - - -
 72
65
 73
2
 40
0.2
 49
0.1
 49
-0.1
  0
ENDTAB
  0
TABLE
  2
LAYER
 70
36
  0
LAYER
  2
0
 70
0
 62
7
  6
CONTINUOUS
  0
LAYER
  2
DEFAULT_1
 70
0
 62
7
  6
CENTER
  0
LAYER
  2
DEFAULT_2
 70
0
 62
8
  6
HIDDEN
  0
LAYER
  2
DEFAULT_3
 70
0
 62
7
  6
PHANTOM
  0
LAYER
  2
0000_BOM
 70
0
 62
7
  6
CONTINUOUS
  0
LAYER
  2
0000_REV_TABLE
 70
0
 62
7
  6
CONTINUOUS
  0
LAYER
  2
0000_STEVENS_NOTE
 70
0
 62
7
  6
CONTINUOUS
  0
LAYER
  2
01_DATUM_PLANES
 70
0
 62
7
  6
CONTINUOUS
  0
LAYER
  2
01_DEF_PLANES
 70
0
 62
7
  6
CONTINUOUS
  0
LAYER
  2
02_DATUM_COS
 70
0
 62
7
  6
CONTINUOUS
  0
LAYER
  2
99_SOLID
 70
0
 62
7
  6
CONTINUOUS
  0
LAYER
  2
CAD-MASTER_ZINC-PL
 70
0
 62
7
  6
CONTINUOUS
  0
LAYER
  2
CURVE
 70
0
 62
7
  6
CONTINUOUS
  0
LAYER
  2
SKEL
 70
0
 62
7
  6
CONTINUOUS
  0
LAYER
  2
SKETCH
 70
0
 62
7
  6
CONTINUOUS
  0
LAYER
  2
SURFACE
 70
0
 62
7
  6
CONTINUOUS
  0
ENDTAB
  0
TABLE
  2
STYLE
 70
1
  0
STYLE
  2
STANDARD
 70
0
 40
0.0
 41
0.75
 50
0.0
 71
0
 42
0.2
  3
txt
  4

  0
STYLE
  2
TEXTSTYLE_1
 70
0
 40
0.0
 41
0.8
 50
0.0
 71
0
 42
0.2
  3
gdt
  4

  0
ENDTAB
  0
ENDSEC
  0
SECTION
  2
BLOCKS
  0
ENDSEC
  0
SECTION
  2
ENTITIES
  0
LINE
  8
0
 62
7
  6
CONTINUOUS
 10
-85.724607958
 20
-458.0259805629
 11
-115.724607958
 21
-458.0259805629
  0
LINE
  8
0
 62
7
  6
CONTINUOUS
 10
454.275392042
 20
-458.0259805629
 11
484.275392042
 21
-458.0259805629
  0
POLYLINE
  8
0
 62
7
  6
CONTINUOUS
 66
1
 70
0
  0
VERTEX
  8
0
 62
7
  6
CONTINUOUS
 10
-86.3159407806
 20
717.1529213867
  0
VERTEX
  8
0
 62
7
  6
CONTINUOUS
 10
-86.4562495716
 20
716.9533005257
  0
VERTEX
  8
0
 62
7
  6
CONTINUOUS
 10
-86.6115518165
 20
716.7299818143
  0
VERTEX
  8
0
 62
7
  6
CONTINUOUS
 10
-86.7815459859
 20
716.4823829744
  0
VERTEX
  8
0
 62
7
  6
CONTINUOUS
 10
-86.9660770271
 20
716.2096373552
  0
VERTEX
  8
0
 62
7
  6
CONTINUOUS
 10
-87.1640796356
 20
715.9120241576
  0
VERTEX
  8
0
 62
7
  6
CONTINUOUS
 10
-87.3746617446
 20
715.5891041287
  0
VERTEX
  8
0
 62
7
  6
CONTINUOUS
 10
-87.5959276267
 20
715.2421659793
  0
VERTEX
  8
0
 62
7
  6
CONTINUOUS
 10
-87.8258825598
 20
714.8718768976
  0
VERTEX
  8
0
 62
7
  6
CONTINUOUS
 10
-88.062275106
 20
714.479662198
  0
VERTEX
  8
0
 62
7
  6
CONTINUOUS
 10
-88.3026991638
 20
714.0664551545
  0
VERTEX
  8
0
 62
7
  6
CONTINUOUS
 10
-88.5442690079
 20
713.6343990765
  0
VERTEX
  8
0
 62
7
  6
CONTINUOUS
 10
-88.7845680369
 20
713.1835549484
  0
VERTEX
  8
0
 62
7
  6
CONTINUOUS
 10
-89.0186705881
 20
712.7211030201
  0
VERTEX
  8
0
 62
7
  6
CONTINUOUS
 10
-89.2410904875
 20
712.2529388497
  0
VERTEX
  8
0
 62
7
  6
CONTINUOUS
 10
-89.4495878861
 20
711.7829774971
  0
VERTEX
  8
0
 62
7
  6
CONTINUOUS
 10
-89.6403263683
 20
711.3168671899
  0
VERTEX
  8
0
 62
7
  6
CONTINUOUS
 10
-89.8129458609
 20
710.8553039824
  0
VERTEX
  8
0
 62
7
  6
CONTINUOUS
 10
-89.9661981201
 20
710.4009221343
  0
VERTEX
  8
0
 62
7
  6
CONTINUOUS
 10
-90.1002193311
 20
709.953555256
  0
VERTEX
  8
0
 62
7
  6
CONTINUOUS
 10
-90.2149500579
 20
709.5147402558
  0
VERTEX
  8
0
 62
7
  6
CONTINUOUS
 10
-90.3109828266
 20
709.0820015003
  0
VERTEX
  8
0
 62
7
  6
CONTINUOUS
 10
-90.3892549804
 20
708.6533959134
  0
VERTEX
  8
0
 62
7
  6
CONTINUOUS
 10
-90.4496562942
 20
708.2288627321
  0
VERTEX
  8
0
 62
7
  6
CONTINUOUS
 10
-90.4925712105
 20
707.8079882184
  0
VERTEX
  8
0
 62
7
  6
CONTINUOUS
 10
-90.5180930364
 20
707.3898882211
  0
VERTEX
  8
0
 62
7
  6
CONTINUOUS
 10
-90.5266846405
 20
706.9743913944
  0
VERTEX
  8
0
 62
7
  6
CONTINUOUS
 10
-90.5181253953
 20
706.5589455837
  0
VERTEX
  8
0
 62
7
  6
CONTINUOUS
 10
-90.4926610473
 20
706.1410603791
  0
VERTEX
  8
0
 62
7
  6
CONTINUOUS
 10
-90.44980315
 20
705.7203792004
  0
VERTEX
  8
0
 62
7
  6
CONTINUOUS
 10
-90.3894427963
 20
705.2958133894
  0
VERTEX
  8
0
 62
7
  6
CONTINUOUS
 10
-90.3111915584
 20
704.8670687703
  0
VERTEX
  8
0
 62
7
  6
CONTINUOUS
 10
-90.2151409806
 20
704.4341067208
  0
VERTEX
  8
0
 62
7
  6
CONTINUOUS
 10
-90.1003843021
 20
703.995071923
  0
VERTEX
  8
0
 62
7
  6
CONTINUOUS
 10
-89.9663454038
 20
703.5475844122
  0
VERTEX
  8
0
 62
7
  6
CONTINUOUS
 10
-89.8131040027
 20
703.0931795065
  0
VERTEX
  8
0
 62
7
  6
CONTINUOUS
 10
-89.6405455961
 20
702.6317305201
  0
VERTEX
  8
0
 62
7
  6
CONTINUOUS
 10
-89.449921451
 20
702.165843501
  0
VERTEX
  8
0
 62
7
  6
CONTINUOUS
 10
-89.2416475229
 20
701.69628577
  0
VERTEX
  8
0
 62
7
  6
CONTINUOUS
 10
-89.0194123308
 20
701.2284468223
  0
VERTEX
  8
0
 62
7
  6
CONTINUOUS
 10
-88.7853295861
 20
700.7659528442
  0
VERTEX
  8
0
 62
7
  6
CONTINUOUS
 10
-88.5449367806
 20
700.3148610825
  0
VERTEX
  8
0
 62
7
  6
CONTINUOUS
 10
-88.303137101
 20
699.8823648537
  0
VERTEX
  8
0
 62
7
  6
CONTINUOUS
 10
-88.0624561652
 20
699.4686821344
  0
VERTEX
  8
0
 62
7
  6
CONTINUOUS
 10
-87.8258691965
 20
699.0761401707
  0
VERTEX
  8
0
 62
7
  6
CONTINUOUS
 10
-87.5957585778
 20
698.7056044711
  0
VERTEX
  8
0
 62
7
  6
CONTINUOUS
 10
-87.3743767481
 20
698.3584940089
  0
VERTEX
  8
0
 62
7
  6
CONTINUOUS
 10
-87.1637243115
 20
698.0354756365
  0
VERTEX
  8
0
 62
7
  6
CONTINUOUS
 10
-86.9657063789
 20
697.7378472423
  0
VERTEX
  8
0
 62
7
  6
CONTINUOUS
 10
-86.7811905471
 20
697.465134692
  0
VERTEX
  8
0
 62
7
  6
CONTINUOUS
 10
-86.6112246527
 20
697.2175839053
  0
VERTEX
  8
0
 62
7
  6
CONTINUOUS
 10
-86.4559657941
 20
696.9943326082
  0
VERTEX
  8
0
 62
7
  6
CONTINUOUS
 10
-86.3157196795
 20
696.7948009137
  0
VERTEX
  8
0
 62
7
  6
CONTINUOUS
 10
-86.1905406968
 20
696.6183875803
  0
VERTEX
  8
0
 62
7
  6
CONTINUOUS
 10
-86.0804937951
 20
696.4644763208
  0
VERTEX
  8
0
 62
7
  6
CONTINUOUS
 10
-85.9055507666
 20
696.2219987759
  0
SEQEND
  0
LINE
  8
0
 62
7
  6
CONTINUOUS
 10
-86.0806334043
 20
717.4833707598
 11
-86.3159407806
 21
717.1529213867
  0
LINE
  8
0
 62
7
  6
CONTINUOUS
 10
-85.9056390297
 20
717.7259187251
 11
-86.0806334043
 21
717.4833707598
  0
LINE
  8
0
 62
7
  6
CONTINUOUS
 10
-85.7318016458
 20
717.9643035192
 11
-85.9056390297
 21
717.7259187251
  0
LINE
  8
0
 62
7
  6
CONTINUOUS
 10
-85.724607958
 20
717.9740194371
 11
-85.7318016458
 21
717.9643035192
  0
LINE
  8
0
 62
7
  6
CONTINUOUS
 10
-85.724607958
 20
-414.0259805629
 11
454.275392042
 21
-414.0259805629
  0
LINE
  8
0
 62
7
  6
CONTINUOUS
 10
454.275392042
 20
-392.0259805629
 11
-85.724607958
 21
-392.0259805629
  0
LINE
  8
0
 62
7
  6
CONTINUOUS
 10
-85.7317993866
 20
-414.0162657163
 11
-85.724607958
 21
-414.0259805629
  0
LINE
  8
0
 62
7
  6
CONTINUOUS
 10
-85.9055507666
 20
-413.7780012241
 11
-85.7317993866
 21
-414.0162657163
  0
LINE
  8
0
 62
7
  6
CONTINUOUS
 10
-86.0804937951
 20
-413.5355236792
 11
-85.9055507666
 21
-413.7780012241
  0
LINE
  8
0
 62
7
  6
CONTINUOUS
 10
-85.9056390297
 20
620.7259187251
 11
-86.0806334043
 21
620.4833707598
  0
LINE
  8
0
 62
7
  6
CONTINUOUS
 10
-85.7318016458
 20
620.9643035192
 11
-85.9056390297
 21
620.7259187251
  0
LINE
  8
0
 62
7
  6
CONTINUOUS
 10
-85.724607958
 20
620.9740194371
 11
-85.7318016458
 21
620.9643035192
  0
LINE
  8
0
 62
7
  6
CONTINUOUS
 10
-85.7317993866
 20
-317.0162657163
 11
-85.724607958
 21
-317.0259805629
  0
LINE
  8
0
 62
7
  6
CONTINUOUS
 10
-85.9055507666
 20
-316.7780012241
 11
-85.7317993866
 21
-317.0162657163
  0
LINE
  8
0
 62
7
  6
CONTINUOUS
 10
-86.0804937951
 20
-316.5355236792
 11
-85.9055507666
 21
-316.7780012241
  0
POLYLINE
  8
0
 62
7
  6
CONTINUOUS
 66
1
 70
0
  0
VERTEX
  8
0
 62
7
  6
CONTINUOUS
 10
-86.3159407806
 20
620.1529213867
  0
VERTEX
  8
0
 62
7
  6
CONTINUOUS
 10
-86.4562495716
 20
619.9533005257
  0
VERTEX
  8
0
 62
7
  6
CONTINUOUS
 10
-86.6115518165
 20
619.7299818143
  0
VERTEX
  8
0
 62
7
  6
CONTINUOUS
 10
-86.7815459859
 20
619.4823829744
  0
VERTEX
  8
0
 62
7
  6
CONTINUOUS
 10
-86.9660770271
 20
619.2096373552
  0
VERTEX
  8
0
 62
7
  6
CONTINUOUS
 10
-87.1640796356
 20
618.9120241576
  0
VERTEX
  8
0
 62
7
  6
CONTINUOUS
 10
-87.3746617446
 20
618.5891041287
  0
VERTEX
  8
0
 62
7
  6
CONTINUOUS
 10
-87.5959276267
 20
618.2421659793
  0
VERTEX
  8
0
 62
7
  6
CONTINUOUS
 10
-87.8258825598
 20
617.8718768976
  0
VERTEX
  8
0
 62
7
  6
CONTINUOUS
 10
-88.062275106
 20
617.479662198
  0
VERTEX
  8
0
 62
7
  6
CONTINUOUS
 10
-88.3026991638
 20
617.0664551545
  0
VERTEX
  8
0
 62
7
  6
CONTINUOUS
 10
-88.5442690079
 20
616.6343990765
  0
VERTEX
  8
0
 62
7
  6
CONTINUOUS
 10
-88.7845680369
 20
616.1835549484
  0
VERTEX
  8
0
 62
7
  6
CONTINUOUS
 10
-89.0186705881
 20
615.7211030201
  0
VERTEX
  8
0
 62
7
  6
CONTINUOUS
 10
-89.2410904875
 20
615.2529388497
  0
VERTEX
  8
0
 62
7
  6
CONTINUOUS
 10
-89.4495878861
 20
614.7829774971
  0
VERTEX
  8
0
 62
7
  6
CONTINUOUS
 10
-89.6403263683
 20
614.3168671899
  0
VERTEX
  8
0
 62
7
  6
CONTINUOUS
 10
-89.8129458609
 20
613.8553039824
  0
VERTEX
  8
0
 62
7
  6
CONTINUOUS
 10
-89.9661981201
 20
613.4009221343
  0
VERTEX
  8
0
 62
7
  6
CONTINUOUS
 10
-90.1002193311
 20
612.953555256
  0
VERTEX
  8
0
 62
7
  6
CONTINUOUS
 10
-90.2149500579
 20
612.5147402558
  0
VERTEX
  8
0
 62
7
  6
CONTINUOUS
 10
-90.3109828266
 20
612.0820015003
  0
VERTEX
  8
0
 62
7
  6
CONTINUOUS
 10
-90.3892549804
 20
611.6533959134
  0
VERTEX
  8
0
 62
7
  6
CONTINUOUS
 10
-90.4496562942
 20
611.2288627321
  0
VERTEX
  8
0
 62
7
  6
CONTINUOUS
 10
-90.4925712105
 20
610.8079882184
  0
VERTEX
  8
0
 62
7
  6
CONTINUOUS
 10
-90.5180930364
 20
610.3898882211
  0
VERTEX
  8
0
 62
7
  6
CONTINUOUS
 10
-90.5266846405
 20
609.9743913944
  0
VERTEX
  8
0
 62
7
  6
CONTINUOUS
 10
-90.5181253953
 20
609.5589455837
  0
VERTEX
  8
0
 62
7
  6
CONTINUOUS
 10
-90.4926610473
 20
609.1410603791
  0
VERTEX
  8
0
 62
7
  6
CONTINUOUS
 10
-90.44980315
 20
608.7203792004
  0
VERTEX
  8
0
 62
7
  6
CONTINUOUS
 10
-90.3894427963
 20
608.2958133894
  0
VERTEX
  8
0
 62
7
  6
CONTINUOUS
 10
-90.3111915584
 20
607.8670687703
  0
VERTEX
  8
0
 62
7
  6
CONTINUOUS
 10
-90.2151409806
 20
607.4341067208
  0
VERTEX
  8
0
 62
7
  6
CONTINUOUS
 10
-90.1003843021
 20
606.995071923
  0
VERTEX
  8
0
 62
7
  6
CONTINUOUS
 10
-89.9663454038
 20
606.5475844122
  0
VERTEX
  8
0
 62
7
  6
CONTINUOUS
 10
-89.8131040027
 20
606.0931795065
  0
VERTEX
  8
0
 62
7
  6
CONTINUOUS
 10
-89.6405455961
 20
605.6317305201
  0
VERTEX
  8
0
 62
7
  6
CONTINUOUS
 10
-89.449921451
 20
605.165843501
  0
VERTEX
  8
0
 62
7
  6
CONTINUOUS
 10
-89.2416475229
 20
604.69628577
  0
VERTEX
  8
0
 62
7
  6
CONTINUOUS
 10
-89.0194123308
 20
604.2284468223
  0
VERTEX
  8
0
 62
7
  6
CONTINUOUS
 10
-88.7853295861
 20
603.7659528442
  0
VERTEX
  8
0
 62
7
  6
CONTINUOUS
 10
-88.5449367806
 20
603.3148610825
  0
VERTEX
  8
0
 62
7
  6
CONTINUOUS
 10
-88.303137101
 20
602.8823648537
  0
VERTEX
  8
0
 62
7
  6
CONTINUOUS
 10
-88.0624561652
 20
602.4686821344
  0
VERTEX
  8
0
 62
7
  6
CONTINUOUS
 10
-87.8258691965
 20
602.0761401707
  0
VERTEX
  8
0
 62
7
  6
CONTINUOUS
 10
-87.5957585778
 20
601.7056044711
  0
VERTEX
  8
0
 62
7
  6
CONTINUOUS
 10
-87.3743767481
 20
601.3584940089
  0
VERTEX
  8
0
 62
7
  6
CONTINUOUS
 10
-87.1637243115
 20
601.0354756365
  0
VERTEX
  8
0
 62
7
  6
CONTINUOUS
 10
-86.9657063789
 20
600.7378472423
  0
VERTEX
  8
0
 62
7
  6
CONTINUOUS
 10
-86.7811905471
 20
600.465134692
  0
VERTEX
  8
0
 62
7
  6
CONTINUOUS
 10
-86.6112246527
 20
600.2175839053
  0
VERTEX
  8
0
 62
7
  6
CONTINUOUS
 10
-86.4559657941
 20
599.9943326082
  0
VERTEX
  8
0
 62
7
  6
CONTINUOUS
 10
-86.3157196795
 20
599.7948009137
  0
VERTEX
  8
0
 62
7
  6
CONTINUOUS
 10
-86.0804937951
 20
599.4644763208
  0
SEQEND
  0
LINE
  8
0
 62
7
  6
CONTINUOUS
 10
-86.0806334043
 20
620.4833707598
 11
-86.3159407806
 21
620.1529213867
  0
LINE
  8
0
 62
7
  6
CONTINUOUS
 10
-85.724607958
 20
-317.0259805629
 11
454.275392042
 21
-317.0259805629
  0
POLYLINE
  8
0
 62
7
  6
CONTINUOUS
 66
1
 70
0
  0
VERTEX
  8
0
 62
7
  6
CONTINUOUS
 10
-86.3159407806
 20
523.1529213867
  0
VERTEX
  8
0
 62
7
  6
CONTINUOUS
 10
-86.4562495716
 20
522.9533005257
  0
VERTEX
  8
0
 62
7
  6
CONTINUOUS
 10
-86.6115518165
 20
522.7299818143
  0
VERTEX
  8
0
 62
7
  6
CONTINUOUS
 10
-86.7815459859
 20
522.4823829744
  0
VERTEX
  8
0
 62
7
  6
CONTINUOUS
 10
-86.9660770271
 20
522.2096373552
  0
VERTEX
  8
0
 62
7
  6
CONTINUOUS
 10
-87.1640796356
 20
521.9120241576
  0
VERTEX
  8
0
 62
7
  6
CONTINUOUS
 10
-87.3746617446
 20
521.5891041287
  0
VERTEX
  8
0
 62
7
  6
CONTINUOUS
 10
-87.5959276267
 20
521.2421659793
  0
VERTEX
  8
0
 62
7
  6
CONTINUOUS
 10
-87.8258825598
 20
520.8718768976
  0
VERTEX
  8
0
 62
7
  6
CONTINUOUS
 10
-88.062275106
 20
520.479662198
  0
VERTEX
  8
0
 62
7
  6
CONTINUOUS
 10
-88.3026991638
 20
520.0664551545
  0
VERTEX
  8
0
 62
7
  6
CONTINUOUS
 10
-88.5442690079
 20
519.6343990765
  0
VERTEX
  8
0
 62
7
  6
CONTINUOUS
 10
-88.7845680369
 20
519.1835549484
  0
VERTEX
  8
0
 62
7
  6
CONTINUOUS
 10
-89.0186705881
 20
518.7211030201
  0
VERTEX
  8
0
 62
7
  6
CONTINUOUS
 10
-89.2410904875
 20
518.2529388497
  0
VERTEX
  8
0
 62
7
  6
CONTINUOUS
 10
-89.4495878861
 20
517.7829774971
  0
VERTEX
  8
0
 62
7
  6
CONTINUOUS
 10
-89.6403263683
 20
517.3168671899
  0
VERTEX
  8
0
 62
7
  6
CONTINUOUS
 10
-89.8129458609
 20
516.8553039824
  0
VERTEX
  8
0
 62
7
  6
CONTINUOUS
 10
-89.9661981201
 20
516.4009221343
  0
VERTEX
  8
0
 62
7
  6
CONTINUOUS
 10
-90.1002193311
 20
515.953555256
  0
VERTEX
  8
0
 62
7
  6
CONTINUOUS
 10
-90.2149500579
 20
515.5147402558
  0
VERTEX
  8
0
 62
7
  6
CONTINUOUS
 10
-90.3109828266
 20
515.0820015003
  0
VERTEX
  8
0
 62
7
  6
CONTINUOUS
 10
-90.3892549804
 20
514.6533959134
  0
VERTEX
  8
0
 62
7
  6
CONTINUOUS
 10
-90.4496562942
 20
514.2288627321
  0
VERTEX
  8
0
 62
7
  6
CONTINUOUS
 10
-90.4925712105
 20
513.8079882184
  0
VERTEX
  8
0
 62
7
  6
CONTINUOUS
 10
-90.5180930364
 20
513.3898882211
  0
VERTEX
  8
0
 62
7
  6
CONTINUOUS
 10
-90.5266846405
 20
512.9743913944
  0
VERTEX
  8
0
 62
7
  6
CONTINUOUS
 10
-90.5181253953
 20
512.5589455837
  0
VERTEX
  8
0
 62
7
  6
CONTINUOUS
 10
-90.4926610473
 20
512.1410603791
  0
VERTEX
  8
0
 62
7
  6
CONTINUOUS
 10
-90.44980315
 20
511.7203792004
  0
VERTEX
  8
0
 62
7
  6
CONTINUOUS
 10
-90.3894427963
 20
511.2958133894
  0
VERTEX
  8
0
 62
7
  6
CONTINUOUS
 10
-90.3111915584
 20
510.8670687703
  0
VERTEX
  8
0
 62
7
  6
CONTINUOUS
 10
-90.2151409806
 20
510.4341067208
  0
VERTEX
  8
0
 62
7
  6
CONTINUOUS
 10
-90.1003843021
 20
509.995071923
  0
VERTEX
  8
0
 62
7
  6
CONTINUOUS
 10
-89.9663454038
 20
509.5475844122
  0
VERTEX
  8
0
 62
7
  6
CONTINUOUS
 10
-89.8131040027
 20
509.0931795065
  0
VERTEX
  8
0
 62
7
  6
CONTINUOUS
 10
-89.6405455961
 20
508.6317305201
  0
VERTEX
  8
0
 62
7
  6
CONTINUOUS
 10
-89.449921451
 20
508.165843501
  0
VERTEX
  8
0
 62
7
  6
CONTINUOUS
 10
-89.2416475229
 20
507.69628577
  0
VERTEX
  8
0
 62
7
  6
CONTINUOUS
 10
-89.0194123308
 20
507.2284468223
  0
VERTEX
  8
0
 62
7
  6
CONTINUOUS
 10
-88.7853295861
 20
506.7659528442
  0
VERTEX
  8
0
 62
7
  6
CONTINUOUS
 10
-88.5449367806
 20
506.3148610825
  0
VERTEX
  8
0
 62
7
  6
CONTINUOUS
 10
-88.303137101
 20
505.8823648537
  0
VERTEX
  8
0
 62
7
  6
CONTINUOUS
 10
-88.0624561652
 20
505.4686821344
  0
VERTEX
  8
0
 62
7
  6
CONTINUOUS
 10
-87.8258691965
 20
505.0761401707
  0
VERTEX
  8
0
 62
7
  6
CONTINUOUS
 10
-87.5957585778
 20
504.7056044711
  0
VERTEX
  8
0
 62
7
  6
CONTINUOUS
 10
-87.3743767481
 20
504.3584940089
  0
VERTEX
  8
0
 62
7
  6
CONTINUOUS
 10
-87.1637243115
 20
504.0354756365
  0
VERTEX
  8
0
 62
7
  6
CONTINUOUS
 10
-86.9657063789
 20
503.7378472423
  0
VERTEX
  8
0
 62
7
  6
CONTINUOUS
 10
-86.7811905471
 20
503.465134692
  0
VERTEX
  8
0
 62
7
  6
CONTINUOUS
 10
-86.6112246527
 20
503.2175839053
  0
VERTEX
  8
0
 62
7
  6
CONTINUOUS
 10
-86.4559657941
 20
502.9943326082
  0
VERTEX
  8
0
 62
7
  6
CONTINUOUS
 10
-86.3157196795
 20
502.7948009137
  0
VERTEX
  8
0
 62
7
  6
CONTINUOUS
 10
-86.0804937951
 20
502.4644763208
  0
SEQEND
  0
LINE
  8
0
 62
7
  6
CONTINUOUS
 10
-86.0806334043
 20
523.4833707598
 11
-86.3159407806
 21
523.1529213867
  0
LINE
  8
0
 62
7
  6
CONTINUOUS
 10
-85.9056390297
 20
523.7259187251
 11
-86.0806334043
 21
523.4833707598
  0
LINE
  8
0
 62
7
  6
CONTINUOUS
 10
-85.7318016458
 20
523.9643035192
 11
-85.9056390297
 21
523.7259187251
  0
LINE
  8
0
 62
7
  6
CONTINUOUS
 10
-85.724607958
 20
523.9740194371
 11
-85.7318016458
 21
523.9643035192
  0
LINE
  8
0
 62
7
  6
CONTINUOUS
 10
454.275392042
 20
-295.0259805629
 11
-85.724607958
 21
-295.0259805629
  0
LINE
  8
0
 62
7
  6
CONTINUOUS
 10
-85.7317993866
 20
-220.0162657163
 11
-85.724607958
 21
-220.0259805629
  0
LINE
  8
0
 62
7
  6
CONTINUOUS
 10
-85.9055507666
 20
-219.7780012241
 11
-85.7317993866
 21
-220.0162657163
  0
LINE
  8
0
 62
7
  6
CONTINUOUS
 10
-86.0804937951
 20
-219.5355236792
 11
-85.9055507666
 21
-219.7780012241
  0
POLYLINE
  8
0
 62
7
  6
CONTINUOUS
 66
1
 70
0
  0
VERTEX
  8
0
 62
7
  6
CONTINUOUS
 10
-86.3159407806
 20
426.1529213867
  0
VERTEX
  8
0
 62
7
  6
CONTINUOUS
 10
-86.4562495716
 20
425.9533005257
  0
VERTEX
  8
0
 62
7
  6
CONTINUOUS
 10
-86.6115518165
 20
425.7299818143
  0
VERTEX
  8
0
 62
7
  6
CONTINUOUS
 10
-86.7815459859
 20
425.4823829744
  0
VERTEX
  8
0
 62
7
  6
CONTINUOUS
 10
-86.9660770271
 20
425.2096373552
  0
VERTEX
  8
0
 62
7
  6
CONTINUOUS
 10
-87.1640796356
 20
424.9120241576
  0
VERTEX
  8
0
 62
7
  6
CONTINUOUS
 10
-87.3746617446
 20
424.5891041287
  0
VERTEX
  8
0
 62
7
  6
CONTINUOUS
 10
-87.5959276267
 20
424.2421659793
  0
VERTEX
  8
0
 62
7
  6
CONTINUOUS
 10
-87.8258825598
 20
423.8718768976
  0
VERTEX
  8
0
 62
7
  6
CONTINUOUS
 10
-88.062275106
 20
423.479662198
  0
VERTEX
  8
0
 62
7
  6
CONTINUOUS
 10
-88.3026991638
 20
423.0664551545
  0
VERTEX
  8
0
 62
7
  6
CONTINUOUS
 10
-88.5442690079
 20
422.6343990765
  0
VERTEX
  8
0
 62
7
  6
CONTINUOUS
 10
-88.7845680369
 20
422.1835549484
  0
VERTEX
  8
0
 62
7
  6
CONTINUOUS
 10
-89.0186705881
 20
421.7211030201
  0
VERTEX
  8
0
 62
7
  6
CONTINUOUS
 10
-89.2410904875
 20
421.2529388497
  0
VERTEX
  8
0
 62
7
  6
CONTINUOUS
 10
-89.4495878861
 20
420.7829774971
  0
VERTEX
  8
0
 62
7
  6
CONTINUOUS
 10
-89.6403263683
 20
420.3168671899
  0
VERTEX
  8
0
 62
7
  6
CONTINUOUS
 10
-89.8129458609
 20
419.8553039824
  0
VERTEX
  8
0
 62
7
  6
CONTINUOUS
 10
-89.9661981201
 20
419.4009221343
  0
VERTEX
  8
0
 62
7
  6
CONTINUOUS
 10
-90.1002193311
 20
418.953555256
  0
VERTEX
  8
0
 62
7
  6
CONTINUOUS
 10
-90.2149500579
 20
418.5147402558
  0
VERTEX
  8
0
 62
7
  6
CONTINUOUS
 10
-90.3109828266
 20
418.0820015003
  0
VERTEX
  8
0
 62
7
  6
CONTINUOUS
 10
-90.3892549804
 20
417.6533959134
  0
VERTEX
  8
0
 62
7
  6
CONTINUOUS
 10
-90.4496562942
 20
417.2288627321
  0
VERTEX
  8
0
 62
7
  6
CONTINUOUS
 10
-90.4925712105
 20
416.8079882184
  0
VERTEX
  8
0
 62
7
  6
CONTINUOUS
 10
-90.5180930364
 20
416.3898882211
  0
VERTEX
  8
0
 62
7
  6
CONTINUOUS
 10
-90.5266846405
 20
415.9743913944
  0
VERTEX
  8
0
 62
7
  6
CONTINUOUS
 10
-90.5181253953
 20
415.5589455837
  0
VERTEX
  8
0
 62
7
  6
CONTINUOUS
 10
-90.4926610473
 20
415.1410603791
  0
VERTEX
  8
0
 62
7
  6
CONTINUOUS
 10
-90.44980315
 20
414.7203792004
  0
VERTEX
  8
0
 62
7
  6
CONTINUOUS
 10
-90.3894427963
 20
414.2958133894
  0
VERTEX
  8
0
 62
7
  6
CONTINUOUS
 10
-90.3111915584
 20
413.8670687703
  0
VERTEX
  8
0
 62
7
  6
CONTINUOUS
 10
-90.2151409806
 20
413.4341067208
  0
VERTEX
  8
0
 62
7
  6
CONTINUOUS
 10
-90.1003843021
 20
412.995071923
  0
VERTEX
  8
0
 62
7
  6
CONTINUOUS
 10
-89.9663454038
 20
412.5475844122
  0
VERTEX
  8
0
 62
7
  6
CONTINUOUS
 10
-89.8131040027
 20
412.0931795065
  0
VERTEX
  8
0
 62
7
  6
CONTINUOUS
 10
-89.6405455961
 20
411.6317305201
  0
VERTEX
  8
0
 62
7
  6
CONTINUOUS
 10
-89.449921451
 20
411.165843501
  0
VERTEX
  8
0
 62
7
  6
CONTINUOUS
 10
-89.2416475229
 20
410.69628577
  0
VERTEX
  8
0
 62
7
  6
CONTINUOUS
 10
-89.0194123308
 20
410.2284468223
  0
VERTEX
  8
0
 62
7
  6
CONTINUOUS
 10
-88.7853295861
 20
409.7659528442
  0
VERTEX
  8
0
 62
7
  6
CONTINUOUS
 10
-88.5449367806
 20
409.3148610825
  0
VERTEX
  8
0
 62
7
  6
CONTINUOUS
 10
-88.303137101
 20
408.8823648537
  0
VERTEX
  8
0
 62
7
  6
CONTINUOUS
 10
-88.0624561652
 20
408.4686821344
  0
VERTEX
  8
0
 62
7
  6
CONTINUOUS
 10
-87.8258691965
 20
408.0761401707
  0
VERTEX
  8
0
 62
7
  6
CONTINUOUS
 10
-87.5957585778
 20
407.7056044711
  0
VERTEX
  8
0
 62
7
  6
CONTINUOUS
 10
-87.3743767481
 20
407.3584940089
  0
VERTEX
  8
0
 62
7
  6
CONTINUOUS
 10
-87.1637243115
 20
407.0354756365
  0
VERTEX
  8
0
 62
7
  6
CONTINUOUS
 10
-86.9657063789
 20
406.7378472423
  0
VERTEX
  8
0
 62
7
  6
CONTINUOUS
 10
-86.7811905471
 20
406.465134692
  0
VERTEX
  8
0
 62
7
  6
CONTINUOUS
 10
-86.6112246527
 20
406.2175839053
  0
VERTEX
  8
0
 62
7
  6
CONTINUOUS
 10
-86.4559657941
 20
405.9943326082
  0
VERTEX
  8
0
 62
7
  6
CONTINUOUS
 10
-86.3157196795
 20
405.7948009137
  0
VERTEX
  8
0
 62
7
  6
CONTINUOUS
 10
-86.0804937951
 20
405.4644763208
  0
SEQEND
  0
LINE
  8
0
 62
7
  6
CONTINUOUS
 10
-86.0806334043
 20
426.4833707598
 11
-86.3159407806
 21
426.1529213867
  0
LINE
  8
0
 62
7
  6
CONTINUOUS
 10
-85.9056390297
 20
426.7259187251
 11
-86.0806334043
 21
426.4833707598
  0
LINE
  8
0
 62
7
  6
CONTINUOUS
 10
-85.7318016458
 20
426.9643035192
 11
-85.9056390297
 21
426.7259187251
  0
LINE
  8
0
 62
7
  6
CONTINUOUS
 10
-85.724607958
 20
426.9740194371
 11
-85.7318016458
 21
426.9643035192
  0
LINE
  8
0
 62
7
  6
CONTINUOUS
 10
-85.724607958
 20
-220.0259805629
 11
454.275392042
 21
-220.0259805629
  0
LINE
  8
0
 62
7
  6
CONTINUOUS
 10
-85.7317993866
 20
-123.0162657163
 11
-85.724607958
 21
-123.0259805629
  0
LINE
  8
0
 62
7
  6
CONTINUOUS
 10
-85.9055507666
 20
-122.7780012241
 11
-85.7317993866
 21
-123.0162657163
  0
LINE
  8
0
 62
7
  6
CONTINUOUS
 10
-86.0804937951
 20
-122.5355236792
 11
-85.9055507666
 21
-122.7780012241
  0
LINE
  8
0
 62
7
  6
CONTINUOUS
 10
454.275392042
 20
-198.0259805629
 11
-85.724607958
 21
-198.0259805629
  0
LINE
  8
0
 62
7
  6
CONTINUOUS
 10
-115.724607958
 20
761.9740194371
 11
-115.724607958
 21
-458.0259805629
  0
LINE
  8
0
 62
7
  6
CONTINUOUS
 10
-85.724607958
 20
761.9740194371
 11
-85.724607958
 21
717.9740194371
  0
LINE
  8
0
 62
7
  6
CONTINUOUS
 10
-85.724607958
 20
695.9740194371
 11
-85.724607958
 21
620.9740194371
  0
LINE
  8
0
 62
7
  6
CONTINUOUS
 10
-85.724607958
 20
598.9740194371
 11
-85.724607958
 21
523.9740194371
  0
LINE
  8
0
 62
7
  6
CONTINUOUS
 10
-85.724607958
 20
501.9740194371
 11
-85.724607958
 21
426.9740194371
  0
LINE
  8
0
 62
7
  6
CONTINUOUS
 10
-85.724607958
 20
404.9740194371
 11
-85.724607958
 21
259.9740194371
  0
LINE
  8
0
 62
7
  6
CONTINUOUS
 10
-85.724607958
 20
237.9740194371
 11
-85.724607958
 21
162.9740194371
  0
LINE
  8
0
 62
7
  6
CONTINUOUS
 10
-85.724607958
 20
140.9740194371
 11
-85.724607958
 21
65.9740194371
  0
LINE
  8
0
 62
7
  6
CONTINUOUS
 10
-85.724607958
 20
43.9740194371
 11
-85.724607958
 21
-101.0259805629
  0
LINE
  8
0
 62
7
  6
CONTINUOUS
 10
-85.724607958
 20
-123.0259805629
 11
-85.724607958
 21
-198.0259805629
  0
LINE
  8
0
 62
7
  6
CONTINUOUS
 10
-85.724607958
 20
-220.0259805629
 11
-85.724607958
 21
-295.0259805629
  0
LINE
  8
0
 62
7
  6
CONTINUOUS
 10
-85.724607958
 20
-317.0259805629
 11
-85.724607958
 21
-392.0259805629
  0
LINE
  8
0
 62
7
  6
CONTINUOUS
 10
-85.724607958
 20
-414.0259805629
 11
-85.724607958
 21
-458.0259805629
  0
POLYLINE
  8
0
 62
7
  6
CONTINUOUS
 66
1
 70
0
  0
VERTEX
  8
0
 62
7
  6
CONTINUOUS
 10
-86.3159407806
 20
259.1529213867
  0
VERTEX
  8
0
 62
7
  6
CONTINUOUS
 10
-86.4562495716
 20
258.9533005257
  0
VERTEX
  8
0
 62
7
  6
CONTINUOUS
 10
-86.6115518165
 20
258.7299818143
  0
VERTEX
  8
0
 62
7
  6
CONTINUOUS
 10
-86.7815459859
 20
258.4823829744
  0
VERTEX
  8
0
 62
7
  6
CONTINUOUS
 10
-86.9660770271
 20
258.2096373552
  0
VERTEX
  8
0
 62
7
  6
CONTINUOUS
 10
-87.1640796356
 20
257.9120241576
  0
VERTEX
  8
0
 62
7
  6
CONTINUOUS
 10
-87.3746617446
 20
257.5891041287
  0
VERTEX
  8
0
 62
7
  6
CONTINUOUS
 10
-87.5959276267
 20
257.2421659793
  0
VERTEX
  8
0
 62
7
  6
CONTINUOUS
 10
-87.8258825598
 20
256.8718768976
  0
VERTEX
  8
0
 62
7
  6
CONTINUOUS
 10
-88.062275106
 20
256.479662198
  0
VERTEX
  8
0
 62
7
  6
CONTINUOUS
 10
-88.3026991638
 20
256.0664551545
  0
VERTEX
  8
0
 62
7
  6
CONTINUOUS
 10
-88.5442690079
 20
255.6343990765
  0
VERTEX
  8
0
 62
7
  6
CONTINUOUS
 10
-88.7845680369
 20
255.1835549484
  0
VERTEX
  8
0
 62
7
  6
CONTINUOUS
 10
-89.0186705881
 20
254.7211030201
  0
VERTEX
  8
0
 62
7
  6
CONTINUOUS
 10
-89.2410904875
 20
254.2529388497
  0
VERTEX
  8
0
 62
7
  6
CONTINUOUS
 10
-89.4495878861
 20
253.7829774971
  0
VERTEX
  8
0
 62
7
  6
CONTINUOUS
 10
-89.6403263683
 20
253.3168671899
  0
VERTEX
  8
0
 62
7
  6
CONTINUOUS
 10
-89.8129458609
 20
252.8553039824
  0
VERTEX
  8
0
 62
7
  6
CONTINUOUS
 10
-89.9661981201
 20
252.4009221343
  0
VERTEX
  8
0
 62
7
  6
CONTINUOUS
 10
-90.1002193311
 20
251.953555256
  0
VERTEX
  8
0
 62
7
  6
CONTINUOUS
 10
-90.2149500579
 20
251.5147402558
  0
VERTEX
  8
0
 62
7
  6
CONTINUOUS
 10
-90.3109828266
 20
251.0820015003
  0
VERTEX
  8
0
 62
7
  6
CONTINUOUS
 10
-90.3892549804
 20
250.6533959134
  0
VERTEX
  8
0
 62
7
  6
CONTINUOUS
 10
-90.4496562942
 20
250.2288627321
  0
VERTEX
  8
0
 62
7
  6
CONTINUOUS
 10
-90.4925712105
 20
249.8079882184
  0
VERTEX
  8
0
 62
7
  6
CONTINUOUS
 10
-90.5180930364
 20
249.3898882211
  0
VERTEX
  8
0
 62
7
  6
CONTINUOUS
 10
-90.5266846405
 20
248.9743913944
  0
VERTEX
  8
0
 62
7
  6
CONTINUOUS
 10
-90.5181253953
 20
248.5589455837
  0
VERTEX
  8
0
 62
7
  6
CONTINUOUS
 10
-90.4926610473
 20
248.1410603791
  0
VERTEX
  8
0
 62
7
  6
CONTINUOUS
 10
-90.44980315
 20
247.7203792004
  0
VERTEX
  8
0
 62
7
  6
CONTINUOUS
 10
-90.3894427963
 20
247.2958133894
  0
VERTEX
  8
0
 62
7
  6
CONTINUOUS
 10
-90.3111915584
 20
246.8670687703
  0
VERTEX
  8
0
 62
7
  6
CONTINUOUS
 10
-90.2151409806
 20
246.4341067208
  0
VERTEX
  8
0
 62
7
  6
CONTINUOUS
 10
-90.1003843021
 20
245.995071923
  0
VERTEX
  8
0
 62
7
  6
CONTINUOUS
 10
-89.9663454038
 20
245.5475844122
  0
VERTEX
  8
0
 62
7
  6
CONTINUOUS
 10
-89.8131040027
 20
245.0931795065
  0
VERTEX
  8
0
 62
7
  6
CONTINUOUS
 10
-89.6405455961
 20
244.6317305201
  0
VERTEX
  8
0
 62
7
  6
CONTINUOUS
 10
-89.449921451
 20
244.165843501
  0
VERTEX
  8
0
 62
7
  6
CONTINUOUS
 10
-89.2416475229
 20
243.69628577
  0
VERTEX
  8
0
 62
7
  6
CONTINUOUS
 10
-89.0194123308
 20
243.2284468223
  0
VERTEX
  8
0
 62
7
  6
CONTINUOUS
 10
-88.7853295861
 20
242.7659528442
  0
VERTEX
  8
0
 62
7
  6
CONTINUOUS
 10
-88.5449367806
 20
242.3148610825
  0
VERTEX
  8
0
 62
7
  6
CONTINUOUS
 10
-88.303137101
 20
241.8823648537
  0
VERTEX
  8
0
 62
7
  6
CONTINUOUS
 10
-88.0624561652
 20
241.4686821344
  0
VERTEX
  8
0
 62
7
  6
CONTINUOUS
 10
-87.8258691965
 20
241.0761401707
  0
VERTEX
  8
0
 62
7
  6
CONTINUOUS
 10
-87.5957585778
 20
240.7056044711
  0
VERTEX
  8
0
 62
7
  6
CONTINUOUS
 10
-87.3743767481
 20
240.3584940089
  0
VERTEX
  8
0
 62
7
  6
CONTINUOUS
 10
-87.1637243115
 20
240.0354756365
  0
VERTEX
  8
0
 62
7
  6
CONTINUOUS
 10
-86.9657063789
 20
239.7378472423
  0
VERTEX
  8
0
 62
7
  6
CONTINUOUS
 10
-86.7811905471
 20
239.465134692
  0
VERTEX
  8
0
 62
7
  6
CONTINUOUS
 10
-86.6112246527
 20
239.2175839053
  0
VERTEX
  8
0
 62
7
  6
CONTINUOUS
 10
-86.4559657941
 20
238.9943326082
  0
VERTEX
  8
0
 62
7
  6
CONTINUOUS
 10
-86.3157196795
 20
238.7948009137
  0
VERTEX
  8
0
 62
7
  6
CONTINUOUS
 10
-86.0804937951
 20
238.4644763208
  0
SEQEND
  0
LINE
  8
0
 62
7
  6
CONTINUOUS
 10
-86.0806334043
 20
259.4833707598
 11
-86.3159407806
 21
259.1529213867
  0
LINE
  8
0
 62
7
  6
CONTINUOUS
 10
-85.9056390297
 20
259.7259187251
 11
-86.0806334043
 21
259.4833707598
  0
LINE
  8
0
 62
7
  6
CONTINUOUS
 10
-85.7318016458
 20
259.9643035192
 11
-85.9056390297
 21
259.7259187251
  0
LINE
  8
0
 62
7
  6
CONTINUOUS
 10
-85.724607958
 20
259.9740194371
 11
-85.7318016458
 21
259.9643035192
  0
LINE
  8
0
 62
7
  6
CONTINUOUS
 10
-85.724607958
 20
-123.0259805629
 11
454.275392042
 21
-123.0259805629
  0
LINE
  8
0
 62
7
  6
CONTINUOUS
 10
-85.7317993866
 20
43.9837342837
 11
-85.724607958
 21
43.9740194371
  0
LINE
  8
0
 62
7
  6
CONTINUOUS
 10
-85.9055507666
 20
44.2219987759
 11
-85.7317993866
 21
43.9837342837
  0
LINE
  8
0
 62
7
  6
CONTINUOUS
 10
-86.0804937951
 20
44.4644763208
 11
-85.9055507666
 21
44.2219987759
  0
POLYLINE
  8
0
 62
7
  6
CONTINUOUS
 66
1
 70
0
  0
VERTEX
  8
0
 62
7
  6
CONTINUOUS
 10
-86.3159396069
 20
162.1529230461
  0
VERTEX
  8
0
 62
7
  6
CONTINUOUS
 10
-86.4562481404
 20
161.9533025719
  0
VERTEX
  8
0
 62
7
  6
CONTINUOUS
 10
-86.6115501145
 20
161.7299842671
  0
VERTEX
  8
0
 62
7
  6
CONTINUOUS
 10
-86.7815439448
 20
161.4823859675
  0
VERTEX
  8
0
 62
7
  6
CONTINUOUS
 10
-86.9660744759
 20
161.2096411643
  0
VERTEX
  8
0
 62
7
  6
CONTINUOUS
 10
-87.1640764761
 20
160.9120289512
  0
VERTEX
  8
0
 62
7
  6
CONTINUOUS
 10
-87.3746579081
 20
160.5891100922
  0
VERTEX
  8
0
 62
7
  6
CONTINUOUS
 10
-87.5959231625
 20
160.2421730678
  0
VERTEX
  8
0
 62
7
  6
CONTINUOUS
 10
-87.8258776627
 20
159.8718849129
  0
VERTEX
  8
0
 62
7
  6
CONTINUOUS
 10
-88.0622700498
 20
159.4796707282
  0
VERTEX
  8
0
 62
7
  6
CONTINUOUS
 10
-88.302694459
 20
159.0664633586
  0
VERTEX
  8
0
 62
7
  6
CONTINUOUS
 10
-88.5442648902
 20
158.6344066068
  0
VERTEX
  8
0
 62
7
  6
CONTINUOUS
 10
-88.7845647213
 20
158.1835611506
  0
VERTEX
  8
0
 62
7
  6
CONTINUOUS
 10
-89.0186675492
 20
157.7211092097
  0
VERTEX
  8
0
 62
7
  6
CONTINUOUS
 10
-89.2410859487
 20
157.2529488595
  0
VERTEX
  8
0
 62
7
  6
CONTINUOUS
 10
-89.4495811843
 20
156.7829932101
  0
VERTEX
  8
0
 62
7
  6
CONTINUOUS
 10
-89.6403170173
 20
156.3168919063
  0
VERTEX
  8
0
 62
7
  6
CONTINUOUS
 10
-89.8129353904
 20
155.8553334186
  0
VERTEX
  8
0
 62
7
  6
CONTINUOUS
 10
-89.9661932619
 20
155.4009331492
  0
VERTEX
  8
0
 62
7
  6
CONTINUOUS
 10
-90.1002180152
 20
154.9535599481
  0
VERTEX
  8
0
 62
7
  6
CONTINUOUS
 10
-90.214942349
 20
154.5147610303
  0
VERTEX
  8
0
 62
7
  6
CONTINUOUS
 10
-90.3109595059
 20
154.0821167037
  0
VERTEX
  8
0
 62
7
  6
CONTINUOUS
 10
-90.3891963699
 20
153.6537761319
  0
VERTEX
  8
0
 62
7
  6
CONTINUOUS
 10
-90.4495686767
 20
153.2295799624
  0
VERTEX
  8
0
 62
7
  6
CONTINUOUS
 10
-90.4924874605
 20
152.8090849857
  0
VERTEX
  8
0
 62
7
  6
CONTINUOUS
 10
-90.5180357451
 20
152.3912919362
  0
VERTEX
  8
0
 62
7
  6
CONTINUOUS
 10
-90.526684754
 20
151.9758911901
  0
VERTEX
  8
0
 62
7
  6
CONTINUOUS
 10
-90.5181832486
 20
151.5603706124
  0
VERTEX
  8
0
 62
7
  6
CONTINUOUS
 10
-90.4927468418
 20
151.1421856669
  0
VERTEX
  8
0
 62
7
  6
CONTINUOUS
 10
-90.449893989
 20
150.721123932
  0
VERTEX
  8
0
 62
7
  6
CONTINUOUS
 10
-90.3895040487
 20
150.2962115151
  0
VERTEX
  8
0
 62
7
  6
CONTINUOUS
 10
-90.3112157409
 20
149.8671882935
  0
VERTEX
  8
0
 62
7
  6
CONTINUOUS
 10
-90.2151461066
 20
149.4341176383
  0
VERTEX
  8
0
 62
7
  6
CONTINUOUS
 10
-90.1003796064
 20
148.995055176
  0
VERTEX
  8
0
 62
7
  6
CONTINUOUS
 10
-89.9663426226
 20
148.5475710054
  0
VERTEX
  8
0
 62
7
  6
CONTINUOUS
 10
-89.8131059852
 20
148.0931850805
  0
VERTEX
  8
0
 62
7
  6
CONTINUOUS
 10
-89.6405460427
 20
147.631732394
  0
VERTEX
  8
0
 62
7
  6
CONTINUOUS
 10
-89.4499190743
 20
147.1658379279
  0
VERTEX
  8
0
 62
7
  6
CONTINUOUS
 10
-89.2416427062
 20
146.6962754458
  0
VERTEX
  8
0
 62
7
  6
CONTINUOUS
 10
-89.0194058383
 20
146.2284335954
  0
VERTEX
  8
0
 62
7
  6
CONTINUOUS
 10
-88.7853233626
 20
145.7659407085
  0
VERTEX
  8
0
 62
7
  6
CONTINUOUS
 10
-88.5449315395
 20
145.3148514966
  0
VERTEX
  8
0
 62
7
  6
CONTINUOUS
 10
-88.3031328752
 20
144.8823574069
  0
VERTEX
  8
0
 62
7
  6
CONTINUOUS
 10
-88.0624528638
 20
144.4686765648
  0
VERTEX
  8
0
 62
7
  6
CONTINUOUS
 10
-87.8258663859
 20
144.0761355962
  0
VERTEX
  8
0
 62
7
  6
CONTINUOUS
 10
-87.5957560436
 20
143.7056004472
  0
VERTEX
  8
0
 62
7
  6
CONTINUOUS
 10
-87.3743743276
 20
143.3584902754
  0
VERTEX
  8
0
 62
7
  6
CONTINUOUS
 10
-87.1637219626
 20
143.0354720728
  0
VERTEX
  8
0
 62
7
  6
CONTINUOUS
 10
-86.965704155
 20
142.7378439366
  0
VERTEX
  8
0
 62
7
  6
CONTINUOUS
 10
-86.7811885129
 20
142.465131709
  0
VERTEX
  8
0
 62
7
  6
CONTINUOUS
 10
-86.6112229262
 20
142.2175813989
  0
VERTEX
  8
0
 62
7
  6
CONTINUOUS
 10
-86.4559643925
 20
141.9943306043
  0
VERTEX
  8
0
 62
7
  6
CONTINUOUS
 10
-86.3157185626
 20
141.794799331
  0
VERTEX
  8
0
 62
7
  6
CONTINUOUS
 10
-86.0804931363
 20
141.4644754035
  0
SEQEND
  0
LINE
  8
0
 62
7
  6
CONTINUOUS
 10
-86.0806326888
 20
162.4833717577
 11
-86.3159396069
 21
162.1529230461
  0
LINE
  8
0
 62
7
  6
CONTINUOUS
 10
-85.9056386771
 20
162.7259192117
 11
-86.0806326888
 21
162.4833717577
  0
LINE
  8
0
 62
7
  6
CONTINUOUS
 10
-85.7318016342
 20
162.9643035321
 11
-85.9056386771
 21
162.7259192117
  0
LINE
  8
0
 62
7
  6
CONTINUOUS
 10
-85.724607958
 20
162.9740194371
 11
-85.7318016342
 21
162.9643035321
  0
LINE
  8
0
 62
7
  6
CONTINUOUS
 10
454.275392042
 20
-101.0259805629
 11
-85.724607958
 21
-101.0259805629
  0
LINE
  8
0
 62
7
  6
CONTINUOUS
 10
-85.7317993707
 20
140.9837342597
 11
-85.724607958
 21
140.9740194371
  0
LINE
  8
0
 62
7
  6
CONTINUOUS
 10
-85.9055504245
 20
141.2219983055
 11
-85.7317993707
 21
140.9837342597
  0
LINE
  8
0
 62
7
  6
CONTINUOUS
 10
-86.0804931363
 20
141.4644754035
 11
-85.9055504245
 21
141.2219983055
  0
POLYLINE
  8
0
 62
7
  6
CONTINUOUS
 66
1
 70
0
  0
VERTEX
  8
0
 62
7
  6
CONTINUOUS
 10
-86.3159407806
 20
65.1529213867
  0
VERTEX
  8
0
 62
7
  6
CONTINUOUS
 10
-86.4562495716
 20
64.9533005257
  0
VERTEX
  8
0
 62
7
  6
CONTINUOUS
 10
-86.6115518165
 20
64.7299818143
  0
VERTEX
  8
0
 62
7
  6
CONTINUOUS
 10
-86.7815459859
 20
64.4823829744
  0
VERTEX
  8
0
 62
7
  6
CONTINUOUS
 10
-86.9660770271
 20
64.2096373552
  0
VERTEX
  8
0
 62
7
  6
CONTINUOUS
 10
-87.1640796356
 20
63.9120241576
  0
VERTEX
  8
0
 62
7
  6
CONTINUOUS
 10
-87.3746617446
 20
63.5891041287
  0
VERTEX
  8
0
 62
7
  6
CONTINUOUS
 10
-87.5959276267
 20
63.2421659793
  0
VERTEX
  8
0
 62
7
  6
CONTINUOUS
 10
-87.8258825598
 20
62.8718768976
  0
VERTEX
  8
0
 62
7
  6
CONTINUOUS
 10
-88.062275106
 20
62.479662198
  0
VERTEX
  8
0
 62
7
  6
CONTINUOUS
 10
-88.3026991638
 20
62.0664551545
  0
VERTEX
  8
0
 62
7
  6
CONTINUOUS
 10
-88.5442690079
 20
61.6343990765
  0
VERTEX
  8
0
 62
7
  6
CONTINUOUS
 10
-88.7845680369
 20
61.1835549484
  0
VERTEX
  8
0
 62
7
  6
CONTINUOUS
 10
-89.0186705881
 20
60.7211030201
  0
VERTEX
  8
0
 62
7
  6
CONTINUOUS
 10
-89.2410904875
 20
60.2529388497
  0
VERTEX
  8
0
 62
7
  6
CONTINUOUS
 10
-89.4495878861
 20
59.7829774971
  0
VERTEX
  8
0
 62
7
  6
CONTINUOUS
 10
-89.6403263683
 20
59.3168671899
  0
VERTEX
  8
0
 62
7
  6
CONTINUOUS
 10
-89.8129458609
 20
58.8553039824
  0
VERTEX
  8
0
 62
7
  6
CONTINUOUS
 10
-89.9661981201
 20
58.4009221343
  0
VERTEX
  8
0
 62
7
  6
CONTINUOUS
 10
-90.1002193311
 20
57.953555256
  0
VERTEX
  8
0
 62
7
  6
CONTINUOUS
 10
-90.2149500579
 20
57.5147402558
  0
VERTEX
  8
0
 62
7
  6
CONTINUOUS
 10
-90.3109828266
 20
57.0820015003
  0
VERTEX
  8
0
 62
7
  6
CONTINUOUS
 10
-90.3892549804
 20
56.6533959134
  0
VERTEX
  8
0
 62
7
  6
CONTINUOUS
 10
-90.4496562942
 20
56.2288627321
  0
VERTEX
  8
0
 62
7
  6
CONTINUOUS
 10
-90.4925712105
 20
55.8079882184
  0
VERTEX
  8
0
 62
7
  6
CONTINUOUS
 10
-90.5180930364
 20
55.3898882211
  0
VERTEX
  8
0
 62
7
  6
CONTINUOUS
 10
-90.5266846405
 20
54.9743913944
  0
VERTEX
  8
0
 62
7
  6
CONTINUOUS
 10
-90.5181253953
 20
54.5589455837
  0
VERTEX
  8
0
 62
7
  6
CONTINUOUS
 10
-90.4926610473
 20
54.1410603791
  0
VERTEX
  8
0
 62
7
  6
CONTINUOUS
 10
-90.44980315
 20
53.7203792004
  0
VERTEX
  8
0
 62
7
  6
CONTINUOUS
 10
-90.3894427963
 20
53.2958133894
  0
VERTEX
  8
0
 62
7
  6
CONTINUOUS
 10
-90.3111915584
 20
52.8670687703
  0
VERTEX
  8
0
 62
7
  6
CONTINUOUS
 10
-90.2151409806
 20
52.4341067208
  0
VERTEX
  8
0
 62
7
  6
CONTINUOUS
 10
-90.1003843021
 20
51.995071923
  0
VERTEX
  8
0
 62
7
  6
CONTINUOUS
 10
-89.9663454038
 20
51.5475844122
  0
VERTEX
  8
0
 62
7
  6
CONTINUOUS
 10
-89.8131040027
 20
51.0931795065
  0
VERTEX
  8
0
 62
7
  6
CONTINUOUS
 10
-89.6405455961
 20
50.6317305201
  0
VERTEX
  8
0
 62
7
  6
CONTINUOUS
 10
-89.449921451
 20
50.165843501
  0
VERTEX
  8
0
 62
7
  6
CONTINUOUS
 10
-89.2416475229
 20
49.69628577
  0
VERTEX
  8
0
 62
7
  6
CONTINUOUS
 10
-89.0194123308
 20
49.2284468223
  0
VERTEX
  8
0
 62
7
  6
CONTINUOUS
 10
-88.7853295861
 20
48.7659528442
  0
VERTEX
  8
0
 62
7
  6
CONTINUOUS
 10
-88.5449367806
 20
48.3148610825
  0
VERTEX
  8
0
 62
7
  6
CONTINUOUS
 10
-88.303137101
 20
47.8823648537
  0
VERTEX
  8
0
 62
7
  6
CONTINUOUS
 10
-88.0624561652
 20
47.4686821344
  0
VERTEX
  8
0
 62
7
  6
CONTINUOUS
 10
-87.8258691965
 20
47.0761401707
  0
VERTEX
  8
0
 62
7
  6
CONTINUOUS
 10
-87.5957585778
 20
46.7056044711
  0
VERTEX
  8
0
 62
7
  6
CONTINUOUS
 10
-87.3743767481
 20
46.3584940089
  0
VERTEX
  8
0
 62
7
  6
CONTINUOUS
 10
-87.1637243115
 20
46.0354756365
  0
VERTEX
  8
0
 62
7
  6
CONTINUOUS
 10
-86.9657063789
 20
45.7378472423
  0
VERTEX
  8
0
 62
7
  6
CONTINUOUS
 10
-86.7811905471
 20
45.465134692
  0
VERTEX
  8
0
 62
7
  6
CONTINUOUS
 10
-86.6112246527
 20
45.2175839053
  0
VERTEX
  8
0
 62
7
  6
CONTINUOUS
 10
-86.4559657941
 20
44.9943326082
  0
VERTEX
  8
0
 62
7
  6
CONTINUOUS
 10
-86.3157196795
 20
44.7948009137
  0
VERTEX
  8
0
 62
7
  6
CONTINUOUS
 10
-86.0804937951
 20
44.4644763208
  0
SEQEND
  0
LINE
  8
0
 62
7
  6
CONTINUOUS
 10
-86.0806334043
 20
65.4833707598
 11
-86.3159407806
 21
65.1529213867
  0
LINE
  8
0
 62
7
  6
CONTINUOUS
 10
-85.9056390297
 20
65.7259187251
 11
-86.0806334043
 21
65.4833707598
  0
LINE
  8
0
 62
7
  6
CONTINUOUS
 10
-85.7318016458
 20
65.9643035192
 11
-85.9056390297
 21
65.7259187251
  0
LINE
  8
0
 62
7
  6
CONTINUOUS
 10
-85.724607958
 20
65.9740194371
 11
-85.7318016458
 21
65.9643035192
  0
LINE
  8
0
 62
7
  6
CONTINUOUS
 10
-85.7317993866
 20
237.9837342837
 11
-85.724607958
 21
237.9740194371
  0
LINE
  8
0
 62
7
  6
CONTINUOUS
 10
-85.9055507666
 20
238.2219987759
 11
-85.7317993866
 21
237.9837342837
  0
LINE
  8
0
 62
7
  6
CONTINUOUS
 10
-86.0804937951
 20
238.4644763208
 11
-85.9055507666
 21
238.2219987759
  0
LINE
  8
0
 62
7
  6
CONTINUOUS
 10
454.8665037634
 20
696.7948009137
 11
454.631277879
 21
696.4644763208
  0
LINE
  8
0
 62
7
  6
CONTINUOUS
 10
454.631277879
 20
696.4644763208
 11
454.4563348505
 21
696.2219987759
  0
LINE
  8
0
 62
7
  6
CONTINUOUS
 10
454.4563348505
 20
696.2219987759
 11
454.2825834705
 21
695.9837342837
  0
LINE
  8
0
 62
7
  6
CONTINUOUS
 10
454.2825834705
 20
695.9837342837
 11
454.275392042
 21
695.9740194371
  0
LINE
  8
0
 62
7
  6
CONTINUOUS
 10
-85.724607958
 20
43.9740194371
 11
454.275392042
 21
43.9740194371
  0
LINE
  8
0
 62
7
  6
CONTINUOUS
 10
454.275392042
 20
65.9740194371
 11
-85.724607958
 21
65.9740194371
  0
LINE
  8
0
 62
7
  6
CONTINUOUS
 10
454.275392042
 20
-392.0259805629
 11
454.2825857297
 21
-392.0356964808
  0
LINE
  8
0
 62
7
  6
CONTINUOUS
 10
454.2825857297
 20
-392.0356964808
 11
454.4564231136
 21
-392.2740812749
  0
LINE
  8
0
 62
7
  6
CONTINUOUS
 10
454.4564231136
 20
-392.2740812749
 11
454.6314174882
 21
-392.5166292402
  0
POLYLINE
  8
0
 62
7
  6
CONTINUOUS
 66
1
 70
0
  0
VERTEX
  8
0
 62
7
  6
CONTINUOUS
 10
454.6314174882
 20
-392.5166292402
  0
VERTEX
  8
0
 62
7
  6
CONTINUOUS
 10
454.8667248645
 20
-392.8470786133
  0
VERTEX
  8
0
 62
7
  6
CONTINUOUS
 10
455.0070336555
 20
-393.0466994743
  0
VERTEX
  8
0
 62
7
  6
CONTINUOUS
 10
455.1623359004
 20
-393.2700181857
  0
VERTEX
  8
0
 62
7
  6
CONTINUOUS
 10
455.3323300698
 20
-393.5176170256
  0
VERTEX
  8
0
 62
7
  6
CONTINUOUS
 10
455.5168611111
 20
-393.7903626448
  0
VERTEX
  8
0
 62
7
  6
CONTINUOUS
 10
455.7148637195
 20
-394.0879758424
  0
VERTEX
  8
0
 62
7
  6
CONTINUOUS
 10
455.9254458285
 20
-394.4108958713
  0
VERTEX
  8
0
 62
7
  6
CONTINUOUS
 10
456.1467117106
 20
-394.7578340207
  0
VERTEX
  8
0
 62
7
  6
CONTINUOUS
 10
456.3766666437
 20
-395.1281231024
  0
VERTEX
  8
0
 62
7
  6
CONTINUOUS
 10
456.6130591899
 20
-395.520337802
  0
VERTEX
  8
0
 62
7
  6
CONTINUOUS
 10
456.8534832477
 20
-395.9335448455
  0
VERTEX
  8
0
 62
7
  6
CONTINUOUS
 10
457.0950530918
 20
-396.3656009235
  0
VERTEX
  8
0
 62
7
  6
CONTINUOUS
 10
457.3353521208
 20
-396.8164450516
  0
VERTEX
  8
0
 62
7
  6
CONTINUOUS
 10
457.569454672
 20
-397.2788969799
  0
VERTEX
  8
0
 62
7
  6
CONTINUOUS
 10
457.7918745714
 20
-397.7470611503
  0
VERTEX
  8
0
 62
7
  6
CONTINUOUS
 10
458.00037197
 20
-398.2170225029
  0
VERTEX
  8
0
 62
7
  6
CONTINUOUS
 10
458.1911104522
 20
-398.6831328101
  0
VERTEX
  8
0
 62
7
  6
CONTINUOUS
 10
458.3637299448
 20
-399.1446960176
  0
VERTEX
  8
0
 62
7
  6
CONTINUOUS
 10
458.516982204
 20
-399.5990778657
  0
VERTEX
  8
0
 62
7
  6
CONTINUOUS
 10
458.651003415
 20
-400.046444744
  0
VERTEX
  8
0
 62
7
  6
CONTINUOUS
 10
458.7657341418
 20
-400.4852597442
  0
VERTEX
  8
0
 62
7
  6
CONTINUOUS
 10
458.8617669105
 20
-400.9179984997
  0
VERTEX
  8
0
 62
7
  6
CONTINUOUS
 10
458.9400390643
 20
-401.3466040866
  0
VERTEX
  8
0
 62
7
  6
CONTINUOUS
 10
459.0004403781
 20
-401.7711372679
  0
VERTEX
  8
0
 62
7
  6
CONTINUOUS
 10
459.0433552944
 20
-402.1920117816
  0
VERTEX
  8
0
 62
7
  6
CONTINUOUS
 10
459.0688771203
 20
-402.6101117789
  0
VERTEX
  8
0
 62
7
  6
CONTINUOUS
 10
459.0774687244
 20
-403.0256086056
  0
VERTEX
  8
0
 62
7
  6
CONTINUOUS
 10
459.0689094792
 20
-403.4410544163
  0
VERTEX
  8
0
 62
7
  6
CONTINUOUS
 10
459.0434451312
 20
-403.8589396209
  0
VERTEX
  8
0
 62
7
  6
CONTINUOUS
 10
459.0005872339
 20
-404.2796207996
  0
VERTEX
  8
0
 62
7
  6
CONTINUOUS
 10
458.9402268802
 20
-404.7041866106
  0
VERTEX
  8
0
 62
7
  6
CONTINUOUS
 10
458.8619756423
 20
-405.1329312297
  0
VERTEX
  8
0
 62
7
  6
CONTINUOUS
 10
458.7659250645
 20
-405.5658932792
  0
VERTEX
  8
0
 62
7
  6
CONTINUOUS
 10
458.651168386
 20
-406.004928077
  0
VERTEX
  8
0
 62
7
  6
CONTINUOUS
 10
458.5171294877
 20
-406.4524155878
  0
VERTEX
  8
0
 62
7
  6
CONTINUOUS
 10
458.3638880866
 20
-406.9068204935
  0
VERTEX
  8
0
 62
7
  6
CONTINUOUS
 10
458.19132968
 20
-407.3682694799
  0
VERTEX
  8
0
 62
7
  6
CONTINUOUS
 10
458.0007055349
 20
-407.834156499
  0
VERTEX
  8
0
 62
7
  6
CONTINUOUS
 10
457.7924316068
 20
-408.30371423
  0
VERTEX
  8
0
 62
7
  6
CONTINUOUS
 10
457.5701964147
 20
-408.7715531777
  0
VERTEX
  8
0
 62
7
  6
CONTINUOUS
 10
457.33611367
 20
-409.2340471558
  0
VERTEX
  8
0
 62
7
  6
CONTINUOUS
 10
457.0957208645
 20
-409.6851389175
  0
VERTEX
  8
0
 62
7
  6
CONTINUOUS
 10
456.8539211849
 20
-410.1176351463
  0
VERTEX
  8
0
 62
7
  6
CONTINUOUS
 10
456.6132402491
 20
-410.5313178656
  0
VERTEX
  8
0
 62
7
  6
CONTINUOUS
 10
456.3766532804
 20
-410.9238598293
  0
VERTEX
  8
0
 62
7
  6
CONTINUOUS
 10
456.1465426617
 20
-411.2943955289
  0
VERTEX
  8
0
 62
7
  6
CONTINUOUS
 10
455.925160832
 20
-411.6415059911
  0
VERTEX
  8
0
 62
7
  6
CONTINUOUS
 10
455.7145083954
 20
-411.9645243635
  0
VERTEX
  8
0
 62
7
  6
CONTINUOUS
 10
455.5164904628
 20
-412.2621527577
  0
VERTEX
  8
0
 62
7
  6
CONTINUOUS
 10
455.331974631
 20
-412.534865308
  0
VERTEX
  8
0
 62
7
  6
CONTINUOUS
 10
455.1620087366
 20
-412.7824160947
  0
VERTEX
  8
0
 62
7
  6
CONTINUOUS
 10
455.006749878
 20
-413.0056673918
  0
VERTEX
  8
0
 62
7
  6
CONTINUOUS
 10
454.8665037634
 20
-413.2051990863
  0
SEQEND
  0
POLYLINE
  8
0
 62
7
  6
CONTINUOUS
 66
1
 70
0
  0
VERTEX
  8
0
 62
7
  6
CONTINUOUS
 10
-86.3159407806
 20
-101.8470786133
  0
VERTEX
  8
0
 62
7
  6
CONTINUOUS
 10
-86.4562495716
 20
-102.0466994743
  0
VERTEX
  8
0
 62
7
  6
CONTINUOUS
 10
-86.6115518165
 20
-102.2700181857
  0
VERTEX
  8
0
 62
7
  6
CONTINUOUS
 10
-86.7815459859
 20
-102.5176170256
  0
VERTEX
  8
0
 62
7
  6
CONTINUOUS
 10
-86.9660770271
 20
-102.7903626448
  0
VERTEX
  8
0
 62
7
  6
CONTINUOUS
 10
-87.1640796356
 20
-103.0879758424
  0
VERTEX
  8
0
 62
7
  6
CONTINUOUS
 10
-87.3746617446
 20
-103.4108958713
  0
VERTEX
  8
0
 62
7
  6
CONTINUOUS
 10
-87.5959276267
 20
-103.7578340207
  0
VERTEX
  8
0
 62
7
  6
CONTINUOUS
 10
-87.8258825598
 20
-104.1281231024
  0
VERTEX
  8
0
 62
7
  6
CONTINUOUS
 10
-88.062275106
 20
-104.520337802
  0
VERTEX
  8
0
 62
7
  6
CONTINUOUS
 10
-88.3026991638
 20
-104.9335448455
  0
VERTEX
  8
0
 62
7
  6
CONTINUOUS
 10
-88.5442690079
 20
-105.3656009235
  0
VERTEX
  8
0
 62
7
  6
CONTINUOUS
 10
-88.7845680369
 20
-105.8164450516
  0
VERTEX
  8
0
 62
7
  6
CONTINUOUS
 10
-89.0186705881
 20
-106.2788969799
  0
VERTEX
  8
0
 62
7
  6
CONTINUOUS
 10
-89.2410904875
 20
-106.7470611503
  0
VERTEX
  8
0
 62
7
  6
CONTINUOUS
 10
-89.4495878861
 20
-107.2170225029
  0
VERTEX
  8
0
 62
7
  6
CONTINUOUS
 10
-89.6403263683
 20
-107.6831328101
  0
VERTEX
  8
0
 62
7
  6
CONTINUOUS
 10
-89.8129458609
 20
-108.1446960176
  0
VERTEX
  8
0
 62
7
  6
CONTINUOUS
 10
-89.9661981201
 20
-108.5990778657
  0
VERTEX
  8
0
 62
7
  6
CONTINUOUS
 10
-90.1002193311
 20
-109.046444744
  0
VERTEX
  8
0
 62
7
  6
CONTINUOUS
 10
-90.2149500579
 20
-109.4852597442
  0
VERTEX
  8
0
 62
7
  6
CONTINUOUS
 10
-90.3109828266
 20
-109.9179984997
  0
VERTEX
  8
0
 62
7
  6
CONTINUOUS
 10
-90.3892549804
 20
-110.3466040866
  0
VERTEX
  8
0
 62
7
  6
CONTINUOUS
 10
-90.4496562942
 20
-110.7711372679
  0
VERTEX
  8
0
 62
7
  6
CONTINUOUS
 10
-90.4925712105
 20
-111.1920117816
  0
VERTEX
  8
0
 62
7
  6
CONTINUOUS
 10
-90.5180930364
 20
-111.6101117789
  0
VERTEX
  8
0
 62
7
  6
CONTINUOUS
 10
-90.5266846405
 20
-112.0256086056
  0
VERTEX
  8
0
 62
7
  6
CONTINUOUS
 10
-90.5181253953
 20
-112.4410544163
  0
VERTEX
  8
0
 62
7
  6
CONTINUOUS
 10
-90.4926610473
 20
-112.8589396209
  0
VERTEX
  8
0
 62
7
  6
CONTINUOUS
 10
-90.44980315
 20
-113.2796207996
  0
VERTEX
  8
0
 62
7
  6
CONTINUOUS
 10
-90.3894427963
 20
-113.7041866106
  0
VERTEX
  8
0
 62
7
  6
CONTINUOUS
 10
-90.3111915584
 20
-114.1329312297
  0
VERTEX
  8
0
 62
7
  6
CONTINUOUS
 10
-90.2151409806
 20
-114.5658932792
  0
VERTEX
  8
0
 62
7
  6
CONTINUOUS
 10
-90.1003843021
 20
-115.004928077
  0
VERTEX
  8
0
 62
7
  6
CONTINUOUS
 10
-89.9663454038
 20
-115.4524155878
  0
VERTEX
  8
0
 62
7
  6
CONTINUOUS
 10
-89.8131040027
 20
-115.9068204935
  0
VERTEX
  8
0
 62
7
  6
CONTINUOUS
 10
-89.6405455961
 20
-116.3682694799
  0
VERTEX
  8
0
 62
7
  6
CONTINUOUS
 10
-89.449921451
 20
-116.834156499
  0
VERTEX
  8
0
 62
7
  6
CONTINUOUS
 10
-89.2416475229
 20
-117.30371423
  0
VERTEX
  8
0
 62
7
  6
CONTINUOUS
 10
-89.0194123308
 20
-117.7715531777
  0
VERTEX
  8
0
 62
7
  6
CONTINUOUS
 10
-88.7853295861
 20
-118.2340471558
  0
VERTEX
  8
0
 62
7
  6
CONTINUOUS
 10
-88.5449367806
 20
-118.6851389175
  0
VERTEX
  8
0
 62
7
  6
CONTINUOUS
 10
-88.303137101
 20
-119.1176351463
  0
VERTEX
  8
0
 62
7
  6
CONTINUOUS
 10
-88.0624561652
 20
-119.5313178656
  0
VERTEX
  8
0
 62
7
  6
CONTINUOUS
 10
-87.8258691965
 20
-119.9238598293
  0
VERTEX
  8
0
 62
7
  6
CONTINUOUS
 10
-87.5957585778
 20
-120.2943955289
  0
VERTEX
  8
0
 62
7
  6
CONTINUOUS
 10
-87.3743767481
 20
-120.6415059911
  0
VERTEX
  8
0
 62
7
  6
CONTINUOUS
 10
-87.1637243115
 20
-120.9645243635
  0
VERTEX
  8
0
 62
7
  6
CONTINUOUS
 10
-86.9657063789
 20
-121.2621527577
  0
VERTEX
  8
0
 62
7
  6
CONTINUOUS
 10
-86.7811905471
 20
-121.534865308
  0
VERTEX
  8
0
 62
7
  6
CONTINUOUS
 10
-86.6112246527
 20
-121.7824160947
  0
VERTEX
  8
0
 62
7
  6
CONTINUOUS
 10
-86.4559657941
 20
-122.0056673918
  0
VERTEX
  8
0
 62
7
  6
CONTINUOUS
 10
-86.3157196795
 20
-122.2051990863
  0
VERTEX
  8
0
 62
7
  6
CONTINUOUS
 10
-86.0804937951
 20
-122.5355236792
  0
SEQEND
  0
LINE
  8
0
 62
7
  6
CONTINUOUS
 10
-86.0806334043
 20
-101.5166292402
 11
-86.3159407806
 21
-101.8470786133
  0
LINE
  8
0
 62
7
  6
CONTINUOUS
 10
454.7413247807
 20
599.6183875803
 11
454.536286008
 21
599.3325323849
  0
LINE
  8
0
 62
7
  6
CONTINUOUS
 10
-85.9056390297
 20
-101.2740812749
 11
-86.0806334043
 21
-101.5166292402
  0
POLYLINE
  8
0
 62
7
  6
CONTINUOUS
 66
1
 70
0
  0
VERTEX
  8
0
 62
7
  6
CONTINUOUS
 10
454.536286008
 20
599.3325323849
  0
VERTEX
  8
0
 62
7
  6
CONTINUOUS
 10
454.3403709121
 20
599.0627871592
  0
VERTEX
  8
0
 62
7
  6
CONTINUOUS
 10
454.2825834705
 20
598.9837342837
  0
SEQEND
  0
LINE
  8
0
 62
7
  6
CONTINUOUS
 10
-85.7318016458
 20
-101.0356964808
 11
-85.9056390297
 21
-101.2740812749
  0
LINE
  8
0
 62
7
  6
CONTINUOUS
 10
454.2825834705
 20
598.9837342837
 11
454.275392042
 21
598.9740194371
  0
LINE
  8
0
 62
7
  6
CONTINUOUS
 10
-85.724607958
 20
-101.0259805629
 11
-85.7318016458
 21
-101.0356964808
  0
LINE
  8
0
 62
7
  6
CONTINUOUS
 10
-85.7317993866
 20
404.9837342837
 11
-85.724607958
 21
404.9740194371
  0
LINE
  8
0
 62
7
  6
CONTINUOUS
 10
454.275392042
 20
-295.0259805629
 11
454.2825857297
 21
-295.0356964808
  0
LINE
  8
0
 62
7
  6
CONTINUOUS
 10
-85.9055507666
 20
405.2219987759
 11
-85.7317993866
 21
404.9837342837
  0
LINE
  8
0
 62
7
  6
CONTINUOUS
 10
454.2825857297
 20
-295.0356964808
 11
454.4564231136
 21
-295.2740812749
  0
LINE
  8
0
 62
7
  6
CONTINUOUS
 10
-86.0804937951
 20
405.4644763208
 11
-85.9055507666
 21
405.2219987759
  0
POLYLINE
  8
0
 62
7
  6
CONTINUOUS
 66
1
 70
0
  0
VERTEX
  8
0
 62
7
  6
CONTINUOUS
 10
454.4564231136
 20
-295.2740812749
  0
VERTEX
  8
0
 62
7
  6
CONTINUOUS
 10
454.6314174882
 20
-295.5166292402
  0
VERTEX
  8
0
 62
7
  6
CONTINUOUS
 10
454.7414907798
 20
-295.6705816861
  0
VERTEX
  8
0
 62
7
  6
CONTINUOUS
 10
454.8667248645
 20
-295.8470786133
  0
VERTEX
  8
0
 62
7
  6
CONTINUOUS
 10
455.0070336555
 20
-296.0466994743
  0
VERTEX
  8
0
 62
7
  6
CONTINUOUS
 10
455.1623359004
 20
-296.2700181857
  0
VERTEX
  8
0
 62
7
  6
CONTINUOUS
 10
455.3323300698
 20
-296.5176170256
  0
VERTEX
  8
0
 62
7
  6
CONTINUOUS
 10
455.5168611111
 20
-296.7903626448
  0
VERTEX
  8
0
 62
7
  6
CONTINUOUS
 10
455.7148637195
 20
-297.0879758424
  0
VERTEX
  8
0
 62
7
  6
CONTINUOUS
 10
455.9254458285
 20
-297.4108958713
  0
VERTEX
  8
0
 62
7
  6
CONTINUOUS
 10
456.1467117106
 20
-297.7578340207
  0
VERTEX
  8
0
 62
7
  6
CONTINUOUS
 10
456.3766666437
 20
-298.1281231024
  0
VERTEX
  8
0
 62
7
  6
CONTINUOUS
 10
456.6130591899
 20
-298.520337802
  0
VERTEX
  8
0
 62
7
  6
CONTINUOUS
 10
456.8534832477
 20
-298.9335448455
  0
VERTEX
  8
0
 62
7
  6
CONTINUOUS
 10
457.0950530918
 20
-299.3656009235
  0
VERTEX
  8
0
 62
7
  6
CONTINUOUS
 10
457.3353521208
 20
-299.8164450516
  0
VERTEX
  8
0
 62
7
  6
CONTINUOUS
 10
457.569454672
 20
-300.2788969799
  0
VERTEX
  8
0
 62
7
  6
CONTINUOUS
 10
457.7918745714
 20
-300.7470611503
  0
VERTEX
  8
0
 62
7
  6
CONTINUOUS
 10
458.00037197
 20
-301.2170225029
  0
VERTEX
  8
0
 62
7
  6
CONTINUOUS
 10
458.1911104522
 20
-301.6831328101
  0
VERTEX
  8
0
 62
7
  6
CONTINUOUS
 10
458.3637299448
 20
-302.1446960176
  0
VERTEX
  8
0
 62
7
  6
CONTINUOUS
 10
458.516982204
 20
-302.5990778657
  0
VERTEX
  8
0
 62
7
  6
CONTINUOUS
 10
458.651003415
 20
-303.046444744
  0
VERTEX
  8
0
 62
7
  6
CONTINUOUS
 10
458.7657341418
 20
-303.4852597442
  0
VERTEX
  8
0
 62
7
  6
CONTINUOUS
 10
458.8617669105
 20
-303.9179984997
  0
VERTEX
  8
0
 62
7
  6
CONTINUOUS
 10
458.9400390643
 20
-304.3466040866
  0
VERTEX
  8
0
 62
7
  6
CONTINUOUS
 10
459.0004403781
 20
-304.7711372679
  0
VERTEX
  8
0
 62
7
  6
CONTINUOUS
 10
459.0433552944
 20
-305.1920117816
  0
VERTEX
  8
0
 62
7
  6
CONTINUOUS
 10
459.0688771203
 20
-305.6101117789
  0
VERTEX
  8
0
 62
7
  6
CONTINUOUS
 10
459.0774687244
 20
-306.0256086056
  0
VERTEX
  8
0
 62
7
  6
CONTINUOUS
 10
459.0689094792
 20
-306.4410544163
  0
VERTEX
  8
0
 62
7
  6
CONTINUOUS
 10
459.0434451312
 20
-306.8589396209
  0
VERTEX
  8
0
 62
7
  6
CONTINUOUS
 10
459.0005872339
 20
-307.2796207996
  0
VERTEX
  8
0
 62
7
  6
CONTINUOUS
 10
458.9402268802
 20
-307.7041866106
  0
VERTEX
  8
0
 62
7
  6
CONTINUOUS
 10
458.8619756423
 20
-308.1329312297
  0
VERTEX
  8
0
 62
7
  6
CONTINUOUS
 10
458.7659250645
 20
-308.5658932792
  0
VERTEX
  8
0
 62
7
  6
CONTINUOUS
 10
458.651168386
 20
-309.004928077
  0
VERTEX
  8
0
 62
7
  6
CONTINUOUS
 10
458.5171294877
 20
-309.4524155878
  0
VERTEX
  8
0
 62
7
  6
CONTINUOUS
 10
458.3638880866
 20
-309.9068204935
  0
VERTEX
  8
0
 62
7
  6
CONTINUOUS
 10
458.19132968
 20
-310.3682694799
  0
VERTEX
  8
0
 62
7
  6
CONTINUOUS
 10
458.0007055349
 20
-310.834156499
  0
VERTEX
  8
0
 62
7
  6
CONTINUOUS
 10
457.7924316068
 20
-311.30371423
  0
VERTEX
  8
0
 62
7
  6
CONTINUOUS
 10
457.5701964147
 20
-311.7715531777
  0
VERTEX
  8
0
 62
7
  6
CONTINUOUS
 10
457.33611367
 20
-312.2340471558
  0
VERTEX
  8
0
 62
7
  6
CONTINUOUS
 10
457.0957208645
 20
-312.6851389175
  0
VERTEX
  8
0
 62
7
  6
CONTINUOUS
 10
456.8539211849
 20
-313.1176351463
  0
VERTEX
  8
0
 62
7
  6
CONTINUOUS
 10
456.6132402491
 20
-313.5313178656
  0
VERTEX
  8
0
 62
7
  6
CONTINUOUS
 10
456.3766532804
 20
-313.9238598293
  0
VERTEX
  8
0
 62
7
  6
CONTINUOUS
 10
456.1465426617
 20
-314.2943955289
  0
VERTEX
  8
0
 62
7
  6
CONTINUOUS
 10
455.925160832
 20
-314.6415059911
  0
VERTEX
  8
0
 62
7
  6
CONTINUOUS
 10
455.7145083954
 20
-314.9645243635
  0
VERTEX
  8
0
 62
7
  6
CONTINUOUS
 10
455.5164904628
 20
-315.2621527577
  0
VERTEX
  8
0
 62
7
  6
CONTINUOUS
 10
455.331974631
 20
-315.534865308
  0
VERTEX
  8
0
 62
7
  6
CONTINUOUS
 10
455.1620087366
 20
-315.7824160947
  0
VERTEX
  8
0
 62
7
  6
CONTINUOUS
 10
455.006749878
 20
-316.0056673918
  0
VERTEX
  8
0
 62
7
  6
CONTINUOUS
 10
454.8665037634
 20
-316.2051990863
  0
SEQEND
  0
POLYLINE
  8
0
 62
7
  6
CONTINUOUS
 66
1
 70
0
  0
VERTEX
  8
0
 62
7
  6
CONTINUOUS
 10
-86.3159407806
 20
-198.8470786133
  0
VERTEX
  8
0
 62
7
  6
CONTINUOUS
 10
-86.4562495716
 20
-199.0466994743
  0
VERTEX
  8
0
 62
7
  6
CONTINUOUS
 10
-86.6115518165
 20
-199.2700181857
  0
VERTEX
  8
0
 62
7
  6
CONTINUOUS
 10
-86.7815459859
 20
-199.5176170256
  0
VERTEX
  8
0
 62
7
  6
CONTINUOUS
 10
-86.9660770271
 20
-199.7903626448
  0
VERTEX
  8
0
 62
7
  6
CONTINUOUS
 10
-87.1640796356
 20
-200.0879758424
  0
VERTEX
  8
0
 62
7
  6
CONTINUOUS
 10
-87.3746617446
 20
-200.4108958713
  0
VERTEX
  8
0
 62
7
  6
CONTINUOUS
 10
-87.5959276267
 20
-200.7578340207
  0
VERTEX
  8
0
 62
7
  6
CONTINUOUS
 10
-87.8258825598
 20
-201.1281231024
  0
VERTEX
  8
0
 62
7
  6
CONTINUOUS
 10
-88.062275106
 20
-201.520337802
  0
VERTEX
  8
0
 62
7
  6
CONTINUOUS
 10
-88.3026991638
 20
-201.9335448455
  0
VERTEX
  8
0
 62
7
  6
CONTINUOUS
 10
-88.5442690079
 20
-202.3656009235
  0
VERTEX
  8
0
 62
7
  6
CONTINUOUS
 10
-88.7845680369
 20
-202.8164450516
  0
VERTEX
  8
0
 62
7
  6
CONTINUOUS
 10
-89.0186705881
 20
-203.2788969799
  0
VERTEX
  8
0
 62
7
  6
CONTINUOUS
 10
-89.2410904875
 20
-203.7470611503
  0
VERTEX
  8
0
 62
7
  6
CONTINUOUS
 10
-89.4495878861
 20
-204.2170225029
  0
VERTEX
  8
0
 62
7
  6
CONTINUOUS
 10
-89.6403263683
 20
-204.6831328101
  0
VERTEX
  8
0
 62
7
  6
CONTINUOUS
 10
-89.8129458609
 20
-205.1446960176
  0
VERTEX
  8
0
 62
7
  6
CONTINUOUS
 10
-89.9661981201
 20
-205.5990778657
  0
VERTEX
  8
0
 62
7
  6
CONTINUOUS
 10
-90.1002193311
 20
-206.046444744
  0
VERTEX
  8
0
 62
7
  6
CONTINUOUS
 10
-90.2149500579
 20
-206.4852597442
  0
VERTEX
  8
0
 62
7
  6
CONTINUOUS
 10
-90.3109828266
 20
-206.9179984997
  0
VERTEX
  8
0
 62
7
  6
CONTINUOUS
 10
-90.3892549804
 20
-207.3466040866
  0
VERTEX
  8
0
 62
7
  6
CONTINUOUS
 10
-90.4496562942
 20
-207.7711372679
  0
VERTEX
  8
0
 62
7
  6
CONTINUOUS
 10
-90.4925712105
 20
-208.1920117816
  0
VERTEX
  8
0
 62
7
  6
CONTINUOUS
 10
-90.5180930364
 20
-208.6101117789
  0
VERTEX
  8
0
 62
7
  6
CONTINUOUS
 10
-90.5266846405
 20
-209.0256086056
  0
VERTEX
  8
0
 62
7
  6
CONTINUOUS
 10
-90.5181253953
 20
-209.4410544163
  0
VERTEX
  8
0
 62
7
  6
CONTINUOUS
 10
-90.4926610473
 20
-209.8589396209
  0
VERTEX
  8
0
 62
7
  6
CONTINUOUS
 10
-90.44980315
 20
-210.2796207996
  0
VERTEX
  8
0
 62
7
  6
CONTINUOUS
 10
-90.3894427963
 20
-210.7041866106
  0
VERTEX
  8
0
 62
7
  6
CONTINUOUS
 10
-90.3111915584
 20
-211.1329312297
  0
VERTEX
  8
0
 62
7
  6
CONTINUOUS
 10
-90.2151409806
 20
-211.5658932792
  0
VERTEX
  8
0
 62
7
  6
CONTINUOUS
 10
-90.1003843021
 20
-212.004928077
  0
VERTEX
  8
0
 62
7
  6
CONTINUOUS
 10
-89.9663454038
 20
-212.4524155878
  0
VERTEX
  8
0
 62
7
  6
CONTINUOUS
 10
-89.8131040027
 20
-212.9068204935
  0
VERTEX
  8
0
 62
7
  6
CONTINUOUS
 10
-89.6405455961
 20
-213.3682694799
  0
VERTEX
  8
0
 62
7
  6
CONTINUOUS
 10
-89.449921451
 20
-213.834156499
  0
VERTEX
  8
0
 62
7
  6
CONTINUOUS
 10
-89.2416475229
 20
-214.30371423
  0
VERTEX
  8
0
 62
7
  6
CONTINUOUS
 10
-89.0194123308
 20
-214.7715531777
  0
VERTEX
  8
0
 62
7
  6
CONTINUOUS
 10
-88.7853295861
 20
-215.2340471558
  0
VERTEX
  8
0
 62
7
  6
CONTINUOUS
 10
-88.5449367806
 20
-215.6851389175
  0
VERTEX
  8
0
 62
7
  6
CONTINUOUS
 10
-88.303137101
 20
-216.1176351463
  0
VERTEX
  8
0
 62
7
  6
CONTINUOUS
 10
-88.0624561652
 20
-216.5313178656
  0
VERTEX
  8
0
 62
7
  6
CONTINUOUS
 10
-87.8258691965
 20
-216.9238598293
  0
VERTEX
  8
0
 62
7
  6
CONTINUOUS
 10
-87.5957585778
 20
-217.2943955289
  0
VERTEX
  8
0
 62
7
  6
CONTINUOUS
 10
-87.3743767481
 20
-217.6415059911
  0
VERTEX
  8
0
 62
7
  6
CONTINUOUS
 10
-87.1637243115
 20
-217.9645243635
  0
VERTEX
  8
0
 62
7
  6
CONTINUOUS
 10
-86.9657063789
 20
-218.2621527577
  0
VERTEX
  8
0
 62
7
  6
CONTINUOUS
 10
-86.7811905471
 20
-218.534865308
  0
VERTEX
  8
0
 62
7
  6
CONTINUOUS
 10
-86.6112246527
 20
-218.7824160947
  0
VERTEX
  8
0
 62
7
  6
CONTINUOUS
 10
-86.4559657941
 20
-219.0056673918
  0
VERTEX
  8
0
 62
7
  6
CONTINUOUS
 10
-86.3157196795
 20
-219.2051990863
  0
VERTEX
  8
0
 62
7
  6
CONTINUOUS
 10
-86.0804937951
 20
-219.5355236792
  0
SEQEND
  0
LINE
  8
0
 62
7
  6
CONTINUOUS
 10
-86.0806334043
 20
-198.5166292402
 11
-86.3159407806
 21
-198.8470786133
  0
LINE
  8
0
 62
7
  6
CONTINUOUS
 10
-85.9056390297
 20
-198.2740812749
 11
-86.0806334043
 21
-198.5166292402
  0
LINE
  8
0
 62
7
  6
CONTINUOUS
 10
-85.7318016458
 20
-198.0356964808
 11
-85.9056390297
 21
-198.2740812749
  0
LINE
  8
0
 62
7
  6
CONTINUOUS
 10
-85.724607958
 20
-198.0259805629
 11
-85.7318016458
 21
-198.0356964808
  0
LINE
  8
0
 62
7
  6
CONTINUOUS
 10
-85.724607958
 20
140.9740194371
 11
454.275392042
 21
140.9740194371
  0
LINE
  8
0
 62
7
  6
CONTINUOUS
 10
-85.7317993866
 20
501.9837342837
 11
-85.724607958
 21
501.9740194371
  0
LINE
  8
0
 62
7
  6
CONTINUOUS
 10
-85.9055507666
 20
502.2219987759
 11
-85.7317993866
 21
501.9837342837
  0
LINE
  8
0
 62
7
  6
CONTINUOUS
 10
-86.0804937951
 20
502.4644763208
 11
-85.9055507666
 21
502.2219987759
  0
POLYLINE
  8
0
 62
7
  6
CONTINUOUS
 66
1
 70
0
  0
VERTEX
  8
0
 62
7
  6
CONTINUOUS
 10
-86.3159407806
 20
-295.8470786133
  0
VERTEX
  8
0
 62
7
  6
CONTINUOUS
 10
-86.4562495716
 20
-296.0466994743
  0
VERTEX
  8
0
 62
7
  6
CONTINUOUS
 10
-86.6115518165
 20
-296.2700181857
  0
VERTEX
  8
0
 62
7
  6
CONTINUOUS
 10
-86.7815459859
 20
-296.5176170256
  0
VERTEX
  8
0
 62
7
  6
CONTINUOUS
 10
-86.9660770271
 20
-296.7903626448
  0
VERTEX
  8
0
 62
7
  6
CONTINUOUS
 10
-87.1640796356
 20
-297.0879758424
  0
VERTEX
  8
0
 62
7
  6
CONTINUOUS
 10
-87.3746617446
 20
-297.4108958713
  0
VERTEX
  8
0
 62
7
  6
CONTINUOUS
 10
-87.5959276267
 20
-297.7578340207
  0
VERTEX
  8
0
 62
7
  6
CONTINUOUS
 10
-87.8258825598
 20
-298.1281231024
  0
VERTEX
  8
0
 62
7
  6
CONTINUOUS
 10
-88.062275106
 20
-298.520337802
  0
VERTEX
  8
0
 62
7
  6
CONTINUOUS
 10
-88.3026991638
 20
-298.9335448455
  0
VERTEX
  8
0
 62
7
  6
CONTINUOUS
 10
-88.5442690079
 20
-299.3656009235
  0
VERTEX
  8
0
 62
7
  6
CONTINUOUS
 10
-88.7845680369
 20
-299.8164450516
  0
VERTEX
  8
0
 62
7
  6
CONTINUOUS
 10
-89.0186705881
 20
-300.2788969799
  0
VERTEX
  8
0
 62
7
  6
CONTINUOUS
 10
-89.2410904875
 20
-300.7470611503
  0
VERTEX
  8
0
 62
7
  6
CONTINUOUS
 10
-89.4495878861
 20
-301.2170225029
  0
VERTEX
  8
0
 62
7
  6
CONTINUOUS
 10
-89.6403263683
 20
-301.6831328101
  0
VERTEX
  8
0
 62
7
  6
CONTINUOUS
 10
-89.8129458609
 20
-302.1446960176
  0
VERTEX
  8
0
 62
7
  6
CONTINUOUS
 10
-89.9661981201
 20
-302.5990778657
  0
VERTEX
  8
0
 62
7
  6
CONTINUOUS
 10
-90.1002193311
 20
-303.046444744
  0
VERTEX
  8
0
 62
7
  6
CONTINUOUS
 10
-90.2149500579
 20
-303.4852597442
  0
VERTEX
  8
0
 62
7
  6
CONTINUOUS
 10
-90.3109828266
 20
-303.9179984997
  0
VERTEX
  8
0
 62
7
  6
CONTINUOUS
 10
-90.3892549804
 20
-304.3466040866
  0
VERTEX
  8
0
 62
7
  6
CONTINUOUS
 10
-90.4496562942
 20
-304.7711372679
  0
VERTEX
  8
0
 62
7
  6
CONTINUOUS
 10
-90.4925712105
 20
-305.1920117816
  0
VERTEX
  8
0
 62
7
  6
CONTINUOUS
 10
-90.5180930364
 20
-305.6101117789
  0
VERTEX
  8
0
 62
7
  6
CONTINUOUS
 10
-90.5266846405
 20
-306.0256086056
  0
VERTEX
  8
0
 62
7
  6
CONTINUOUS
 10
-90.5181253953
 20
-306.4410544163
  0
VERTEX
  8
0
 62
7
  6
CONTINUOUS
 10
-90.4926610473
 20
-306.8589396209
  0
VERTEX
  8
0
 62
7
  6
CONTINUOUS
 10
-90.44980315
 20
-307.2796207996
  0
VERTEX
  8
0
 62
7
  6
CONTINUOUS
 10
-90.3894427963
 20
-307.7041866106
  0
VERTEX
  8
0
 62
7
  6
CONTINUOUS
 10
-90.3111915584
 20
-308.1329312297
  0
VERTEX
  8
0
 62
7
  6
CONTINUOUS
 10
-90.2151409806
 20
-308.5658932792
  0
VERTEX
  8
0
 62
7
  6
CONTINUOUS
 10
-90.1003843021
 20
-309.004928077
  0
VERTEX
  8
0
 62
7
  6
CONTINUOUS
 10
-89.9663454038
 20
-309.4524155878
  0
VERTEX
  8
0
 62
7
  6
CONTINUOUS
 10
-89.8131040027
 20
-309.9068204935
  0
VERTEX
  8
0
 62
7
  6
CONTINUOUS
 10
-89.6405455961
 20
-310.3682694799
  0
VERTEX
  8
0
 62
7
  6
CONTINUOUS
 10
-89.449921451
 20
-310.834156499
  0
VERTEX
  8
0
 62
7
  6
CONTINUOUS
 10
-89.2416475229
 20
-311.30371423
  0
VERTEX
  8
0
 62
7
  6
CONTINUOUS
 10
-89.0194123308
 20
-311.7715531777
  0
VERTEX
  8
0
 62
7
  6
CONTINUOUS
 10
-88.7853295861
 20
-312.2340471558
  0
VERTEX
  8
0
 62
7
  6
CONTINUOUS
 10
-88.5449367806
 20
-312.6851389175
  0
VERTEX
  8
0
 62
7
  6
CONTINUOUS
 10
-88.303137101
 20
-313.1176351463
  0
VERTEX
  8
0
 62
7
  6
CONTINUOUS
 10
-88.0624561652
 20
-313.5313178656
  0
VERTEX
  8
0
 62
7
  6
CONTINUOUS
 10
-87.8258691965
 20
-313.9238598293
  0
VERTEX
  8
0
 62
7
  6
CONTINUOUS
 10
-87.5957585778
 20
-314.2943955289
  0
VERTEX
  8
0
 62
7
  6
CONTINUOUS
 10
-87.3743767481
 20
-314.6415059911
  0
VERTEX
  8
0
 62
7
  6
CONTINUOUS
 10
-87.1637243115
 20
-314.9645243635
  0
VERTEX
  8
0
 62
7
  6
CONTINUOUS
 10
-86.9657063789
 20
-315.2621527577
  0
VERTEX
  8
0
 62
7
  6
CONTINUOUS
 10
-86.7811905471
 20
-315.534865308
  0
VERTEX
  8
0
 62
7
  6
CONTINUOUS
 10
-86.6112246527
 20
-315.7824160947
  0
VERTEX
  8
0
 62
7
  6
CONTINUOUS
 10
-86.4559657941
 20
-316.0056673918
  0
VERTEX
  8
0
 62
7
  6
CONTINUOUS
 10
-86.3157196795
 20
-316.2051990863
  0
VERTEX
  8
0
 62
7
  6
CONTINUOUS
 10
-86.0804937951
 20
-316.5355236792
  0
SEQEND
  0
LINE
  8
0
 62
7
  6
CONTINUOUS
 10
454.8665037634
 20
502.7948009137
 11
454.631277879
 21
502.4644763208
  0
LINE
  8
0
 62
7
  6
CONTINUOUS
 10
-86.0806334043
 20
-295.5166292402
 11
-86.3159407806
 21
-295.8470786133
  0
LINE
  8
0
 62
7
  6
CONTINUOUS
 10
454.631277879
 20
502.4644763208
 11
454.4563348505
 21
502.2219987759
  0
LINE
  8
0
 62
7
  6
CONTINUOUS
 10
-85.9056390297
 20
-295.2740812749
 11
-86.0806334043
 21
-295.5166292402
  0
LINE
  8
0
 62
7
  6
CONTINUOUS
 10
-85.7318016458
 20
-295.0356964808
 11
-85.9056390297
 21
-295.2740812749
  0
LINE
  8
0
 62
7
  6
CONTINUOUS
 10
454.4563348505
 20
502.2219987759
 11
454.2825834705
 21
501.9837342837
  0
LINE
  8
0
 62
7
  6
CONTINUOUS
 10
454.2825834705
 20
501.9837342837
 11
454.275392042
 21
501.9740194371
  0
LINE
  8
0
 62
7
  6
CONTINUOUS
 10
-85.724607958
 20
-295.0259805629
 11
-85.7318016458
 21
-295.0356964808
  0
LINE
  8
0
 62
7
  6
CONTINUOUS
 10
454.275392042
 20
162.9740194371
 11
-85.724607958
 21
162.9740194371
  0
LINE
  8
0
 62
7
  6
CONTINUOUS
 10
454.275392042
 20
-198.0259805629
 11
454.2825857297
 21
-198.0356964808
  0
LINE
  8
0
 62
7
  6
CONTINUOUS
 10
-85.7317993866
 20
598.9837342837
 11
-85.724607958
 21
598.9740194371
  0
LINE
  8
0
 62
7
  6
CONTINUOUS
 10
-85.9055507666
 20
599.2219987759
 11
-85.7317993866
 21
598.9837342837
  0
LINE
  8
0
 62
7
  6
CONTINUOUS
 10
454.2825857297
 20
-198.0356964808
 11
454.4564231136
 21
-198.2740812749
  0
LINE
  8
0
 62
7
  6
CONTINUOUS
 10
454.4564231136
 20
-198.2740812749
 11
454.6314174882
 21
-198.5166292402
  0
LINE
  8
0
 62
7
  6
CONTINUOUS
 10
-86.0804937951
 20
599.4644763208
 11
-85.9055507666
 21
599.2219987759
  0
POLYLINE
  8
0
 62
7
  6
CONTINUOUS
 66
1
 70
0
  0
VERTEX
  8
0
 62
7
  6
CONTINUOUS
 10
454.6314174882
 20
-198.5166292402
  0
VERTEX
  8
0
 62
7
  6
CONTINUOUS
 10
454.8667248645
 20
-198.8470786133
  0
VERTEX
  8
0
 62
7
  6
CONTINUOUS
 10
455.0070336555
 20
-199.0466994743
  0
VERTEX
  8
0
 62
7
  6
CONTINUOUS
 10
455.1623359004
 20
-199.2700181857
  0
VERTEX
  8
0
 62
7
  6
CONTINUOUS
 10
455.3323300698
 20
-199.5176170256
  0
VERTEX
  8
0
 62
7
  6
CONTINUOUS
 10
455.5168611111
 20
-199.7903626448
  0
VERTEX
  8
0
 62
7
  6
CONTINUOUS
 10
455.7148637195
 20
-200.0879758424
  0
VERTEX
  8
0
 62
7
  6
CONTINUOUS
 10
455.9254458285
 20
-200.4108958713
  0
VERTEX
  8
0
 62
7
  6
CONTINUOUS
 10
456.1467117106
 20
-200.7578340207
  0
VERTEX
  8
0
 62
7
  6
CONTINUOUS
 10
456.3766666437
 20
-201.1281231024
  0
VERTEX
  8
0
 62
7
  6
CONTINUOUS
 10
456.6130591899
 20
-201.520337802
  0
VERTEX
  8
0
 62
7
  6
CONTINUOUS
 10
456.8534832477
 20
-201.9335448455
  0
VERTEX
  8
0
 62
7
  6
CONTINUOUS
 10
457.0950530918
 20
-202.3656009235
  0
VERTEX
  8
0
 62
7
  6
CONTINUOUS
 10
457.3353521208
 20
-202.8164450516
  0
VERTEX
  8
0
 62
7
  6
CONTINUOUS
 10
457.569454672
 20
-203.2788969799
  0
VERTEX
  8
0
 62
7
  6
CONTINUOUS
 10
457.7918745714
 20
-203.7470611503
  0
VERTEX
  8
0
 62
7
  6
CONTINUOUS
 10
458.00037197
 20
-204.2170225029
  0
VERTEX
  8
0
 62
7
  6
CONTINUOUS
 10
458.1911104522
 20
-204.6831328101
  0
VERTEX
  8
0
 62
7
  6
CONTINUOUS
 10
458.3637299448
 20
-205.1446960176
  0
VERTEX
  8
0
 62
7
  6
CONTINUOUS
 10
458.516982204
 20
-205.5990778657
  0
VERTEX
  8
0
 62
7
  6
CONTINUOUS
 10
458.651003415
 20
-206.046444744
  0
VERTEX
  8
0
 62
7
  6
CONTINUOUS
 10
458.7657341418
 20
-206.4852597442
  0
VERTEX
  8
0
 62
7
  6
CONTINUOUS
 10
458.8617669105
 20
-206.9179984997
  0
VERTEX
  8
0
 62
7
  6
CONTINUOUS
 10
458.9400390643
 20
-207.3466040866
  0
VERTEX
  8
0
 62
7
  6
CONTINUOUS
 10
459.0004403781
 20
-207.7711372679
  0
VERTEX
  8
0
 62
7
  6
CONTINUOUS
 10
459.0433552944
 20
-208.1920117816
  0
VERTEX
  8
0
 62
7
  6
CONTINUOUS
 10
459.0688771203
 20
-208.6101117789
  0
VERTEX
  8
0
 62
7
  6
CONTINUOUS
 10
459.0774687244
 20
-209.0256086056
  0
VERTEX
  8
0
 62
7
  6
CONTINUOUS
 10
459.0689094792
 20
-209.4410544163
  0
VERTEX
  8
0
 62
7
  6
CONTINUOUS
 10
459.0434451312
 20
-209.8589396209
  0
VERTEX
  8
0
 62
7
  6
CONTINUOUS
 10
459.0005872339
 20
-210.2796207996
  0
VERTEX
  8
0
 62
7
  6
CONTINUOUS
 10
458.9402268802
 20
-210.7041866106
  0
VERTEX
  8
0
 62
7
  6
CONTINUOUS
 10
458.8619756423
 20
-211.1329312297
  0
VERTEX
  8
0
 62
7
  6
CONTINUOUS
 10
458.7659250645
 20
-211.5658932792
  0
VERTEX
  8
0
 62
7
  6
CONTINUOUS
 10
458.651168386
 20
-212.004928077
  0
VERTEX
  8
0
 62
7
  6
CONTINUOUS
 10
458.5171294877
 20
-212.4524155878
  0
VERTEX
  8
0
 62
7
  6
CONTINUOUS
 10
458.3638880866
 20
-212.9068204935
  0
VERTEX
  8
0
 62
7
  6
CONTINUOUS
 10
458.19132968
 20
-213.3682694799
  0
VERTEX
  8
0
 62
7
  6
CONTINUOUS
 10
458.0007055349
 20
-213.834156499
  0
VERTEX
  8
0
 62
7
  6
CONTINUOUS
 10
457.7924316068
 20
-214.30371423
  0
VERTEX
  8
0
 62
7
  6
CONTINUOUS
 10
457.5701964147
 20
-214.7715531777
  0
VERTEX
  8
0
 62
7
  6
CONTINUOUS
 10
457.33611367
 20
-215.2340471558
  0
VERTEX
  8
0
 62
7
  6
CONTINUOUS
 10
457.0957208645
 20
-215.6851389175
  0
VERTEX
  8
0
 62
7
  6
CONTINUOUS
 10
456.8539211849
 20
-216.1176351463
  0
VERTEX
  8
0
 62
7
  6
CONTINUOUS
 10
456.6132402491
 20
-216.5313178656
  0
VERTEX
  8
0
 62
7
  6
CONTINUOUS
 10
456.3766532804
 20
-216.9238598293
  0
VERTEX
  8
0
 62
7
  6
CONTINUOUS
 10
456.1465426617
 20
-217.2943955289
  0
VERTEX
  8
0
 62
7
  6
CONTINUOUS
 10
455.925160832
 20
-217.6415059911
  0
VERTEX
  8
0
 62
7
  6
CONTINUOUS
 10
455.7145083954
 20
-217.9645243635
  0
VERTEX
  8
0
 62
7
  6
CONTINUOUS
 10
455.5164904628
 20
-218.2621527577
  0
VERTEX
  8
0
 62
7
  6
CONTINUOUS
 10
455.331974631
 20
-218.534865308
  0
VERTEX
  8
0
 62
7
  6
CONTINUOUS
 10
455.1620087366
 20
-218.7824160947
  0
VERTEX
  8
0
 62
7
  6
CONTINUOUS
 10
455.006749878
 20
-219.0056673918
  0
VERTEX
  8
0
 62
7
  6
CONTINUOUS
 10
454.8665037634
 20
-219.2051990863
  0
SEQEND
  0
POLYLINE
  8
0
 62
7
  6
CONTINUOUS
 66
1
 70
0
  0
VERTEX
  8
0
 62
7
  6
CONTINUOUS
 10
-86.1907066959
 20
-392.6705816861
  0
VERTEX
  8
0
 62
7
  6
CONTINUOUS
 10
-86.3159407806
 20
-392.8470786133
  0
VERTEX
  8
0
 62
7
  6
CONTINUOUS
 10
-86.4562495716
 20
-393.0466994743
  0
VERTEX
  8
0
 62
7
  6
CONTINUOUS
 10
-86.6115518165
 20
-393.2700181857
  0
VERTEX
  8
0
 62
7
  6
CONTINUOUS
 10
-86.7815459859
 20
-393.5176170256
  0
VERTEX
  8
0
 62
7
  6
CONTINUOUS
 10
-86.9660770271
 20
-393.7903626448
  0
VERTEX
  8
0
 62
7
  6
CONTINUOUS
 10
-87.1640796356
 20
-394.0879758424
  0
VERTEX
  8
0
 62
7
  6
CONTINUOUS
 10
-87.3746617446
 20
-394.4108958713
  0
VERTEX
  8
0
 62
7
  6
CONTINUOUS
 10
-87.5959276267
 20
-394.7578340207
  0
VERTEX
  8
0
 62
7
  6
CONTINUOUS
 10
-87.8258825598
 20
-395.1281231024
  0
VERTEX
  8
0
 62
7
  6
CONTINUOUS
 10
-88.062275106
 20
-395.520337802
  0
VERTEX
  8
0
 62
7
  6
CONTINUOUS
 10
-88.3026991638
 20
-395.9335448455
  0
VERTEX
  8
0
 62
7
  6
CONTINUOUS
 10
-88.5442690079
 20
-396.3656009235
  0
VERTEX
  8
0
 62
7
  6
CONTINUOUS
 10
-88.7845680369
 20
-396.8164450516
  0
VERTEX
  8
0
 62
7
  6
CONTINUOUS
 10
-89.0186705881
 20
-397.2788969799
  0
VERTEX
  8
0
 62
7
  6
CONTINUOUS
 10
-89.2410904875
 20
-397.7470611503
  0
VERTEX
  8
0
 62
7
  6
CONTINUOUS
 10
-89.4495878861
 20
-398.2170225029
  0
VERTEX
  8
0
 62
7
  6
CONTINUOUS
 10
-89.6403263683
 20
-398.6831328101
  0
VERTEX
  8
0
 62
7
  6
CONTINUOUS
 10
-89.8129458609
 20
-399.1446960176
  0
VERTEX
  8
0
 62
7
  6
CONTINUOUS
 10
-89.9661981201
 20
-399.5990778657
  0
VERTEX
  8
0
 62
7
  6
CONTINUOUS
 10
-90.1002193311
 20
-400.046444744
  0
VERTEX
  8
0
 62
7
  6
CONTINUOUS
 10
-90.2149500579
 20
-400.4852597442
  0
VERTEX
  8
0
 62
7
  6
CONTINUOUS
 10
-90.3109828266
 20
-400.9179984997
  0
VERTEX
  8
0
 62
7
  6
CONTINUOUS
 10
-90.3892549804
 20
-401.3466040866
  0
VERTEX
  8
0
 62
7
  6
CONTINUOUS
 10
-90.4496562942
 20
-401.7711372679
  0
VERTEX
  8
0
 62
7
  6
CONTINUOUS
 10
-90.4925712105
 20
-402.1920117816
  0
VERTEX
  8
0
 62
7
  6
CONTINUOUS
 10
-90.5180930364
 20
-402.6101117789
  0
VERTEX
  8
0
 62
7
  6
CONTINUOUS
 10
-90.5266846405
 20
-403.0256086056
  0
VERTEX
  8
0
 62
7
  6
CONTINUOUS
 10
-90.5181253953
 20
-403.4410544163
  0
VERTEX
  8
0
 62
7
  6
CONTINUOUS
 10
-90.4926610473
 20
-403.8589396209
  0
VERTEX
  8
0
 62
7
  6
CONTINUOUS
 10
-90.44980315
 20
-404.2796207996
  0
VERTEX
  8
0
 62
7
  6
CONTINUOUS
 10
-90.3894427963
 20
-404.7041866106
  0
VERTEX
  8
0
 62
7
  6
CONTINUOUS
 10
-90.3111915584
 20
-405.1329312297
  0
VERTEX
  8
0
 62
7
  6
CONTINUOUS
 10
-90.2151409806
 20
-405.5658932792
  0
VERTEX
  8
0
 62
7
  6
CONTINUOUS
 10
-90.1003843021
 20
-406.004928077
  0
VERTEX
  8
0
 62
7
  6
CONTINUOUS
 10
-89.9663454038
 20
-406.4524155878
  0
VERTEX
  8
0
 62
7
  6
CONTINUOUS
 10
-89.8131040027
 20
-406.9068204935
  0
VERTEX
  8
0
 62
7
  6
CONTINUOUS
 10
-89.6405455961
 20
-407.3682694799
  0
VERTEX
  8
0
 62
7
  6
CONTINUOUS
 10
-89.449921451
 20
-407.834156499
  0
VERTEX
  8
0
 62
7
  6
CONTINUOUS
 10
-89.2416475229
 20
-408.30371423
  0
VERTEX
  8
0
 62
7
  6
CONTINUOUS
 10
-89.0194123308
 20
-408.7715531777
  0
VERTEX
  8
0
 62
7
  6
CONTINUOUS
 10
-88.7853295861
 20
-409.2340471558
  0
VERTEX
  8
0
 62
7
  6
CONTINUOUS
 10
-88.5449367806
 20
-409.6851389175
  0
VERTEX
  8
0
 62
7
  6
CONTINUOUS
 10
-88.303137101
 20
-410.1176351463
  0
VERTEX
  8
0
 62
7
  6
CONTINUOUS
 10
-88.0624561652
 20
-410.5313178656
  0
VERTEX
  8
0
 62
7
  6
CONTINUOUS
 10
-87.8258691965
 20
-410.9238598293
  0
VERTEX
  8
0
 62
7
  6
CONTINUOUS
 10
-87.5957585778
 20
-411.2943955289
  0
VERTEX
  8
0
 62
7
  6
CONTINUOUS
 10
-87.3743767481
 20
-411.6415059911
  0
VERTEX
  8
0
 62
7
  6
CONTINUOUS
 10
-87.1637243115
 20
-411.9645243635
  0
VERTEX
  8
0
 62
7
  6
CONTINUOUS
 10
-86.9657063789
 20
-412.2621527577
  0
VERTEX
  8
0
 62
7
  6
CONTINUOUS
 10
-86.7811905471
 20
-412.534865308
  0
VERTEX
  8
0
 62
7
  6
CONTINUOUS
 10
-86.6112246527
 20
-412.7824160947
  0
VERTEX
  8
0
 62
7
  6
CONTINUOUS
 10
-86.4559657941
 20
-413.0056673918
  0
VERTEX
  8
0
 62
7
  6
CONTINUOUS
 10
-86.3157196795
 20
-413.2051990863
  0
VERTEX
  8
0
 62
7
  6
CONTINUOUS
 10
-86.0804937951
 20
-413.5355236792
  0
SEQEND
  0
LINE
  8
0
 62
7
  6
CONTINUOUS
 10
454.8665037634
 20
405.7948009137
 11
454.631277879
 21
405.4644763208
  0
LINE
  8
0
 62
7
  6
CONTINUOUS
 10
454.631277879
 20
405.4644763208
 11
454.4563348505
 21
405.2219987759
  0
LINE
  8
0
 62
7
  6
CONTINUOUS
 10
454.4563348505
 20
405.2219987759
 11
454.2825834705
 21
404.9837342837
  0
LINE
  8
0
 62
7
  6
CONTINUOUS
 10
454.2825834705
 20
404.9837342837
 11
454.275392042
 21
404.9740194371
  0
LINE
  8
0
 62
7
  6
CONTINUOUS
 10
-85.724607958
 20
237.9740194371
 11
454.275392042
 21
237.9740194371
  0
LINE
  8
0
 62
7
  6
CONTINUOUS
 10
454.275392042
 20
-101.0259805629
 11
454.2825857297
 21
-101.0356964808
  0
LINE
  8
0
 62
7
  6
CONTINUOUS
 10
454.2825857297
 20
-101.0356964808
 11
454.4564231136
 21
-101.2740812749
  0
LINE
  8
0
 62
7
  6
CONTINUOUS
 10
454.4564231136
 20
-101.2740812749
 11
454.6314174882
 21
-101.5166292402
  0
POLYLINE
  8
0
 62
7
  6
CONTINUOUS
 66
1
 70
0
  0
VERTEX
  8
0
 62
7
  6
CONTINUOUS
 10
454.6314174882
 20
-101.5166292402
  0
VERTEX
  8
0
 62
7
  6
CONTINUOUS
 10
454.8667248645
 20
-101.8470786133
  0
VERTEX
  8
0
 62
7
  6
CONTINUOUS
 10
455.0070336555
 20
-102.0466994743
  0
VERTEX
  8
0
 62
7
  6
CONTINUOUS
 10
455.1623359004
 20
-102.2700181857
  0
VERTEX
  8
0
 62
7
  6
CONTINUOUS
 10
455.3323300698
 20
-102.5176170256
  0
VERTEX
  8
0
 62
7
  6
CONTINUOUS
 10
455.5168611111
 20
-102.7903626448
  0
VERTEX
  8
0
 62
7
  6
CONTINUOUS
 10
455.7148637195
 20
-103.0879758424
  0
VERTEX
  8
0
 62
7
  6
CONTINUOUS
 10
455.9254458285
 20
-103.4108958713
  0
VERTEX
  8
0
 62
7
  6
CONTINUOUS
 10
456.1467117106
 20
-103.7578340207
  0
VERTEX
  8
0
 62
7
  6
CONTINUOUS
 10
456.3766666437
 20
-104.1281231024
  0
VERTEX
  8
0
 62
7
  6
CONTINUOUS
 10
456.6130591899
 20
-104.520337802
  0
VERTEX
  8
0
 62
7
  6
CONTINUOUS
 10
456.8534832477
 20
-104.9335448455
  0
VERTEX
  8
0
 62
7
  6
CONTINUOUS
 10
457.0950530918
 20
-105.3656009235
  0
VERTEX
  8
0
 62
7
  6
CONTINUOUS
 10
457.3353521208
 20
-105.8164450516
  0
VERTEX
  8
0
 62
7
  6
CONTINUOUS
 10
457.569454672
 20
-106.2788969799
  0
VERTEX
  8
0
 62
7
  6
CONTINUOUS
 10
457.7918745714
 20
-106.7470611503
  0
VERTEX
  8
0
 62
7
  6
CONTINUOUS
 10
458.00037197
 20
-107.2170225029
  0
VERTEX
  8
0
 62
7
  6
CONTINUOUS
 10
458.1911104522
 20
-107.6831328101
  0
VERTEX
  8
0
 62
7
  6
CONTINUOUS
 10
458.3637299448
 20
-108.1446960176
  0
VERTEX
  8
0
 62
7
  6
CONTINUOUS
 10
458.516982204
 20
-108.5990778657
  0
VERTEX
  8
0
 62
7
  6
CONTINUOUS
 10
458.651003415
 20
-109.046444744
  0
VERTEX
  8
0
 62
7
  6
CONTINUOUS
 10
458.7657341418
 20
-109.4852597442
  0
VERTEX
  8
0
 62
7
  6
CONTINUOUS
 10
458.8617669105
 20
-109.9179984997
  0
VERTEX
  8
0
 62
7
  6
CONTINUOUS
 10
458.9400390643
 20
-110.3466040866
  0
VERTEX
  8
0
 62
7
  6
CONTINUOUS
 10
459.0004403781
 20
-110.7711372679
  0
VERTEX
  8
0
 62
7
  6
CONTINUOUS
 10
459.0433552944
 20
-111.1920117816
  0
VERTEX
  8
0
 62
7
  6
CONTINUOUS
 10
459.0688771203
 20
-111.6101117789
  0
VERTEX
  8
0
 62
7
  6
CONTINUOUS
 10
459.0774687244
 20
-112.0256086056
  0
VERTEX
  8
0
 62
7
  6
CONTINUOUS
 10
459.0689094792
 20
-112.4410544163
  0
VERTEX
  8
0
 62
7
  6
CONTINUOUS
 10
459.0434451312
 20
-112.8589396209
  0
VERTEX
  8
0
 62
7
  6
CONTINUOUS
 10
459.0005872339
 20
-113.2796207996
  0
VERTEX
  8
0
 62
7
  6
CONTINUOUS
 10
458.9402268802
 20
-113.7041866106
  0
VERTEX
  8
0
 62
7
  6
CONTINUOUS
 10
458.8619756423
 20
-114.1329312297
  0
VERTEX
  8
0
 62
7
  6
CONTINUOUS
 10
458.7659250645
 20
-114.5658932792
  0
VERTEX
  8
0
 62
7
  6
CONTINUOUS
 10
458.651168386
 20
-115.004928077
  0
VERTEX
  8
0
 62
7
  6
CONTINUOUS
 10
458.5171294877
 20
-115.4524155878
  0
VERTEX
  8
0
 62
7
  6
CONTINUOUS
 10
458.3638880866
 20
-115.9068204935
  0
VERTEX
  8
0
 62
7
  6
CONTINUOUS
 10
458.19132968
 20
-116.3682694799
  0
VERTEX
  8
0
 62
7
  6
CONTINUOUS
 10
458.0007055349
 20
-116.834156499
  0
VERTEX
  8
0
 62
7
  6
CONTINUOUS
 10
457.7924316068
 20
-117.30371423
  0
VERTEX
  8
0
 62
7
  6
CONTINUOUS
 10
457.5701964147
 20
-117.7715531777
  0
VERTEX
  8
0
 62
7
  6
CONTINUOUS
 10
457.33611367
 20
-118.2340471558
  0
VERTEX
  8
0
 62
7
  6
CONTINUOUS
 10
457.0957208645
 20
-118.6851389175
  0
VERTEX
  8
0
 62
7
  6
CONTINUOUS
 10
456.8539211849
 20
-119.1176351463
  0
VERTEX
  8
0
 62
7
  6
CONTINUOUS
 10
456.6132402491
 20
-119.5313178656
  0
VERTEX
  8
0
 62
7
  6
CONTINUOUS
 10
456.3766532804
 20
-119.9238598293
  0
VERTEX
  8
0
 62
7
  6
CONTINUOUS
 10
456.1465426617
 20
-120.2943955289
  0
VERTEX
  8
0
 62
7
  6
CONTINUOUS
 10
455.925160832
 20
-120.6415059911
  0
VERTEX
  8
0
 62
7
  6
CONTINUOUS
 10
455.7145083954
 20
-120.9645243635
  0
VERTEX
  8
0
 62
7
  6
CONTINUOUS
 10
455.5164904628
 20
-121.2621527577
  0
VERTEX
  8
0
 62
7
  6
CONTINUOUS
 10
455.331974631
 20
-121.534865308
  0
VERTEX
  8
0
 62
7
  6
CONTINUOUS
 10
455.1620087366
 20
-121.7824160947
  0
VERTEX
  8
0
 62
7
  6
CONTINUOUS
 10
455.006749878
 20
-122.0056673918
  0
VERTEX
  8
0
 62
7
  6
CONTINUOUS
 10
454.8665037634
 20
-122.2051990863
  0
SEQEND
  0
LINE
  8
0
 62
7
  6
CONTINUOUS
 10
-85.985618954
 20
-392.384655605
 11
-86.1907066959
 21
-392.6705816861
  0
POLYLINE
  8
0
 62
7
  6
CONTINUOUS
 66
1
 70
0
  0
VERTEX
  8
0
 62
7
  6
CONTINUOUS
 10
-85.7318016458
 20
-392.0356964808
  0
VERTEX
  8
0
 62
7
  6
CONTINUOUS
 10
-85.789617377
 20
-392.1147922648
  0
VERTEX
  8
0
 62
7
  6
CONTINUOUS
 10
-85.985618954
 20
-392.384655605
  0
SEQEND
  0
LINE
  8
0
 62
7
  6
CONTINUOUS
 10
-85.724607958
 20
-392.0259805629
 11
-85.7318016458
 21
-392.0356964808
  0
LINE
  8
0
 62
7
  6
CONTINUOUS
 10
454.275392042
 20
259.9740194371
 11
-85.724607958
 21
259.9740194371
  0
LINE
  8
0
 62
7
  6
CONTINUOUS
 10
-85.7317993866
 20
695.9837342837
 11
-85.724607958
 21
695.9740194371
  0
LINE
  8
0
 62
7
  6
CONTINUOUS
 10
-85.9055507666
 20
696.2219987759
 11
-85.7317993866
 21
695.9837342837
  0
LINE
  8
0
 62
7
  6
CONTINUOUS
 10
454.8665037634
 20
238.7948009137
 11
454.631277879
 21
238.4644763208
  0
LINE
  8
0
 62
7
  6
CONTINUOUS
 10
454.631277879
 20
238.4644763208
 11
454.4563348505
 21
238.2219987759
  0
LINE
  8
0
 62
7
  6
CONTINUOUS
 10
454.4563348505
 20
238.2219987759
 11
454.2825834705
 21
237.9837342837
  0
LINE
  8
0
 62
7
  6
CONTINUOUS
 10
454.2825834705
 20
237.9837342837
 11
454.275392042
 21
237.9740194371
  0
LINE
  8
0
 62
7
  6
CONTINUOUS
 10
454.275392042
 20
65.9740194371
 11
454.2825857297
 21
65.9643035192
  0
LINE
  8
0
 62
7
  6
CONTINUOUS
 10
454.2825857297
 20
65.9643035192
 11
454.4564231136
 21
65.7259187251
  0
LINE
  8
0
 62
7
  6
CONTINUOUS
 10
454.4564231136
 20
65.7259187251
 11
454.6314174882
 21
65.4833707598
  0
POLYLINE
  8
0
 62
7
  6
CONTINUOUS
 66
1
 70
0
  0
VERTEX
  8
0
 62
7
  6
CONTINUOUS
 10
454.6314174882
 20
65.4833707598
  0
VERTEX
  8
0
 62
7
  6
CONTINUOUS
 10
454.8667248645
 20
65.1529213867
  0
VERTEX
  8
0
 62
7
  6
CONTINUOUS
 10
455.0070336555
 20
64.9533005257
  0
VERTEX
  8
0
 62
7
  6
CONTINUOUS
 10
455.1623359004
 20
64.7299818143
  0
VERTEX
  8
0
 62
7
  6
CONTINUOUS
 10
455.3323300698
 20
64.4823829744
  0
VERTEX
  8
0
 62
7
  6
CONTINUOUS
 10
455.5168611111
 20
64.2096373552
  0
VERTEX
  8
0
 62
7
  6
CONTINUOUS
 10
455.7148637195
 20
63.9120241576
  0
VERTEX
  8
0
 62
7
  6
CONTINUOUS
 10
455.9254458285
 20
63.5891041287
  0
VERTEX
  8
0
 62
7
  6
CONTINUOUS
 10
456.1467117106
 20
63.2421659793
  0
VERTEX
  8
0
 62
7
  6
CONTINUOUS
 10
456.3766666437
 20
62.8718768976
  0
VERTEX
  8
0
 62
7
  6
CONTINUOUS
 10
456.6130591899
 20
62.479662198
  0
VERTEX
  8
0
 62
7
  6
CONTINUOUS
 10
456.8534832477
 20
62.0664551545
  0
VERTEX
  8
0
 62
7
  6
CONTINUOUS
 10
457.0950530918
 20
61.6343990765
  0
VERTEX
  8
0
 62
7
  6
CONTINUOUS
 10
457.3353521208
 20
61.1835549484
  0
VERTEX
  8
0
 62
7
  6
CONTINUOUS
 10
457.569454672
 20
60.7211030201
  0
VERTEX
  8
0
 62
7
  6
CONTINUOUS
 10
457.7918745714
 20
60.2529388497
  0
VERTEX
  8
0
 62
7
  6
CONTINUOUS
 10
458.00037197
 20
59.7829774971
  0
VERTEX
  8
0
 62
7
  6
CONTINUOUS
 10
458.1911104522
 20
59.3168671899
  0
VERTEX
  8
0
 62
7
  6
CONTINUOUS
 10
458.3637299448
 20
58.8553039824
  0
VERTEX
  8
0
 62
7
  6
CONTINUOUS
 10
458.516982204
 20
58.4009221343
  0
VERTEX
  8
0
 62
7
  6
CONTINUOUS
 10
458.651003415
 20
57.953555256
  0
VERTEX
  8
0
 62
7
  6
CONTINUOUS
 10
458.7657341418
 20
57.5147402558
  0
VERTEX
  8
0
 62
7
  6
CONTINUOUS
 10
458.8617669105
 20
57.0820015003
  0
VERTEX
  8
0
 62
7
  6
CONTINUOUS
 10
458.9400390643
 20
56.6533959134
  0
VERTEX
  8
0
 62
7
  6
CONTINUOUS
 10
459.0004403781
 20
56.2288627321
  0
VERTEX
  8
0
 62
7
  6
CONTINUOUS
 10
459.0433552944
 20
55.8079882184
  0
VERTEX
  8
0
 62
7
  6
CONTINUOUS
 10
459.0688771203
 20
55.3898882211
  0
VERTEX
  8
0
 62
7
  6
CONTINUOUS
 10
459.0774687244
 20
54.9743913944
  0
VERTEX
  8
0
 62
7
  6
CONTINUOUS
 10
459.0689094792
 20
54.5589455837
  0
VERTEX
  8
0
 62
7
  6
CONTINUOUS
 10
459.0434451312
 20
54.1410603791
  0
VERTEX
  8
0
 62
7
  6
CONTINUOUS
 10
459.0005872339
 20
53.7203792004
  0
VERTEX
  8
0
 62
7
  6
CONTINUOUS
 10
458.9402268802
 20
53.2958133894
  0
VERTEX
  8
0
 62
7
  6
CONTINUOUS
 10
458.8619756423
 20
52.8670687703
  0
VERTEX
  8
0
 62
7
  6
CONTINUOUS
 10
458.7659250645
 20
52.4341067208
  0
VERTEX
  8
0
 62
7
  6
CONTINUOUS
 10
458.651168386
 20
51.995071923
  0
VERTEX
  8
0
 62
7
  6
CONTINUOUS
 10
458.5171294877
 20
51.5475844122
  0
VERTEX
  8
0
 62
7
  6
CONTINUOUS
 10
458.3638880866
 20
51.0931795065
  0
VERTEX
  8
0
 62
7
  6
CONTINUOUS
 10
458.19132968
 20
50.6317305201
  0
VERTEX
  8
0
 62
7
  6
CONTINUOUS
 10
458.0007055349
 20
50.165843501
  0
VERTEX
  8
0
 62
7
  6
CONTINUOUS
 10
457.7924316068
 20
49.69628577
  0
VERTEX
  8
0
 62
7
  6
CONTINUOUS
 10
457.5701964147
 20
49.2284468223
  0
VERTEX
  8
0
 62
7
  6
CONTINUOUS
 10
457.33611367
 20
48.7659528442
  0
VERTEX
  8
0
 62
7
  6
CONTINUOUS
 10
457.0957208645
 20
48.3148610825
  0
VERTEX
  8
0
 62
7
  6
CONTINUOUS
 10
456.8539211849
 20
47.8823648537
  0
VERTEX
  8
0
 62
7
  6
CONTINUOUS
 10
456.6132402491
 20
47.4686821344
  0
VERTEX
  8
0
 62
7
  6
CONTINUOUS
 10
456.3766532804
 20
47.0761401707
  0
VERTEX
  8
0
 62
7
  6
CONTINUOUS
 10
456.1465426617
 20
46.7056044711
  0
VERTEX
  8
0
 62
7
  6
CONTINUOUS
 10
455.925160832
 20
46.3584940089
  0
VERTEX
  8
0
 62
7
  6
CONTINUOUS
 10
455.7145083954
 20
46.0354756365
  0
VERTEX
  8
0
 62
7
  6
CONTINUOUS
 10
455.5164904628
 20
45.7378472423
  0
VERTEX
  8
0
 62
7
  6
CONTINUOUS
 10
455.331974631
 20
45.465134692
  0
VERTEX
  8
0
 62
7
  6
CONTINUOUS
 10
455.1620087366
 20
45.2175839053
  0
VERTEX
  8
0
 62
7
  6
CONTINUOUS
 10
455.006749878
 20
44.9943326082
  0
VERTEX
  8
0
 62
7
  6
CONTINUOUS
 10
454.8665037634
 20
44.7948009137
  0
SEQEND
  0
LINE
  8
0
 62
7
  6
CONTINUOUS
 10
454.8665026465
 20
141.794799331
 11
454.6312772202
 21
141.4644754035
  0
LINE
  8
0
 62
7
  6
CONTINUOUS
 10
454.6312772202
 20
141.4644754035
 11
454.4563345084
 21
141.2219983055
  0
LINE
  8
0
 62
7
  6
CONTINUOUS
 10
454.4563345084
 20
141.2219983055
 11
454.2825834546
 21
140.9837342597
  0
LINE
  8
0
 62
7
  6
CONTINUOUS
 10
454.2825834546
 20
140.9837342597
 11
454.275392042
 21
140.9740194371
  0
LINE
  8
0
 62
7
  6
CONTINUOUS
 10
454.275392042
 20
162.9740194371
 11
454.2825857181
 21
162.9643035321
  0
LINE
  8
0
 62
7
  6
CONTINUOUS
 10
454.2825857181
 20
162.9643035321
 11
454.456422761
 21
162.7259192117
  0
LINE
  8
0
 62
7
  6
CONTINUOUS
 10
454.456422761
 20
162.7259192117
 11
454.6314167727
 21
162.4833717577
  0
POLYLINE
  8
0
 62
7
  6
CONTINUOUS
 66
1
 70
0
  0
VERTEX
  8
0
 62
7
  6
CONTINUOUS
 10
454.6314167727
 20
162.4833717577
  0
VERTEX
  8
0
 62
7
  6
CONTINUOUS
 10
454.8667236908
 20
162.1529230461
  0
VERTEX
  8
0
 62
7
  6
CONTINUOUS
 10
455.0070322243
 20
161.9533025719
  0
VERTEX
  8
0
 62
7
  6
CONTINUOUS
 10
455.1623341984
 20
161.7299842671
  0
VERTEX
  8
0
 62
7
  6
CONTINUOUS
 10
455.3323280287
 20
161.4823859675
  0
VERTEX
  8
0
 62
7
  6
CONTINUOUS
 10
455.5168585598
 20
161.2096411643
  0
VERTEX
  8
0
 62
7
  6
CONTINUOUS
 10
455.71486056
 20
160.9120289512
  0
VERTEX
  8
0
 62
7
  6
CONTINUOUS
 10
455.925441992
 20
160.5891100922
  0
VERTEX
  8
0
 62
7
  6
CONTINUOUS
 10
456.1467072464
 20
160.2421730678
  0
VERTEX
  8
0
 62
7
  6
CONTINUOUS
 10
456.3766617466
 20
159.8718849129
  0
VERTEX
  8
0
 62
7
  6
CONTINUOUS
 10
456.6130541337
 20
159.4796707282
  0
VERTEX
  8
0
 62
7
  6
CONTINUOUS
 10
456.8534785429
 20
159.0664633586
  0
VERTEX
  8
0
 62
7
  6
CONTINUOUS
 10
457.0950489741
 20
158.6344066068
  0
VERTEX
  8
0
 62
7
  6
CONTINUOUS
 10
457.3353488052
 20
158.1835611506
  0
VERTEX
  8
0
 62
7
  6
CONTINUOUS
 10
457.5694516331
 20
157.7211092097
  0
VERTEX
  8
0
 62
7
  6
CONTINUOUS
 10
457.7918700326
 20
157.2529488595
  0
VERTEX
  8
0
 62
7
  6
CONTINUOUS
 10
458.0003652682
 20
156.7829932101
  0
VERTEX
  8
0
 62
7
  6
CONTINUOUS
 10
458.1911011012
 20
156.3168919063
  0
VERTEX
  8
0
 62
7
  6
CONTINUOUS
 10
458.3637194743
 20
155.8553334186
  0
VERTEX
  8
0
 62
7
  6
CONTINUOUS
 10
458.5169773458
 20
155.4009331492
  0
VERTEX
  8
0
 62
7
  6
CONTINUOUS
 10
458.6510020991
 20
154.9535599481
  0
VERTEX
  8
0
 62
7
  6
CONTINUOUS
 10
458.765726433
 20
154.5147610303
  0
VERTEX
  8
0
 62
7
  6
CONTINUOUS
 10
458.8617435898
 20
154.0821167037
  0
VERTEX
  8
0
 62
7
  6
CONTINUOUS
 10
458.9399804538
 20
153.6537761319
  0
VERTEX
  8
0
 62
7
  6
CONTINUOUS
 10
459.0003527606
 20
153.2295799624
  0
VERTEX
  8
0
 62
7
  6
CONTINUOUS
 10
459.0432715444
 20
152.8090849857
  0
VERTEX
  8
0
 62
7
  6
CONTINUOUS
 10
459.068819829
 20
152.3912919362
  0
VERTEX
  8
0
 62
7
  6
CONTINUOUS
 10
459.0774688379
 20
151.9758911901
  0
VERTEX
  8
0
 62
7
  6
CONTINUOUS
 10
459.0689673325
 20
151.5603706124
  0
VERTEX
  8
0
 62
7
  6
CONTINUOUS
 10
459.0435309257
 20
151.1421856669
  0
VERTEX
  8
0
 62
7
  6
CONTINUOUS
 10
459.0006780729
 20
150.721123932
  0
VERTEX
  8
0
 62
7
  6
CONTINUOUS
 10
458.9402881326
 20
150.2962115151
  0
VERTEX
  8
0
 62
7
  6
CONTINUOUS
 10
458.8619998248
 20
149.8671882935
  0
VERTEX
  8
0
 62
7
  6
CONTINUOUS
 10
458.7659301905
 20
149.4341176383
  0
VERTEX
  8
0
 62
7
  6
CONTINUOUS
 10
458.6511636903
 20
148.995055176
  0
VERTEX
  8
0
 62
7
  6
CONTINUOUS
 10
458.5171267065
 20
148.5475710054
  0
VERTEX
  8
0
 62
7
  6
CONTINUOUS
 10
458.3638900691
 20
148.0931850805
  0
VERTEX
  8
0
 62
7
  6
CONTINUOUS
 10
458.1913301266
 20
147.631732394
  0
VERTEX
  8
0
 62
7
  6
CONTINUOUS
 10
458.0007031582
 20
147.1658379279
  0
VERTEX
  8
0
 62
7
  6
CONTINUOUS
 10
457.7924267901
 20
146.6962754458
  0
VERTEX
  8
0
 62
7
  6
CONTINUOUS
 10
457.5701899222
 20
146.2284335954
  0
VERTEX
  8
0
 62
7
  6
CONTINUOUS
 10
457.3361074465
 20
145.7659407085
  0
VERTEX
  8
0
 62
7
  6
CONTINUOUS
 10
457.0957156234
 20
145.3148514966
  0
VERTEX
  8
0
 62
7
  6
CONTINUOUS
 10
456.8539169591
 20
144.8823574069
  0
VERTEX
  8
0
 62
7
  6
CONTINUOUS
 10
456.6132369477
 20
144.4686765648
  0
VERTEX
  8
0
 62
7
  6
CONTINUOUS
 10
456.3766504698
 20
144.0761355962
  0
VERTEX
  8
0
 62
7
  6
CONTINUOUS
 10
456.1465401275
 20
143.7056004472
  0
VERTEX
  8
0
 62
7
  6
CONTINUOUS
 10
455.9251584115
 20
143.3584902754
  0
VERTEX
  8
0
 62
7
  6
CONTINUOUS
 10
455.7145060465
 20
143.0354720728
  0
VERTEX
  8
0
 62
7
  6
CONTINUOUS
 10
455.5164882389
 20
142.7378439366
  0
VERTEX
  8
0
 62
7
  6
CONTINUOUS
 10
455.3319725968
 20
142.465131709
  0
VERTEX
  8
0
 62
7
  6
CONTINUOUS
 10
455.1620070101
 20
142.2175813989
  0
VERTEX
  8
0
 62
7
  6
CONTINUOUS
 10
455.0067484764
 20
141.9943306043
  0
VERTEX
  8
0
 62
7
  6
CONTINUOUS
 10
454.8665026465
 20
141.794799331
  0
SEQEND
  0
LINE
  8
0
 62
7
  6
CONTINUOUS
 10
454.275392042
 20
761.9740194371
 11
454.275392042
 21
717.9740194371
  0
LINE
  8
0
 62
7
  6
CONTINUOUS
 10
454.275392042
 20
695.9740194371
 11
454.275392042
 21
620.9740194371
  0
LINE
  8
0
 62
7
  6
CONTINUOUS
 10
454.275392042
 20
598.9740194371
 11
454.275392042
 21
523.9740194371
  0
LINE
  8
0
 62
7
  6
CONTINUOUS
 10
454.275392042
 20
501.9740194371
 11
454.275392042
 21
426.9740194371
  0
LINE
  8
0
 62
7
  6
CONTINUOUS
 10
454.275392042
 20
404.9740194371
 11
454.275392042
 21
259.9740194371
  0
LINE
  8
0
 62
7
  6
CONTINUOUS
 10
454.275392042
 20
237.9740194371
 11
454.275392042
 21
162.9740194371
  0
LINE
  8
0
 62
7
  6
CONTINUOUS
 10
454.275392042
 20
140.9740194371
 11
454.275392042
 21
65.9740194371
  0
LINE
  8
0
 62
7
  6
CONTINUOUS
 10
454.275392042
 20
43.9740194371
 11
454.275392042
 21
-101.0259805629
  0
LINE
  8
0
 62
7
  6
CONTINUOUS
 10
454.275392042
 20
-123.0259805629
 11
454.275392042
 21
-198.0259805629
  0
LINE
  8
0
 62
7
  6
CONTINUOUS
 10
454.275392042
 20
-220.0259805629
 11
454.275392042
 21
-295.0259805629
  0
LINE
  8
0
 62
7
  6
CONTINUOUS
 10
454.275392042
 20
-317.0259805629
 11
454.275392042
 21
-392.0259805629
  0
LINE
  8
0
 62
7
  6
CONTINUOUS
 10
454.275392042
 20
-414.0259805629
 11
454.275392042
 21
-458.0259805629
  0
LINE
  8
0
 62
7
  6
CONTINUOUS
 10
-85.724607958
 20
404.9740194371
 11
454.275392042
 21
404.9740194371
  0
LINE
  8
0
 62
7
  6
CONTINUOUS
 10
454.275392042
 20
426.9740194371
 11
-85.724607958
 21
426.9740194371
  0
LINE
  8
0
 62
7
  6
CONTINUOUS
 10
484.275392042
 20
761.9740194371
 11
484.275392042
 21
-458.0259805629
  0
LINE
  8
0
 62
7
  6
CONTINUOUS
 10
454.8665037634
 20
44.7948009137
 11
454.631277879
 21
44.4644763208
  0
LINE
  8
0
 62
7
  6
CONTINUOUS
 10
454.631277879
 20
44.4644763208
 11
454.4563348505
 21
44.2219987759
  0
LINE
  8
0
 62
7
  6
CONTINUOUS
 10
454.4563348505
 20
44.2219987759
 11
454.2825834705
 21
43.9837342837
  0
LINE
  8
0
 62
7
  6
CONTINUOUS
 10
454.2825834705
 20
43.9837342837
 11
454.275392042
 21
43.9740194371
  0
LINE
  8
0
 62
7
  6
CONTINUOUS
 10
454.275392042
 20
259.9740194371
 11
454.2825857297
 21
259.9643035192
  0
LINE
  8
0
 62
7
  6
CONTINUOUS
 10
454.2825857297
 20
259.9643035192
 11
454.4564231136
 21
259.7259187251
  0
LINE
  8
0
 62
7
  6
CONTINUOUS
 10
454.4564231136
 20
259.7259187251
 11
454.6314174882
 21
259.4833707598
  0
POLYLINE
  8
0
 62
7
  6
CONTINUOUS
 66
1
 70
0
  0
VERTEX
  8
0
 62
7
  6
CONTINUOUS
 10
454.6314174882
 20
259.4833707598
  0
VERTEX
  8
0
 62
7
  6
CONTINUOUS
 10
454.8667248645
 20
259.1529213867
  0
VERTEX
  8
0
 62
7
  6
CONTINUOUS
 10
455.0070336555
 20
258.9533005257
  0
VERTEX
  8
0
 62
7
  6
CONTINUOUS
 10
455.1623359004
 20
258.7299818143
  0
VERTEX
  8
0
 62
7
  6
CONTINUOUS
 10
455.3323300698
 20
258.4823829744
  0
VERTEX
  8
0
 62
7
  6
CONTINUOUS
 10
455.5168611111
 20
258.2096373552
  0
VERTEX
  8
0
 62
7
  6
CONTINUOUS
 10
455.7148637195
 20
257.9120241576
  0
VERTEX
  8
0
 62
7
  6
CONTINUOUS
 10
455.9254458285
 20
257.5891041287
  0
VERTEX
  8
0
 62
7
  6
CONTINUOUS
 10
456.1467117106
 20
257.2421659793
  0
VERTEX
  8
0
 62
7
  6
CONTINUOUS
 10
456.3766666437
 20
256.8718768976
  0
VERTEX
  8
0
 62
7
  6
CONTINUOUS
 10
456.6130591899
 20
256.479662198
  0
VERTEX
  8
0
 62
7
  6
CONTINUOUS
 10
456.8534832477
 20
256.0664551545
  0
VERTEX
  8
0
 62
7
  6
CONTINUOUS
 10
457.0950530918
 20
255.6343990765
  0
VERTEX
  8
0
 62
7
  6
CONTINUOUS
 10
457.3353521208
 20
255.1835549484
  0
VERTEX
  8
0
 62
7
  6
CONTINUOUS
 10
457.569454672
 20
254.7211030201
  0
VERTEX
  8
0
 62
7
  6
CONTINUOUS
 10
457.7918745714
 20
254.2529388497
  0
VERTEX
  8
0
 62
7
  6
CONTINUOUS
 10
458.00037197
 20
253.7829774971
  0
VERTEX
  8
0
 62
7
  6
CONTINUOUS
 10
458.1911104522
 20
253.3168671899
  0
VERTEX
  8
0
 62
7
  6
CONTINUOUS
 10
458.3637299448
 20
252.8553039824
  0
VERTEX
  8
0
 62
7
  6
CONTINUOUS
 10
458.516982204
 20
252.4009221343
  0
VERTEX
  8
0
 62
7
  6
CONTINUOUS
 10
458.651003415
 20
251.953555256
  0
VERTEX
  8
0
 62
7
  6
CONTINUOUS
 10
458.7657341418
 20
251.5147402558
  0
VERTEX
  8
0
 62
7
  6
CONTINUOUS
 10
458.8617669105
 20
251.0820015003
  0
VERTEX
  8
0
 62
7
  6
CONTINUOUS
 10
458.9400390643
 20
250.6533959134
  0
VERTEX
  8
0
 62
7
  6
CONTINUOUS
 10
459.0004403781
 20
250.2288627321
  0
VERTEX
  8
0
 62
7
  6
CONTINUOUS
 10
459.0433552944
 20
249.8079882184
  0
VERTEX
  8
0
 62
7
  6
CONTINUOUS
 10
459.0688771203
 20
249.3898882211
  0
VERTEX
  8
0
 62
7
  6
CONTINUOUS
 10
459.0774687244
 20
248.9743913944
  0
VERTEX
  8
0
 62
7
  6
CONTINUOUS
 10
459.0689094792
 20
248.5589455837
  0
VERTEX
  8
0
 62
7
  6
CONTINUOUS
 10
459.0434451312
 20
248.1410603791
  0
VERTEX
  8
0
 62
7
  6
CONTINUOUS
 10
459.0005872339
 20
247.7203792004
  0
VERTEX
  8
0
 62
7
  6
CONTINUOUS
 10
458.9402268802
 20
247.2958133894
  0
VERTEX
  8
0
 62
7
  6
CONTINUOUS
 10
458.8619756423
 20
246.8670687703
  0
VERTEX
  8
0
 62
7
  6
CONTINUOUS
 10
458.7659250645
 20
246.4341067208
  0
VERTEX
  8
0
 62
7
  6
CONTINUOUS
 10
458.651168386
 20
245.995071923
  0
VERTEX
  8
0
 62
7
  6
CONTINUOUS
 10
458.5171294877
 20
245.5475844122
  0
VERTEX
  8
0
 62
7
  6
CONTINUOUS
 10
458.3638880866
 20
245.0931795065
  0
VERTEX
  8
0
 62
7
  6
CONTINUOUS
 10
458.19132968
 20
244.6317305201
  0
VERTEX
  8
0
 62
7
  6
CONTINUOUS
 10
458.0007055349
 20
244.165843501
  0
VERTEX
  8
0
 62
7
  6
CONTINUOUS
 10
457.7924316068
 20
243.69628577
  0
VERTEX
  8
0
 62
7
  6
CONTINUOUS
 10
457.5701964147
 20
243.2284468223
  0
VERTEX
  8
0
 62
7
  6
CONTINUOUS
 10
457.33611367
 20
242.7659528442
  0
VERTEX
  8
0
 62
7
  6
CONTINUOUS
 10
457.0957208645
 20
242.3148610825
  0
VERTEX
  8
0
 62
7
  6
CONTINUOUS
 10
456.8539211849
 20
241.8823648537
  0
VERTEX
  8
0
 62
7
  6
CONTINUOUS
 10
456.6132402491
 20
241.4686821344
  0
VERTEX
  8
0
 62
7
  6
CONTINUOUS
 10
456.3766532804
 20
241.0761401707
  0
VERTEX
  8
0
 62
7
  6
CONTINUOUS
 10
456.1465426617
 20
240.7056044711
  0
VERTEX
  8
0
 62
7
  6
CONTINUOUS
 10
455.925160832
 20
240.3584940089
  0
VERTEX
  8
0
 62
7
  6
CONTINUOUS
 10
455.7145083954
 20
240.0354756365
  0
VERTEX
  8
0
 62
7
  6
CONTINUOUS
 10
455.5164904628
 20
239.7378472423
  0
VERTEX
  8
0
 62
7
  6
CONTINUOUS
 10
455.331974631
 20
239.465134692
  0
VERTEX
  8
0
 62
7
  6
CONTINUOUS
 10
455.1620087366
 20
239.2175839053
  0
VERTEX
  8
0
 62
7
  6
CONTINUOUS
 10
455.006749878
 20
238.9943326082
  0
VERTEX
  8
0
 62
7
  6
CONTINUOUS
 10
454.8665037634
 20
238.7948009137
  0
SEQEND
  0
LINE
  8
0
 62
7
  6
CONTINUOUS
 10
-85.724607958
 20
501.9740194371
 11
454.275392042
 21
501.9740194371
  0
LINE
  8
0
 62
7
  6
CONTINUOUS
 10
454.8665037634
 20
-122.2051990863
 11
454.631277879
 21
-122.5355236792
  0
LINE
  8
0
 62
7
  6
CONTINUOUS
 10
454.631277879
 20
-122.5355236792
 11
454.4563348505
 21
-122.7780012241
  0
LINE
  8
0
 62
7
  6
CONTINUOUS
 10
454.4563348505
 20
-122.7780012241
 11
454.2825834705
 21
-123.0162657163
  0
LINE
  8
0
 62
7
  6
CONTINUOUS
 10
454.2825834705
 20
-123.0162657163
 11
454.275392042
 21
-123.0259805629
  0
LINE
  8
0
 62
7
  6
CONTINUOUS
 10
454.275392042
 20
523.9740194371
 11
-85.724607958
 21
523.9740194371
  0
LINE
  8
0
 62
7
  6
CONTINUOUS
 10
454.275392042
 20
426.9740194371
 11
454.2825857297
 21
426.9643035192
  0
LINE
  8
0
 62
7
  6
CONTINUOUS
 10
454.2825857297
 20
426.9643035192
 11
454.4564231136
 21
426.7259187251
  0
LINE
  8
0
 62
7
  6
CONTINUOUS
 10
454.4564231136
 20
426.7259187251
 11
454.6314174882
 21
426.4833707598
  0
POLYLINE
  8
0
 62
7
  6
CONTINUOUS
 66
1
 70
0
  0
VERTEX
  8
0
 62
7
  6
CONTINUOUS
 10
454.6314174882
 20
426.4833707598
  0
VERTEX
  8
0
 62
7
  6
CONTINUOUS
 10
454.8667248645
 20
426.1529213867
  0
VERTEX
  8
0
 62
7
  6
CONTINUOUS
 10
455.0070336555
 20
425.9533005257
  0
VERTEX
  8
0
 62
7
  6
CONTINUOUS
 10
455.1623359004
 20
425.7299818143
  0
VERTEX
  8
0
 62
7
  6
CONTINUOUS
 10
455.3323300698
 20
425.4823829744
  0
VERTEX
  8
0
 62
7
  6
CONTINUOUS
 10
455.5168611111
 20
425.2096373552
  0
VERTEX
  8
0
 62
7
  6
CONTINUOUS
 10
455.7148637195
 20
424.9120241576
  0
VERTEX
  8
0
 62
7
  6
CONTINUOUS
 10
455.9254458285
 20
424.5891041287
  0
VERTEX
  8
0
 62
7
  6
CONTINUOUS
 10
456.1467117106
 20
424.2421659793
  0
VERTEX
  8
0
 62
7
  6
CONTINUOUS
 10
456.3766666437
 20
423.8718768976
  0
VERTEX
  8
0
 62
7
  6
CONTINUOUS
 10
456.6130591899
 20
423.479662198
  0
VERTEX
  8
0
 62
7
  6
CONTINUOUS
 10
456.8534832477
 20
423.0664551545
  0
VERTEX
  8
0
 62
7
  6
CONTINUOUS
 10
457.0950530918
 20
422.6343990765
  0
VERTEX
  8
0
 62
7
  6
CONTINUOUS
 10
457.3353521208
 20
422.1835549484
  0
VERTEX
  8
0
 62
7
  6
CONTINUOUS
 10
457.569454672
 20
421.7211030201
  0
VERTEX
  8
0
 62
7
  6
CONTINUOUS
 10
457.7918745714
 20
421.2529388497
  0
VERTEX
  8
0
 62
7
  6
CONTINUOUS
 10
458.00037197
 20
420.7829774971
  0
VERTEX
  8
0
 62
7
  6
CONTINUOUS
 10
458.1911104522
 20
420.3168671899
  0
VERTEX
  8
0
 62
7
  6
CONTINUOUS
 10
458.3637299448
 20
419.8553039824
  0
VERTEX
  8
0
 62
7
  6
CONTINUOUS
 10
458.516982204
 20
419.4009221343
  0
VERTEX
  8
0
 62
7
  6
CONTINUOUS
 10
458.651003415
 20
418.953555256
  0
VERTEX
  8
0
 62
7
  6
CONTINUOUS
 10
458.7657341418
 20
418.5147402558
  0
VERTEX
  8
0
 62
7
  6
CONTINUOUS
 10
458.8617669105
 20
418.0820015003
  0
VERTEX
  8
0
 62
7
  6
CONTINUOUS
 10
458.9400390643
 20
417.6533959134
  0
VERTEX
  8
0
 62
7
  6
CONTINUOUS
 10
459.0004403781
 20
417.2288627321
  0
VERTEX
  8
0
 62
7
  6
CONTINUOUS
 10
459.0433552944
 20
416.8079882184
  0
VERTEX
  8
0
 62
7
  6
CONTINUOUS
 10
459.0688771203
 20
416.3898882211
  0
VERTEX
  8
0
 62
7
  6
CONTINUOUS
 10
459.0774687244
 20
415.9743913944
  0
VERTEX
  8
0
 62
7
  6
CONTINUOUS
 10
459.0689094792
 20
415.5589455837
  0
VERTEX
  8
0
 62
7
  6
CONTINUOUS
 10
459.0434451312
 20
415.1410603791
  0
VERTEX
  8
0
 62
7
  6
CONTINUOUS
 10
459.0005872339
 20
414.7203792004
  0
VERTEX
  8
0
 62
7
  6
CONTINUOUS
 10
458.9402268802
 20
414.2958133894
  0
VERTEX
  8
0
 62
7
  6
CONTINUOUS
 10
458.8619756423
 20
413.8670687703
  0
VERTEX
  8
0
 62
7
  6
CONTINUOUS
 10
458.7659250645
 20
413.4341067208
  0
VERTEX
  8
0
 62
7
  6
CONTINUOUS
 10
458.651168386
 20
412.995071923
  0
VERTEX
  8
0
 62
7
  6
CONTINUOUS
 10
458.5171294877
 20
412.5475844122
  0
VERTEX
  8
0
 62
7
  6
CONTINUOUS
 10
458.3638880866
 20
412.0931795065
  0
VERTEX
  8
0
 62
7
  6
CONTINUOUS
 10
458.19132968
 20
411.6317305201
  0
VERTEX
  8
0
 62
7
  6
CONTINUOUS
 10
458.0007055349
 20
411.165843501
  0
VERTEX
  8
0
 62
7
  6
CONTINUOUS
 10
457.7924316068
 20
410.69628577
  0
VERTEX
  8
0
 62
7
  6
CONTINUOUS
 10
457.5701964147
 20
410.2284468223
  0
VERTEX
  8
0
 62
7
  6
CONTINUOUS
 10
457.33611367
 20
409.7659528442
  0
VERTEX
  8
0
 62
7
  6
CONTINUOUS
 10
457.0957208645
 20
409.3148610825
  0
VERTEX
  8
0
 62
7
  6
CONTINUOUS
 10
456.8539211849
 20
408.8823648537
  0
VERTEX
  8
0
 62
7
  6
CONTINUOUS
 10
456.6132402491
 20
408.4686821344
  0
VERTEX
  8
0
 62
7
  6
CONTINUOUS
 10
456.3766532804
 20
408.0761401707
  0
VERTEX
  8
0
 62
7
  6
CONTINUOUS
 10
456.1465426617
 20
407.7056044711
  0
VERTEX
  8
0
 62
7
  6
CONTINUOUS
 10
455.925160832
 20
407.3584940089
  0
VERTEX
  8
0
 62
7
  6
CONTINUOUS
 10
455.7145083954
 20
407.0354756365
  0
VERTEX
  8
0
 62
7
  6
CONTINUOUS
 10
455.5164904628
 20
406.7378472423
  0
VERTEX
  8
0
 62
7
  6
CONTINUOUS
 10
455.331974631
 20
406.465134692
  0
VERTEX
  8
0
 62
7
  6
CONTINUOUS
 10
455.1620087366
 20
406.2175839053
  0
VERTEX
  8
0
 62
7
  6
CONTINUOUS
 10
455.006749878
 20
405.9943326082
  0
VERTEX
  8
0
 62
7
  6
CONTINUOUS
 10
454.8665037634
 20
405.7948009137
  0
SEQEND
  0
LINE
  8
0
 62
7
  6
CONTINUOUS
 10
454.8665037634
 20
-219.2051990863
 11
454.631277879
 21
-219.5355236792
  0
LINE
  8
0
 62
7
  6
CONTINUOUS
 10
454.631277879
 20
-219.5355236792
 11
454.4563348505
 21
-219.7780012241
  0
LINE
  8
0
 62
7
  6
CONTINUOUS
 10
454.4563348505
 20
-219.7780012241
 11
454.2825834705
 21
-220.0162657163
  0
LINE
  8
0
 62
7
  6
CONTINUOUS
 10
454.2825834705
 20
-220.0162657163
 11
454.275392042
 21
-220.0259805629
  0
LINE
  8
0
 62
7
  6
CONTINUOUS
 10
-85.724607958
 20
598.9740194371
 11
454.275392042
 21
598.9740194371
  0
LINE
  8
0
 62
7
  6
CONTINUOUS
 10
454.275392042
 20
523.9740194371
 11
454.2825857297
 21
523.9643035192
  0
LINE
  8
0
 62
7
  6
CONTINUOUS
 10
454.2825857297
 20
523.9643035192
 11
454.4564231136
 21
523.7259187251
  0
LINE
  8
0
 62
7
  6
CONTINUOUS
 10
454.4564231136
 20
523.7259187251
 11
454.6314174882
 21
523.4833707598
  0
POLYLINE
  8
0
 62
7
  6
CONTINUOUS
 66
1
 70
0
  0
VERTEX
  8
0
 62
7
  6
CONTINUOUS
 10
454.6314174882
 20
523.4833707598
  0
VERTEX
  8
0
 62
7
  6
CONTINUOUS
 10
454.8667248645
 20
523.1529213867
  0
VERTEX
  8
0
 62
7
  6
CONTINUOUS
 10
455.0070336555
 20
522.9533005257
  0
VERTEX
  8
0
 62
7
  6
CONTINUOUS
 10
455.1623359004
 20
522.7299818143
  0
VERTEX
  8
0
 62
7
  6
CONTINUOUS
 10
455.3323300698
 20
522.4823829744
  0
VERTEX
  8
0
 62
7
  6
CONTINUOUS
 10
455.5168611111
 20
522.2096373552
  0
VERTEX
  8
0
 62
7
  6
CONTINUOUS
 10
455.7148637195
 20
521.9120241576
  0
VERTEX
  8
0
 62
7
  6
CONTINUOUS
 10
455.9254458285
 20
521.5891041287
  0
VERTEX
  8
0
 62
7
  6
CONTINUOUS
 10
456.1467117106
 20
521.2421659793
  0
VERTEX
  8
0
 62
7
  6
CONTINUOUS
 10
456.3766666437
 20
520.8718768976
  0
VERTEX
  8
0
 62
7
  6
CONTINUOUS
 10
456.6130591899
 20
520.479662198
  0
VERTEX
  8
0
 62
7
  6
CONTINUOUS
 10
456.8534832477
 20
520.0664551545
  0
VERTEX
  8
0
 62
7
  6
CONTINUOUS
 10
457.0950530918
 20
519.6343990765
  0
VERTEX
  8
0
 62
7
  6
CONTINUOUS
 10
457.3353521208
 20
519.1835549484
  0
VERTEX
  8
0
 62
7
  6
CONTINUOUS
 10
457.569454672
 20
518.7211030201
  0
VERTEX
  8
0
 62
7
  6
CONTINUOUS
 10
457.7918745714
 20
518.2529388497
  0
VERTEX
  8
0
 62
7
  6
CONTINUOUS
 10
458.00037197
 20
517.7829774971
  0
VERTEX
  8
0
 62
7
  6
CONTINUOUS
 10
458.1911104522
 20
517.3168671899
  0
VERTEX
  8
0
 62
7
  6
CONTINUOUS
 10
458.3637299448
 20
516.8553039824
  0
VERTEX
  8
0
 62
7
  6
CONTINUOUS
 10
458.516982204
 20
516.4009221343
  0
VERTEX
  8
0
 62
7
  6
CONTINUOUS
 10
458.651003415
 20
515.953555256
  0
VERTEX
  8
0
 62
7
  6
CONTINUOUS
 10
458.7657341418
 20
515.5147402558
  0
VERTEX
  8
0
 62
7
  6
CONTINUOUS
 10
458.8617669105
 20
515.0820015003
  0
VERTEX
  8
0
 62
7
  6
CONTINUOUS
 10
458.9400390643
 20
514.6533959134
  0
VERTEX
  8
0
 62
7
  6
CONTINUOUS
 10
459.0004403781
 20
514.2288627321
  0
VERTEX
  8
0
 62
7
  6
CONTINUOUS
 10
459.0433552944
 20
513.8079882184
  0
VERTEX
  8
0
 62
7
  6
CONTINUOUS
 10
459.0688771203
 20
513.3898882211
  0
VERTEX
  8
0
 62
7
  6
CONTINUOUS
 10
459.0774687244
 20
512.9743913944
  0
VERTEX
  8
0
 62
7
  6
CONTINUOUS
 10
459.0689094792
 20
512.5589455837
  0
VERTEX
  8
0
 62
7
  6
CONTINUOUS
 10
459.0434451312
 20
512.1410603791
  0
VERTEX
  8
0
 62
7
  6
CONTINUOUS
 10
459.0005872339
 20
511.7203792004
  0
VERTEX
  8
0
 62
7
  6
CONTINUOUS
 10
458.9402268802
 20
511.2958133894
  0
VERTEX
  8
0
 62
7
  6
CONTINUOUS
 10
458.8619756423
 20
510.8670687703
  0
VERTEX
  8
0
 62
7
  6
CONTINUOUS
 10
458.7659250645
 20
510.4341067208
  0
VERTEX
  8
0
 62
7
  6
CONTINUOUS
 10
458.651168386
 20
509.995071923
  0
VERTEX
  8
0
 62
7
  6
CONTINUOUS
 10
458.5171294877
 20
509.5475844122
  0
VERTEX
  8
0
 62
7
  6
CONTINUOUS
 10
458.3638880866
 20
509.0931795065
  0
VERTEX
  8
0
 62
7
  6
CONTINUOUS
 10
458.19132968
 20
508.6317305201
  0
VERTEX
  8
0
 62
7
  6
CONTINUOUS
 10
458.0007055349
 20
508.165843501
  0
VERTEX
  8
0
 62
7
  6
CONTINUOUS
 10
457.7924316068
 20
507.69628577
  0
VERTEX
  8
0
 62
7
  6
CONTINUOUS
 10
457.5701964147
 20
507.2284468223
  0
VERTEX
  8
0
 62
7
  6
CONTINUOUS
 10
457.33611367
 20
506.7659528442
  0
VERTEX
  8
0
 62
7
  6
CONTINUOUS
 10
457.0957208645
 20
506.3148610825
  0
VERTEX
  8
0
 62
7
  6
CONTINUOUS
 10
456.8539211849
 20
505.8823648537
  0
VERTEX
  8
0
 62
7
  6
CONTINUOUS
 10
456.6132402491
 20
505.4686821344
  0
VERTEX
  8
0
 62
7
  6
CONTINUOUS
 10
456.3766532804
 20
505.0761401707
  0
VERTEX
  8
0
 62
7
  6
CONTINUOUS
 10
456.1465426617
 20
504.7056044711
  0
VERTEX
  8
0
 62
7
  6
CONTINUOUS
 10
455.925160832
 20
504.3584940089
  0
VERTEX
  8
0
 62
7
  6
CONTINUOUS
 10
455.7145083954
 20
504.0354756365
  0
VERTEX
  8
0
 62
7
  6
CONTINUOUS
 10
455.5164904628
 20
503.7378472423
  0
VERTEX
  8
0
 62
7
  6
CONTINUOUS
 10
455.331974631
 20
503.465134692
  0
VERTEX
  8
0
 62
7
  6
CONTINUOUS
 10
455.1620087366
 20
503.2175839053
  0
VERTEX
  8
0
 62
7
  6
CONTINUOUS
 10
455.006749878
 20
502.9943326082
  0
VERTEX
  8
0
 62
7
  6
CONTINUOUS
 10
454.8665037634
 20
502.7948009137
  0
SEQEND
  0
LINE
  8
0
 62
7
  6
CONTINUOUS
 10
454.8665037634
 20
-316.2051990863
 11
454.631277879
 21
-316.5355236792
  0
LINE
  8
0
 62
7
  6
CONTINUOUS
 10
454.631277879
 20
-316.5355236792
 11
454.4563348505
 21
-316.7780012241
  0
LINE
  8
0
 62
7
  6
CONTINUOUS
 10
454.4563348505
 20
-316.7780012241
 11
454.2825834705
 21
-317.0162657163
  0
LINE
  8
0
 62
7
  6
CONTINUOUS
 10
454.2825834705
 20
-317.0162657163
 11
454.275392042
 21
-317.0259805629
  0
LINE
  8
0
 62
7
  6
CONTINUOUS
 10
454.275392042
 20
620.9740194371
 11
-85.724607958
 21
620.9740194371
  0
LINE
  8
0
 62
7
  6
CONTINUOUS
 10
454.275392042
 20
620.9740194371
 11
454.2825857297
 21
620.9643035192
  0
LINE
  8
0
 62
7
  6
CONTINUOUS
 10
454.2825857297
 20
620.9643035192
 11
454.4564231136
 21
620.7259187251
  0
LINE
  8
0
 62
7
  6
CONTINUOUS
 10
454.4564231136
 20
620.7259187251
 11
454.6314174882
 21
620.4833707598
  0
POLYLINE
  8
0
 62
7
  6
CONTINUOUS
 66
1
 70
0
  0
VERTEX
  8
0
 62
7
  6
CONTINUOUS
 10
454.6314174882
 20
620.4833707598
  0
VERTEX
  8
0
 62
7
  6
CONTINUOUS
 10
454.8667248645
 20
620.1529213867
  0
VERTEX
  8
0
 62
7
  6
CONTINUOUS
 10
455.0070336555
 20
619.9533005257
  0
VERTEX
  8
0
 62
7
  6
CONTINUOUS
 10
455.1623359004
 20
619.7299818143
  0
VERTEX
  8
0
 62
7
  6
CONTINUOUS
 10
455.3323300698
 20
619.4823829744
  0
VERTEX
  8
0
 62
7
  6
CONTINUOUS
 10
455.5168611111
 20
619.2096373552
  0
VERTEX
  8
0
 62
7
  6
CONTINUOUS
 10
455.7148637195
 20
618.9120241576
  0
VERTEX
  8
0
 62
7
  6
CONTINUOUS
 10
455.9254458285
 20
618.5891041287
  0
VERTEX
  8
0
 62
7
  6
CONTINUOUS
 10
456.1467117106
 20
618.2421659793
  0
VERTEX
  8
0
 62
7
  6
CONTINUOUS
 10
456.3766666437
 20
617.8718768976
  0
VERTEX
  8
0
 62
7
  6
CONTINUOUS
 10
456.6130591899
 20
617.479662198
  0
VERTEX
  8
0
 62
7
  6
CONTINUOUS
 10
456.8534832477
 20
617.0664551545
  0
VERTEX
  8
0
 62
7
  6
CONTINUOUS
 10
457.0950530918
 20
616.6343990765
  0
VERTEX
  8
0
 62
7
  6
CONTINUOUS
 10
457.3353521208
 20
616.1835549484
  0
VERTEX
  8
0
 62
7
  6
CONTINUOUS
 10
457.569454672
 20
615.7211030201
  0
VERTEX
  8
0
 62
7
  6
CONTINUOUS
 10
457.7918745714
 20
615.2529388497
  0
VERTEX
  8
0
 62
7
  6
CONTINUOUS
 10
458.00037197
 20
614.7829774971
  0
VERTEX
  8
0
 62
7
  6
CONTINUOUS
 10
458.1911104522
 20
614.3168671899
  0
VERTEX
  8
0
 62
7
  6
CONTINUOUS
 10
458.3637299448
 20
613.8553039824
  0
VERTEX
  8
0
 62
7
  6
CONTINUOUS
 10
458.516982204
 20
613.4009221343
  0
VERTEX
  8
0
 62
7
  6
CONTINUOUS
 10
458.651003415
 20
612.953555256
  0
VERTEX
  8
0
 62
7
  6
CONTINUOUS
 10
458.7657341418
 20
612.5147402558
  0
VERTEX
  8
0
 62
7
  6
CONTINUOUS
 10
458.8617669105
 20
612.0820015003
  0
VERTEX
  8
0
 62
7
  6
CONTINUOUS
 10
458.9400390643
 20
611.6533959134
  0
VERTEX
  8
0
 62
7
  6
CONTINUOUS
 10
459.0004403781
 20
611.2288627321
  0
VERTEX
  8
0
 62
7
  6
CONTINUOUS
 10
459.0433552944
 20
610.8079882184
  0
VERTEX
  8
0
 62
7
  6
CONTINUOUS
 10
459.0688771203
 20
610.3898882211
  0
VERTEX
  8
0
 62
7
  6
CONTINUOUS
 10
459.0774687244
 20
609.9743913944
  0
VERTEX
  8
0
 62
7
  6
CONTINUOUS
 10
459.0689094792
 20
609.5589455837
  0
VERTEX
  8
0
 62
7
  6
CONTINUOUS
 10
459.0434451312
 20
609.1410603791
  0
VERTEX
  8
0
 62
7
  6
CONTINUOUS
 10
459.0005872339
 20
608.7203792004
  0
VERTEX
  8
0
 62
7
  6
CONTINUOUS
 10
458.9402268802
 20
608.2958133894
  0
VERTEX
  8
0
 62
7
  6
CONTINUOUS
 10
458.8619756423
 20
607.8670687703
  0
VERTEX
  8
0
 62
7
  6
CONTINUOUS
 10
458.7659250645
 20
607.4341067208
  0
VERTEX
  8
0
 62
7
  6
CONTINUOUS
 10
458.651168386
 20
606.995071923
  0
VERTEX
  8
0
 62
7
  6
CONTINUOUS
 10
458.5171294877
 20
606.5475844122
  0
VERTEX
  8
0
 62
7
  6
CONTINUOUS
 10
458.3638880866
 20
606.0931795065
  0
VERTEX
  8
0
 62
7
  6
CONTINUOUS
 10
458.19132968
 20
605.6317305201
  0
VERTEX
  8
0
 62
7
  6
CONTINUOUS
 10
458.0007055349
 20
605.165843501
  0
VERTEX
  8
0
 62
7
  6
CONTINUOUS
 10
457.7924316068
 20
604.69628577
  0
VERTEX
  8
0
 62
7
  6
CONTINUOUS
 10
457.5701964147
 20
604.2284468223
  0
VERTEX
  8
0
 62
7
  6
CONTINUOUS
 10
457.33611367
 20
603.7659528442
  0
VERTEX
  8
0
 62
7
  6
CONTINUOUS
 10
457.0957208645
 20
603.3148610825
  0
VERTEX
  8
0
 62
7
  6
CONTINUOUS
 10
456.8539211849
 20
602.8823648537
  0
VERTEX
  8
0
 62
7
  6
CONTINUOUS
 10
456.6132402491
 20
602.4686821344
  0
VERTEX
  8
0
 62
7
  6
CONTINUOUS
 10
456.3766532804
 20
602.0761401707
  0
VERTEX
  8
0
 62
7
  6
CONTINUOUS
 10
456.1465426617
 20
601.7056044711
  0
VERTEX
  8
0
 62
7
  6
CONTINUOUS
 10
455.925160832
 20
601.3584940089
  0
VERTEX
  8
0
 62
7
  6
CONTINUOUS
 10
455.7145083954
 20
601.0354756365
  0
VERTEX
  8
0
 62
7
  6
CONTINUOUS
 10
455.5164904628
 20
600.7378472423
  0
VERTEX
  8
0
 62
7
  6
CONTINUOUS
 10
455.331974631
 20
600.465134692
  0
VERTEX
  8
0
 62
7
  6
CONTINUOUS
 10
455.1620087366
 20
600.2175839053
  0
VERTEX
  8
0
 62
7
  6
CONTINUOUS
 10
455.006749878
 20
599.9943326082
  0
VERTEX
  8
0
 62
7
  6
CONTINUOUS
 10
454.8665037634
 20
599.7948009137
  0
VERTEX
  8
0
 62
7
  6
CONTINUOUS
 10
454.7413247807
 20
599.6183875803
  0
SEQEND
  0
POLYLINE
  8
0
 62
7
  6
CONTINUOUS
 66
1
 70
0
  0
VERTEX
  8
0
 62
7
  6
CONTINUOUS
 10
454.8665037634
 20
-413.2051990863
  0
VERTEX
  8
0
 62
7
  6
CONTINUOUS
 10
454.631277879
 20
-413.5355236792
  0
VERTEX
  8
0
 62
7
  6
CONTINUOUS
 10
454.536286008
 20
-413.6674676151
  0
SEQEND
  0
LINE
  8
0
 62
7
  6
CONTINUOUS
 10
-85.724607958
 20
695.9740194371
 11
454.275392042
 21
695.9740194371
  0
POLYLINE
  8
0
 62
7
  6
CONTINUOUS
 66
1
 70
0
  0
VERTEX
  8
0
 62
7
  6
CONTINUOUS
 10
454.5364030379
 20
717.615344395
  0
VERTEX
  8
0
 62
7
  6
CONTINUOUS
 10
454.7414907798
 20
717.3294183139
  0
VERTEX
  8
0
 62
7
  6
CONTINUOUS
 10
454.8667248645
 20
717.1529213867
  0
VERTEX
  8
0
 62
7
  6
CONTINUOUS
 10
455.0070336555
 20
716.9533005257
  0
VERTEX
  8
0
 62
7
  6
CONTINUOUS
 10
455.1623359004
 20
716.7299818143
  0
VERTEX
  8
0
 62
7
  6
CONTINUOUS
 10
455.3323300698
 20
716.4823829744
  0
VERTEX
  8
0
 62
7
  6
CONTINUOUS
 10
455.5168611111
 20
716.2096373552
  0
VERTEX
  8
0
 62
7
  6
CONTINUOUS
 10
455.7148637195
 20
715.9120241576
  0
VERTEX
  8
0
 62
7
  6
CONTINUOUS
 10
455.9254458285
 20
715.5891041287
  0
VERTEX
  8
0
 62
7
  6
CONTINUOUS
 10
456.1467117106
 20
715.2421659793
  0
VERTEX
  8
0
 62
7
  6
CONTINUOUS
 10
456.3766666437
 20
714.8718768976
  0
VERTEX
  8
0
 62
7
  6
CONTINUOUS
 10
456.6130591899
 20
714.479662198
  0
VERTEX
  8
0
 62
7
  6
CONTINUOUS
 10
456.8534832477
 20
714.0664551545
  0
VERTEX
  8
0
 62
7
  6
CONTINUOUS
 10
457.0950530918
 20
713.6343990765
  0
VERTEX
  8
0
 62
7
  6
CONTINUOUS
 10
457.3353521208
 20
713.1835549484
  0
VERTEX
  8
0
 62
7
  6
CONTINUOUS
 10
457.569454672
 20
712.7211030201
  0
VERTEX
  8
0
 62
7
  6
CONTINUOUS
 10
457.7918745714
 20
712.2529388497
  0
VERTEX
  8
0
 62
7
  6
CONTINUOUS
 10
458.00037197
 20
711.7829774971
  0
VERTEX
  8
0
 62
7
  6
CONTINUOUS
 10
458.1911104522
 20
711.3168671899
  0
VERTEX
  8
0
 62
7
  6
CONTINUOUS
 10
458.3637299448
 20
710.8553039824
  0
VERTEX
  8
0
 62
7
  6
CONTINUOUS
 10
458.516982204
 20
710.4009221343
  0
VERTEX
  8
0
 62
7
  6
CONTINUOUS
 10
458.651003415
 20
709.953555256
  0
VERTEX
  8
0
 62
7
  6
CONTINUOUS
 10
458.7657341418
 20
709.5147402558
  0
VERTEX
  8
0
 62
7
  6
CONTINUOUS
 10
458.8617669105
 20
709.0820015003
  0
VERTEX
  8
0
 62
7
  6
CONTINUOUS
 10
458.9400390643
 20
708.6533959134
  0
VERTEX
  8
0
 62
7
  6
CONTINUOUS
 10
459.0004403781
 20
708.2288627321
  0
VERTEX
  8
0
 62
7
  6
CONTINUOUS
 10
459.0433552944
 20
707.8079882184
  0
VERTEX
  8
0
 62
7
  6
CONTINUOUS
 10
459.0688771203
 20
707.3898882211
  0
VERTEX
  8
0
 62
7
  6
CONTINUOUS
 10
459.0774687244
 20
706.9743913944
  0
VERTEX
  8
0
 62
7
  6
CONTINUOUS
 10
459.0689094792
 20
706.5589455837
  0
VERTEX
  8
0
 62
7
  6
CONTINUOUS
 10
459.0434451312
 20
706.1410603791
  0
VERTEX
  8
0
 62
7
  6
CONTINUOUS
 10
459.0005872339
 20
705.7203792004
  0
VERTEX
  8
0
 62
7
  6
CONTINUOUS
 10
458.9402268802
 20
705.2958133894
  0
VERTEX
  8
0
 62
7
  6
CONTINUOUS
 10
458.8619756423
 20
704.8670687703
  0
VERTEX
  8
0
 62
7
  6
CONTINUOUS
 10
458.7659250645
 20
704.4341067208
  0
VERTEX
  8
0
 62
7
  6
CONTINUOUS
 10
458.651168386
 20
703.995071923
  0
VERTEX
  8
0
 62
7
  6
CONTINUOUS
 10
458.5171294877
 20
703.5475844122
  0
VERTEX
  8
0
 62
7
  6
CONTINUOUS
 10
458.3638880866
 20
703.0931795065
  0
VERTEX
  8
0
 62
7
  6
CONTINUOUS
 10
458.19132968
 20
702.6317305201
  0
VERTEX
  8
0
 62
7
  6
CONTINUOUS
 10
458.0007055349
 20
702.165843501
  0
VERTEX
  8
0
 62
7
  6
CONTINUOUS
 10
457.7924316068
 20
701.69628577
  0
VERTEX
  8
0
 62
7
  6
CONTINUOUS
 10
457.5701964147
 20
701.2284468223
  0
VERTEX
  8
0
 62
7
  6
CONTINUOUS
 10
457.33611367
 20
700.7659528442
  0
VERTEX
  8
0
 62
7
  6
CONTINUOUS
 10
457.0957208645
 20
700.3148610825
  0
VERTEX
  8
0
 62
7
  6
CONTINUOUS
 10
456.8539211849
 20
699.8823648537
  0
VERTEX
  8
0
 62
7
  6
CONTINUOUS
 10
456.6132402491
 20
699.4686821344
  0
VERTEX
  8
0
 62
7
  6
CONTINUOUS
 10
456.3766532804
 20
699.0761401707
  0
VERTEX
  8
0
 62
7
  6
CONTINUOUS
 10
456.1465426617
 20
698.7056044711
  0
VERTEX
  8
0
 62
7
  6
CONTINUOUS
 10
455.925160832
 20
698.3584940089
  0
VERTEX
  8
0
 62
7
  6
CONTINUOUS
 10
455.7145083954
 20
698.0354756365
  0
VERTEX
  8
0
 62
7
  6
CONTINUOUS
 10
455.5164904628
 20
697.7378472423
  0
VERTEX
  8
0
 62
7
  6
CONTINUOUS
 10
455.331974631
 20
697.465134692
  0
VERTEX
  8
0
 62
7
  6
CONTINUOUS
 10
455.1620087366
 20
697.2175839053
  0
VERTEX
  8
0
 62
7
  6
CONTINUOUS
 10
455.006749878
 20
696.9943326082
  0
VERTEX
  8
0
 62
7
  6
CONTINUOUS
 10
454.8665037634
 20
696.7948009137
  0
SEQEND
  0
POLYLINE
  8
0
 62
7
  6
CONTINUOUS
 66
1
 70
0
  0
VERTEX
  8
0
 62
7
  6
CONTINUOUS
 10
454.536286008
 20
-413.6674676151
  0
VERTEX
  8
0
 62
7
  6
CONTINUOUS
 10
454.3403709121
 20
-413.9372128408
  0
VERTEX
  8
0
 62
7
  6
CONTINUOUS
 10
454.2825834705
 20
-414.0162657163
  0
SEQEND
  0
LINE
  8
0
 62
7
  6
CONTINUOUS
 10
454.2825834705
 20
-414.0162657163
 11
454.275392042
 21
-414.0259805629
  0
LINE
  8
0
 62
7
  6
CONTINUOUS
 10
454.275392042
 20
717.9740194371
 11
-85.724607958
 21
717.9740194371
  0
LINE
  8
0
 62
7
  6
CONTINUOUS
 10
454.275392042
 20
717.9740194371
 11
454.2825857297
 21
717.9643035192
  0
POLYLINE
  8
0
 62
7
  6
CONTINUOUS
 66
1
 70
0
  0
VERTEX
  8
0
 62
7
  6
CONTINUOUS
 10
454.2825857297
 20
717.9643035192
  0
VERTEX
  8
0
 62
7
  6
CONTINUOUS
 10
454.4564231136
 20
717.7259187251
  0
VERTEX
  8
0
 62
7
  6
CONTINUOUS
 10
454.5364030379
 20
717.615344395
  0
SEQEND
  0
LINE
  8
0
 62
7
  6
CONTINUOUS
 10
-85.724607958
 20
761.9740194371
 11
-115.724607958
 21
761.9740194371
  0
LINE
  8
0
 62
7
  6
CONTINUOUS
 10
454.275392042
 20
761.9740194371
 11
484.275392042
 21
761.9740194371
  0
ENDSEC
  0
EOF
