999
DXF file: K:\Client\125_Heirloom\001\00\Final_Data\Drawings\LADDER TOWEL WARMERS\wg1220n_2.dxf
999
Pro/ENGINEER 2017110 by Parametric Technology Corporation
  0
SECTION
  2
HEADER
  9
$EXTMAX
 10
420.0
 20
297.0
 30
0.0
  9
$EXTMIN
 10
0.0
 20
0.0
 30
0.0
  9
$LIMMIN
 10
0.0
 20
0.0
  9
$LIMMAX
 10
420.0
 20
297.0
  9
$VIEWCTR
 10
210.0
 20
148.5
  9
$VIEWSIZE
 40
297.0
  9
$CLAYER
  8
0
  9
$LTSCALE
 40
23.1
  9
$CELTYPE
  6
BYLAYER
  9
$DIMSCALE
 40
1.0
  9
$DIMASZ
 40
3.0
  9
$DIMEXO
 40
1.0
  9
$DIMDLI
 40
15.96
  9
$DIMEXE
 40
1.0
  9
$DIMCEN
 40
3.78
  9
$DIMLFAC
 40
1.0
  9
$DIMBLK
  1
_FILLED
  9
$DIMALT
 70
0
  9
$DIMALTF
 40
0.0393700787
  9
$DIMTXT
 40
3.0
  9
$AUNITS
 70
0
  9
$PDMODE
 70
3
  9
$PDSIZE
 40
5.0
  9
$TILEMODE
 70
1
  0
ENDSEC
  0
SECTION
  2
TABLES
  0
TABLE
  2
LTYPE
 70
6
  0
LTYPE
  2
BYBLOCK
 70
0
  3

 72
65
 73
0
 40
0.0
  0
LTYPE
  2
BYLAYER
 70
0
  3

 72
65
 73
0
 40
0.0
  0
LTYPE
  2
CONTINUOUS
 70
64
  3
Solid line
 72
65
 73
0
 40
0.0
  0
LTYPE
  2
CENTER
 70
64
  3
____ _ ____ _ ____ _ ____ _ ____ _ ____ _ ____
 72
65
 73
4
 40
0.6
 49
0.375
 49
-0.075
 49
0.075
 49
-0.075
  0
LTYPE
  2
HIDDEN
 70
64
  3
- - - - - - - - - - - - - - - - - - - -
 72
65
 73
2
 40
0.2
 49
0.1
 49
-0.1
  0
LTYPE
  2
PHANTOM
 70
64
  3
_____ _ _ _____ _ _ _____ _ _ _____
 72
65
 73
6
 40
0.8
 49
0.45
 49
-0.05
 49
0.1
 49
-0.05
 49
0.1
 49
-0.05
  0
LTYPE
  2
DOT
 70
64
  3
. . . . . . . . . . . . . . . . . . . .
 72
65
 73
2
 40
0.2
 49
0.1
 49
-0.1
  0
LTYPE
  2
DASHED
 70
64
  3
- - - - - - - - - - - - - - - - - - - -
 72
65
 73
2
 40
0.2
 49
0.1
 49
-0.1
  0
ENDTAB
  0
TABLE
  2
LAYER
 70
36
  0
LAYER
  2
0
 70
0
 62
7
  6
CONTINUOUS
  0
LAYER
  2
DEFAULT_1
 70
0
 62
7
  6
CENTER
  0
LAYER
  2
DEFAULT_2
 70
0
 62
8
  6
HIDDEN
  0
LAYER
  2
DEFAULT_3
 70
0
 62
7
  6
PHANTOM
  0
LAYER
  2
0000_BOM
 70
0
 62
7
  6
CONTINUOUS
  0
LAYER
  2
0000_REV_TABLE
 70
0
 62
7
  6
CONTINUOUS
  0
LAYER
  2
0000_STEVENS_NOTE
 70
0
 62
7
  6
CONTINUOUS
  0
LAYER
  2
01_DATUM_PLANES
 70
0
 62
7
  6
CONTINUOUS
  0
LAYER
  2
01_DEF_PLANES
 70
0
 62
7
  6
CONTINUOUS
  0
LAYER
  2
02_DATUM_COS
 70
0
 62
7
  6
CONTINUOUS
  0
LAYER
  2
99_SOLID
 70
0
 62
7
  6
CONTINUOUS
  0
LAYER
  2
CAD-MASTER_ZINC-PL
 70
0
 62
7
  6
CONTINUOUS
  0
LAYER
  2
CURVE
 70
0
 62
7
  6
CONTINUOUS
  0
LAYER
  2
SKEL
 70
0
 62
7
  6
CONTINUOUS
  0
LAYER
  2
SKETCH
 70
0
 62
7
  6
CONTINUOUS
  0
LAYER
  2
SURFACE
 70
0
 62
7
  6
CONTINUOUS
  0
ENDTAB
  0
TABLE
  2
STYLE
 70
1
  0
STYLE
  2
STANDARD
 70
0
 40
0.0
 41
0.75
 50
0.0
 71
0
 42
0.2
  3
txt
  4

  0
STYLE
  2
TEXTSTYLE_1
 70
0
 40
0.0
 41
0.8
 50
0.0
 71
0
 42
0.2
  3
gdt
  4

  0
ENDTAB
  0
ENDSEC
  0
SECTION
  2
BLOCKS
  0
ENDSEC
  0
SECTION
  2
ENTITIES
  0
LINE
  8
0
 62
7
  6
CONTINUOUS
 10
117.1988608721
 20
-457.4191740561
 11
147.1988031625
 21
-457.4191740561
  0
LINE
  8
0
 62
7
  6
CONTINUOUS
 10
147.1988320173
 20
-369.9191740561
 11
239.1988320173
 21
-369.9191740561
  0
LINE
  8
0
 62
7
  6
CONTINUOUS
 10
147.1988320173
 20
-344.9191740561
 11
239.1988320173
 21
-344.9191740561
  0
LINE
  8
0
 62
7
  6
CONTINUOUS
 10
145.7433523412
 20
673.2908171487
 11
146.1675231435
 21
673.8225128172
  0
LINE
  8
0
 62
7
  6
CONTINUOUS
 10
146.1675231435
 20
673.8225128172
 11
146.5148804984
 21
674.2513215153
  0
LINE
  8
0
 62
7
  6
CONTINUOUS
 10
146.5148804984
 20
674.2513215153
 11
146.8985415408
 21
674.7188430832
  0
LINE
  8
0
 62
7
  6
CONTINUOUS
 10
146.8985415408
 20
674.7188430832
 11
147.1906436612
 21
675.0711426408
  0
LINE
  8
0
 62
7
  6
CONTINUOUS
 10
147.1906436612
 20
675.0711426408
 11
147.1988320173
 21
675.0808259439
  0
LINE
  8
0
 62
7
  6
CONTINUOUS
 10
147.1988320173
 20
-369.9191740561
 11
147.19064599
 21
-369.9095011486
  0
LINE
  8
0
 62
7
  6
CONTINUOUS
 10
147.19064599
 20
-369.9095011486
 11
146.7883519451
 21
-369.4235335753
  0
LINE
  8
0
 62
7
  6
CONTINUOUS
 10
146.7883519451
 20
-369.4235335753
 11
146.5145742746
 21
-369.089292352
  0
LINE
  8
0
 62
7
  6
CONTINUOUS
 10
146.5145742746
 20
-369.089292352
 11
146.1671555085
 21
-368.6604070361
  0
POLYLINE
  8
0
 62
7
  6
CONTINUOUS
 66
1
 70
0
  0
VERTEX
  8
0
 62
7
  6
CONTINUOUS
 10
146.1671555085
 20
-368.6604070361
  0
VERTEX
  8
0
 62
7
  6
CONTINUOUS
 10
145.7429896073
 20
-368.1287056974
  0
VERTEX
  8
0
 62
7
  6
CONTINUOUS
 10
145.5018490952
 20
-367.8220709302
  0
VERTEX
  8
0
 62
7
  6
CONTINUOUS
 10
145.2417625189
 20
-367.4873151151
  0
VERTEX
  8
0
 62
7
  6
CONTINUOUS
 10
144.9639337918
 20
-367.1247303674
  0
VERTEX
  8
0
 62
7
  6
CONTINUOUS
 10
144.6696036124
 20
-366.7342358634
  0
VERTEX
  8
0
 62
7
  6
CONTINUOUS
 10
144.3604760364
 20
-366.3161165222
  0
VERTEX
  8
0
 62
7
  6
CONTINUOUS
 10
144.0376951153
 20
-365.8693869081
  0
VERTEX
  8
0
 62
7
  6
CONTINUOUS
 10
143.7057042738
 20
-365.3977772626
  0
VERTEX
  8
0
 62
7
  6
CONTINUOUS
 10
143.3683488333
 20
-364.9027286127
  0
VERTEX
  8
0
 62
7
  6
CONTINUOUS
 10
143.0313816479
 20
-364.3901231665
  0
VERTEX
  8
0
 62
7
  6
CONTINUOUS
 10
142.7007885425
 20
-363.8639335228
  0
VERTEX
  8
0
 62
7
  6
CONTINUOUS
 10
142.3823276069
 20
-363.3313295363
  0
VERTEX
  8
0
 62
7
  6
CONTINUOUS
 10
142.0827089491
 20
-362.7980942013
  0
VERTEX
  8
0
 62
7
  6
CONTINUOUS
 10
141.8062989354
 20
-362.2723606981
  0
VERTEX
  8
0
 62
7
  6
CONTINUOUS
 10
141.5602173728
 20
-361.7649211923
  0
VERTEX
  8
0
 62
7
  6
CONTINUOUS
 10
141.3424887507
 20
-361.2735817222
  0
VERTEX
  8
0
 62
7
  6
CONTINUOUS
 10
141.1532903807
 20
-360.8006966956
  0
VERTEX
  8
0
 62
7
  6
CONTINUOUS
 10
140.9909406605
 20
-360.3434131698
  0
VERTEX
  8
0
 62
7
  6
CONTINUOUS
 10
140.8535921634
 20
-359.9006892125
  0
VERTEX
  8
0
 62
7
  6
CONTINUOUS
 10
140.740120905
 20
-359.4694461995
  0
VERTEX
  8
0
 62
7
  6
CONTINUOUS
 10
140.6484996625
 20
-359.0464346016
  0
VERTEX
  8
0
 62
7
  6
CONTINUOUS
 10
140.5784994081
 20
-358.6311252019
  0
VERTEX
  8
0
 62
7
  6
CONTINUOUS
 10
140.5291261746
 20
-358.2225716894
  0
VERTEX
  8
0
 62
7
  6
CONTINUOUS
 10
140.5000175693
 20
-357.8187758177
  0
VERTEX
  8
0
 62
7
  6
CONTINUOUS
 10
140.4902076704
 20
-357.4186151695
  0
VERTEX
  8
0
 62
7
  6
CONTINUOUS
 10
140.5000684867
 20
-357.0185159474
  0
VERTEX
  8
0
 62
7
  6
CONTINUOUS
 10
140.5291957613
 20
-356.6149645657
  0
VERTEX
  8
0
 62
7
  6
CONTINUOUS
 10
140.5785811337
 20
-356.2066579723
  0
VERTEX
  8
0
 62
7
  6
CONTINUOUS
 10
140.648598287
 20
-355.791408134
  0
VERTEX
  8
0
 62
7
  6
CONTINUOUS
 10
140.7402518655
 20
-355.3683564088
  0
VERTEX
  8
0
 62
7
  6
CONTINUOUS
 10
140.8537972697
 20
-354.9369628677
  0
VERTEX
  8
0
 62
7
  6
CONTINUOUS
 10
140.9912239393
 20
-354.4940833378
  0
VERTEX
  8
0
 62
7
  6
CONTINUOUS
 10
141.1536126029
 20
-354.0367857403
  0
VERTEX
  8
0
 62
7
  6
CONTINUOUS
 10
141.3428565882
 20
-353.563893865
  0
VERTEX
  8
0
 62
7
  6
CONTINUOUS
 10
141.5606414359
 20
-353.0724994547
  0
VERTEX
  8
0
 62
7
  6
CONTINUOUS
 10
141.8068651746
 20
-352.564866572
  0
VERTEX
  8
0
 62
7
  6
CONTINUOUS
 10
142.083643503
 20
-352.0385673979
  0
VERTEX
  8
0
 62
7
  6
CONTINUOUS
 10
142.3836336053
 20
-351.5047693197
  0
VERTEX
  8
0
 62
7
  6
CONTINUOUS
 10
142.7023247165
 20
-350.9719182659
  0
VERTEX
  8
0
 62
7
  6
CONTINUOUS
 10
143.0329739775
 20
-350.4457507926
  0
VERTEX
  8
0
 62
7
  6
CONTINUOUS
 10
143.3697011578
 20
-349.9335842836
  0
VERTEX
  8
0
 62
7
  6
CONTINUOUS
 10
143.7067087927
 20
-349.4391221842
  0
VERTEX
  8
0
 62
7
  6
CONTINUOUS
 10
144.0383374283
 20
-348.9680495935
  0
VERTEX
  8
0
 62
7
  6
CONTINUOUS
 10
144.3608364469
 20
-348.5217389344
  0
VERTEX
  8
0
 62
7
  6
CONTINUOUS
 10
144.6699010683
 20
-348.1037227055
  0
VERTEX
  8
0
 62
7
  6
CONTINUOUS
 10
144.9642470201
 20
-347.7132057791
  0
VERTEX
  8
0
 62
7
  6
CONTINUOUS
 10
145.2420976133
 20
-347.3506013894
  0
VERTEX
  8
0
 62
7
  6
CONTINUOUS
 10
145.5022089982
 20
-347.0158169491
  0
VERTEX
  8
0
 62
7
  6
CONTINUOUS
 10
145.7433523412
 20
-346.7091828513
  0
SEQEND
  0
LINE
  8
0
 62
7
  6
CONTINUOUS
 10
117.1988320173
 20
-457.4191740561
 11
117.1988320173
 21
762.5808259439
  0
LINE
  8
0
 62
7
  6
CONTINUOUS
 10
147.1988320173
 20
-457.4191740561
 11
147.1988320173
 21
-369.9191740561
  0
LINE
  8
0
 62
7
  6
CONTINUOUS
 10
147.1988320173
 20
-344.9191740561
 11
147.1988320173
 21
650.0808259439
  0
LINE
  8
0
 62
7
  6
CONTINUOUS
 10
147.1988320173
 20
675.0808259439
 11
147.1988320173
 21
762.5808259439
  0
LINE
  8
0
 62
7
  6
CONTINUOUS
 10
239.1988320173
 20
-369.9191740561
 11
239.1988320173
 21
-344.9191740561
  0
LINE
  8
0
 62
7
  6
CONTINUOUS
 10
239.1988320173
 20
650.0808259439
 11
239.1988320173
 21
675.0808259439
  0
LINE
  8
0
 62
7
  6
CONTINUOUS
 10
145.7433523412
 20
-346.7091828513
 11
146.1675231435
 21
-346.1774871828
  0
POLYLINE
  8
0
 62
7
  6
CONTINUOUS
 66
1
 70
0
  0
VERTEX
  8
0
 62
7
  6
CONTINUOUS
 10
146.1675231435
 20
-346.1774871828
  0
VERTEX
  8
0
 62
7
  6
CONTINUOUS
 10
146.5148804984
 20
-345.7486784847
  0
VERTEX
  8
0
 62
7
  6
CONTINUOUS
 10
146.6607201422
 20
-345.5702834694
  0
SEQEND
  0
LINE
  8
0
 62
7
  6
CONTINUOUS
 10
146.6604758078
 20
650.7322335751
 11
146.3502718472
 21
651.1129033222
  0
POLYLINE
  8
0
 62
7
  6
CONTINUOUS
 66
1
 70
0
  0
VERTEX
  8
0
 62
7
  6
CONTINUOUS
 10
146.3502718472
 20
651.1129033222
  0
VERTEX
  8
0
 62
7
  6
CONTINUOUS
 10
145.9649304973
 20
651.5919466853
  0
VERTEX
  8
0
 62
7
  6
CONTINUOUS
 10
145.7429896073
 20
651.8712943026
  0
VERTEX
  8
0
 62
7
  6
CONTINUOUS
 10
145.5018490951
 20
652.1779290698
  0
VERTEX
  8
0
 62
7
  6
CONTINUOUS
 10
145.2417625189
 20
652.5126848849
  0
VERTEX
  8
0
 62
7
  6
CONTINUOUS
 10
144.9639337918
 20
652.8752696326
  0
VERTEX
  8
0
 62
7
  6
CONTINUOUS
 10
144.6696036124
 20
653.2657641366
  0
VERTEX
  8
0
 62
7
  6
CONTINUOUS
 10
144.3604760364
 20
653.6838834778
  0
VERTEX
  8
0
 62
7
  6
CONTINUOUS
 10
144.0376951153
 20
654.1306130919
  0
VERTEX
  8
0
 62
7
  6
CONTINUOUS
 10
143.7057042738
 20
654.6022227374
  0
VERTEX
  8
0
 62
7
  6
CONTINUOUS
 10
143.3683488333
 20
655.0972713873
  0
VERTEX
  8
0
 62
7
  6
CONTINUOUS
 10
143.0313816479
 20
655.6098768335
  0
VERTEX
  8
0
 62
7
  6
CONTINUOUS
 10
142.7007885425
 20
656.1360664772
  0
VERTEX
  8
0
 62
7
  6
CONTINUOUS
 10
142.3823276069
 20
656.6686704637
  0
VERTEX
  8
0
 62
7
  6
CONTINUOUS
 10
142.0827089491
 20
657.2019057987
  0
VERTEX
  8
0
 62
7
  6
CONTINUOUS
 10
141.8062989354
 20
657.7276393019
  0
VERTEX
  8
0
 62
7
  6
CONTINUOUS
 10
141.5602173728
 20
658.2350788077
  0
VERTEX
  8
0
 62
7
  6
CONTINUOUS
 10
141.3424887507
 20
658.7264182778
  0
VERTEX
  8
0
 62
7
  6
CONTINUOUS
 10
141.1532903807
 20
659.1993033044
  0
VERTEX
  8
0
 62
7
  6
CONTINUOUS
 10
140.9909406605
 20
659.6565868302
  0
VERTEX
  8
0
 62
7
  6
CONTINUOUS
 10
140.8535921634
 20
660.0993107875
  0
VERTEX
  8
0
 62
7
  6
CONTINUOUS
 10
140.740120905
 20
660.5305538005
  0
VERTEX
  8
0
 62
7
  6
CONTINUOUS
 10
140.6484996625
 20
660.9535653984
  0
VERTEX
  8
0
 62
7
  6
CONTINUOUS
 10
140.5784994081
 20
661.3688747981
  0
VERTEX
  8
0
 62
7
  6
CONTINUOUS
 10
140.5291261746
 20
661.7774283106
  0
VERTEX
  8
0
 62
7
  6
CONTINUOUS
 10
140.5000175693
 20
662.1812241823
  0
VERTEX
  8
0
 62
7
  6
CONTINUOUS
 10
140.4902076704
 20
662.5813848305
  0
VERTEX
  8
0
 62
7
  6
CONTINUOUS
 10
140.5000684867
 20
662.9814840526
  0
VERTEX
  8
0
 62
7
  6
CONTINUOUS
 10
140.5291957613
 20
663.3850354343
  0
VERTEX
  8
0
 62
7
  6
CONTINUOUS
 10
140.5785811337
 20
663.7933420277
  0
VERTEX
  8
0
 62
7
  6
CONTINUOUS
 10
140.648598287
 20
664.208591866
  0
VERTEX
  8
0
 62
7
  6
CONTINUOUS
 10
140.7402518655
 20
664.6316435912
  0
VERTEX
  8
0
 62
7
  6
CONTINUOUS
 10
140.8537972697
 20
665.0630371323
  0
VERTEX
  8
0
 62
7
  6
CONTINUOUS
 10
140.9912239393
 20
665.5059166622
  0
VERTEX
  8
0
 62
7
  6
CONTINUOUS
 10
141.1536126029
 20
665.9632142597
  0
VERTEX
  8
0
 62
7
  6
CONTINUOUS
 10
141.3428565882
 20
666.436106135
  0
VERTEX
  8
0
 62
7
  6
CONTINUOUS
 10
141.5606414359
 20
666.9275005453
  0
VERTEX
  8
0
 62
7
  6
CONTINUOUS
 10
141.8068651746
 20
667.435133428
  0
VERTEX
  8
0
 62
7
  6
CONTINUOUS
 10
142.083643503
 20
667.9614326021
  0
VERTEX
  8
0
 62
7
  6
CONTINUOUS
 10
142.3836336053
 20
668.4952306803
  0
VERTEX
  8
0
 62
7
  6
CONTINUOUS
 10
142.7023247165
 20
669.0280817341
  0
VERTEX
  8
0
 62
7
  6
CONTINUOUS
 10
143.0329739775
 20
669.5542492074
  0
VERTEX
  8
0
 62
7
  6
CONTINUOUS
 10
143.3697011578
 20
670.0664157164
  0
VERTEX
  8
0
 62
7
  6
CONTINUOUS
 10
143.7067087927
 20
670.5608778158
  0
VERTEX
  8
0
 62
7
  6
CONTINUOUS
 10
144.0383374283
 20
671.0319504065
  0
VERTEX
  8
0
 62
7
  6
CONTINUOUS
 10
144.3608364469
 20
671.4782610656
  0
VERTEX
  8
0
 62
7
  6
CONTINUOUS
 10
144.6699010683
 20
671.8962772945
  0
VERTEX
  8
0
 62
7
  6
CONTINUOUS
 10
144.9642470201
 20
672.2867942209
  0
VERTEX
  8
0
 62
7
  6
CONTINUOUS
 10
145.2420976133
 20
672.6493986106
  0
VERTEX
  8
0
 62
7
  6
CONTINUOUS
 10
145.5022089982
 20
672.9841830509
  0
VERTEX
  8
0
 62
7
  6
CONTINUOUS
 10
145.7433523412
 20
673.2908171487
  0
SEQEND
  0
LINE
  8
0
 62
7
  6
CONTINUOUS
 10
146.6607201422
 20
-345.5702834694
 11
146.9909573194
 21
-345.1693460248
  0
LINE
  8
0
 62
7
  6
CONTINUOUS
 10
146.9909573194
 20
-345.1693460248
 11
147.1906436612
 21
-344.9288573592
  0
LINE
  8
0
 62
7
  6
CONTINUOUS
 10
147.1906436612
 20
-344.9288573592
 11
147.1988320173
 21
-344.9191740561
  0
LINE
  8
0
 62
7
  6
CONTINUOUS
 10
147.1988320173
 20
650.0808259439
 11
147.19064599
 21
650.0904988514
  0
POLYLINE
  8
0
 62
7
  6
CONTINUOUS
 66
1
 70
0
  0
VERTEX
  8
0
 62
7
  6
CONTINUOUS
 10
147.19064599
 20
650.0904988514
  0
VERTEX
  8
0
 62
7
  6
CONTINUOUS
 10
146.7883519451
 20
650.5764664247
  0
VERTEX
  8
0
 62
7
  6
CONTINUOUS
 10
146.6604758078
 20
650.7322335751
  0
SEQEND
  0
LINE
  8
0
 62
7
  6
CONTINUOUS
 10
147.1988320173
 20
650.0808259439
 11
239.1988320173
 21
650.0808259439
  0
LINE
  8
0
 62
7
  6
CONTINUOUS
 10
147.1988320173
 20
675.0808259439
 11
239.1988320173
 21
675.0808259439
  0
LINE
  8
0
 62
7
  6
CONTINUOUS
 10
117.1988608721
 20
762.5808259439
 11
147.1988031625
 21
762.5808259439
  0
ENDSEC
  0
EOF
