999
DXF file: K:\Client\125_Heirloom\001\00\Final_Data\Drawings\LADDER TOWEL WARMERS\wg1220sn_1.dxf
999
Pro/ENGINEER 2017110 by Parametric Technology Corporation
  0
SECTION
  2
HEADER
  9
$EXTMAX
 10
420.0
 20
297.0
 30
0.0
  9
$EXTMIN
 10
0.0
 20
0.0
 30
0.0
  9
$LIMMIN
 10
0.0
 20
0.0
  9
$LIMMAX
 10
420.0
 20
297.0
  9
$VIEWCTR
 10
210.0
 20
148.5
  9
$VIEWSIZE
 40
297.0
  9
$CLAYER
  8
0
  9
$LTSCALE
 40
23.1
  9
$CELTYPE
  6
BYLAYER
  9
$DIMSCALE
 40
1.0
  9
$DIMASZ
 40
3.0
  9
$DIMEXO
 40
1.0
  9
$DIMDLI
 40
15.96
  9
$DIMEXE
 40
1.0
  9
$DIMCEN
 40
3.78
  9
$DIMLFAC
 40
1.0
  9
$DIMBLK
  1
_FILLED
  9
$DIMALT
 70
0
  9
$DIMALTF
 40
0.0393700787
  9
$DIMTXT
 40
3.0
  9
$AUNITS
 70
0
  9
$PDMODE
 70
3
  9
$PDSIZE
 40
5.0
  9
$TILEMODE
 70
1
  0
ENDSEC
  0
SECTION
  2
TABLES
  0
TABLE
  2
LTYPE
 70
6
  0
LTYPE
  2
BYBLOCK
 70
0
  3

 72
65
 73
0
 40
0.0
  0
LTYPE
  2
BYLAYER
 70
0
  3

 72
65
 73
0
 40
0.0
  0
LTYPE
  2
CONTINUOUS
 70
64
  3
Solid line
 72
65
 73
0
 40
0.0
  0
LTYPE
  2
CENTER
 70
64
  3
____ _ ____ _ ____ _ ____ _ ____ _ ____ _ ____
 72
65
 73
4
 40
0.6
 49
0.375
 49
-0.075
 49
0.075
 49
-0.075
  0
LTYPE
  2
HIDDEN
 70
64
  3
- - - - - - - - - - - - - - - - - - - -
 72
65
 73
2
 40
0.2
 49
0.1
 49
-0.1
  0
LTYPE
  2
PHANTOM
 70
64
  3
_____ _ _ _____ _ _ _____ _ _ _____
 72
65
 73
6
 40
0.8
 49
0.45
 49
-0.05
 49
0.1
 49
-0.05
 49
0.1
 49
-0.05
  0
LTYPE
  2
DOT
 70
64
  3
. . . . . . . . . . . . . . . . . . . .
 72
65
 73
2
 40
0.2
 49
0.1
 49
-0.1
  0
LTYPE
  2
DASHED
 70
64
  3
- - - - - - - - - - - - - - - - - - - -
 72
65
 73
2
 40
0.2
 49
0.1
 49
-0.1
  0
ENDTAB
  0
TABLE
  2
LAYER
 70
36
  0
LAYER
  2
0
 70
0
 62
7
  6
CONTINUOUS
  0
LAYER
  2
DEFAULT_1
 70
0
 62
7
  6
CENTER
  0
LAYER
  2
DEFAULT_2
 70
0
 62
8
  6
HIDDEN
  0
LAYER
  2
DEFAULT_3
 70
0
 62
7
  6
PHANTOM
  0
LAYER
  2
0000_BOM
 70
0
 62
7
  6
CONTINUOUS
  0
LAYER
  2
0000_REV_TABLE
 70
0
 62
7
  6
CONTINUOUS
  0
LAYER
  2
0000_STEVENS_NOTE
 70
0
 62
7
  6
CONTINUOUS
  0
LAYER
  2
01_DATUM_PLANES
 70
0
 62
7
  6
CONTINUOUS
  0
LAYER
  2
01_DEF_PLANES
 70
0
 62
7
  6
CONTINUOUS
  0
LAYER
  2
02_DATUM_COS
 70
0
 62
7
  6
CONTINUOUS
  0
LAYER
  2
99_SOLID
 70
0
 62
7
  6
CONTINUOUS
  0
LAYER
  2
CAD-MASTER_ZINC-PL
 70
0
 62
7
  6
CONTINUOUS
  0
LAYER
  2
CURVE
 70
0
 62
7
  6
CONTINUOUS
  0
LAYER
  2
SKEL
 70
0
 62
7
  6
CONTINUOUS
  0
LAYER
  2
SKETCH
 70
0
 62
7
  6
CONTINUOUS
  0
LAYER
  2
SURFACE
 70
0
 62
7
  6
CONTINUOUS
  0
ENDTAB
  0
TABLE
  2
STYLE
 70
1
  0
STYLE
  2
STANDARD
 70
0
 40
0.0
 41
0.75
 50
0.0
 71
0
 42
0.2
  3
txt
  4

  0
STYLE
  2
TEXTSTYLE_1
 70
0
 40
0.0
 41
0.8
 50
0.0
 71
0
 42
0.2
  3
gdt
  4

  0
ENDTAB
  0
ENDSEC
  0
SECTION
  2
BLOCKS
  0
ENDSEC
  0
SECTION
  2
ENTITIES
  0
LINE
  8
0
 62
7
  6
CONTINUOUS
 10
-15.724607958
 20
-458.0259805629
 11
-45.724607958
 21
-458.0259805629
  0
LINE
  8
0
 62
7
  6
CONTINUOUS
 10
384.275392042
 20
-458.0259805629
 11
414.275392042
 21
-458.0259805629
  0
LINE
  8
0
 62
7
  6
CONTINUOUS
 10
-15.724607958
 20
-414.0259805629
 11
384.275392042
 21
-414.0259805629
  0
LINE
  8
0
 62
7
  6
CONTINUOUS
 10
384.275392042
 20
-392.0259805629
 11
-15.724607958
 21
-392.0259805629
  0
POLYLINE
  8
0
 62
7
  6
CONTINUOUS
 66
1
 70
0
  0
VERTEX
  8
0
 62
7
  6
CONTINUOUS
 10
-16.3159405262
 20
717.1529217505
  0
VERTEX
  8
0
 62
7
  6
CONTINUOUS
 10
-16.4562499213
 20
716.9533000256
  0
VERTEX
  8
0
 62
7
  6
CONTINUOUS
 10
-16.6115532046
 20
716.7299798053
  0
VERTEX
  8
0
 62
7
  6
CONTINUOUS
 10
-16.7815488821
 20
716.4823787275
  0
VERTEX
  8
0
 62
7
  6
CONTINUOUS
 10
-16.9660819127
 20
716.2096300888
  0
VERTEX
  8
0
 62
7
  6
CONTINUOUS
 10
-17.1640870894
 20
715.9120128489
  0
VERTEX
  8
0
 62
7
  6
CONTINUOUS
 10
-17.3746726946
 20
715.5890870621
  0
VERTEX
  8
0
 62
7
  6
CONTINUOUS
 10
-17.5959422618
 20
715.2421427407
  0
VERTEX
  8
0
 62
7
  6
CONTINUOUS
 10
-17.8259004144
 20
714.871847607
  0
VERTEX
  8
0
 62
7
  6
CONTINUOUS
 10
-18.0622950307
 20
714.4796285843
  0
VERTEX
  8
0
 62
7
  6
CONTINUOUS
 10
-18.3027185724
 20
714.0664212658
  0
VERTEX
  8
0
 62
7
  6
CONTINUOUS
 10
-18.5442863493
 20
713.6343673629
  0
VERTEX
  8
0
 62
7
  6
CONTINUOUS
 10
-18.7845822792
 20
713.1835277878
  0
VERTEX
  8
0
 62
7
  6
CONTINUOUS
 10
-19.0186816297
 20
712.7210805298
  0
VERTEX
  8
0
 62
7
  6
CONTINUOUS
 10
-19.2410999669
 20
712.2529180723
  0
VERTEX
  8
0
 62
7
  6
CONTINUOUS
 10
-19.4495962678
 20
711.7829578454
  0
VERTEX
  8
0
 62
7
  6
CONTINUOUS
 10
-19.6403331457
 20
711.3168500306
  0
VERTEX
  8
0
 62
7
  6
CONTINUOUS
 10
-19.8129512408
 20
710.8552888577
  0
VERTEX
  8
0
 62
7
  6
CONTINUOUS
 10
-19.9662030101
 20
710.4009064616
  0
VERTEX
  8
0
 62
7
  6
CONTINUOUS
 10
-20.1002238036
 20
709.9535393079
  0
VERTEX
  8
0
 62
7
  6
CONTINUOUS
 10
-20.2149532535
 20
709.5147273728
  0
VERTEX
  8
0
 62
7
  6
CONTINUOUS
 10
-20.3109846973
 20
709.0819922586
  0
VERTEX
  8
0
 62
7
  6
CONTINUOUS
 10
-20.389256118
 20
708.6533888395
  0
VERTEX
  8
0
 62
7
  6
CONTINUOUS
 10
-20.4496569605
 20
708.2288572761
  0
VERTEX
  8
0
 62
7
  6
CONTINUOUS
 10
-20.492571553
 20
707.8079842798
  0
VERTEX
  8
0
 62
7
  6
CONTINUOUS
 10
-20.5180931647
 20
707.3898850725
  0
VERTEX
  8
0
 62
7
  6
CONTINUOUS
 10
-20.526684614
 20
706.9743875529
  0
VERTEX
  8
0
 62
7
  6
CONTINUOUS
 10
-20.5181251845
 20
706.5589404013
  0
VERTEX
  8
0
 62
7
  6
CONTINUOUS
 10
-20.4926604041
 20
706.1410533135
  0
VERTEX
  8
0
 62
7
  6
CONTINUOUS
 10
-20.4498021668
 20
705.7203711418
  0
VERTEX
  8
0
 62
7
  6
CONTINUOUS
 10
-20.3894417648
 20
705.2958069745
  0
VERTEX
  8
0
 62
7
  6
CONTINUOUS
 10
-20.3111909571
 20
704.8670657984
  0
VERTEX
  8
0
 62
7
  6
CONTINUOUS
 10
-20.2151418375
 20
704.434109737
  0
VERTEX
  8
0
 62
7
  6
CONTINUOUS
 10
-20.1003866983
 20
703.995080469
  0
VERTEX
  8
0
 62
7
  6
CONTINUOUS
 10
-19.9663484792
 20
703.5475943086
  0
VERTEX
  8
0
 62
7
  6
CONTINUOUS
 10
-19.8131075471
 20
703.093189472
  0
VERTEX
  8
0
 62
7
  6
CONTINUOUS
 10
-19.6405499928
 20
702.6317415874
  0
VERTEX
  8
0
 62
7
  6
CONTINUOUS
 10
-19.449926241
 20
702.1658547331
  0
VERTEX
  8
0
 62
7
  6
CONTINUOUS
 10
-19.2416507906
 20
701.6962933408
  0
VERTEX
  8
0
 62
7
  6
CONTINUOUS
 10
-19.019414862
 20
701.228451979
  0
VERTEX
  8
0
 62
7
  6
CONTINUOUS
 10
-18.7853346964
 20
700.7659624389
  0
VERTEX
  8
0
 62
7
  6
CONTINUOUS
 10
-18.5449457483
 20
700.3148774846
  0
VERTEX
  8
0
 62
7
  6
CONTINUOUS
 10
-18.3031508283
 20
699.8823886065
  0
VERTEX
  8
0
 62
7
  6
CONTINUOUS
 10
-18.0624735219
 20
699.4687114169
  0
VERTEX
  8
0
 62
7
  6
CONTINUOUS
 10
-17.8258868519
 20
699.0761691324
  0
VERTEX
  8
0
 62
7
  6
CONTINUOUS
 10
-17.5957749262
 20
698.7056304296
  0
VERTEX
  8
0
 62
7
  6
CONTINUOUS
 10
-17.3743908187
 20
698.3585159048
  0
VERTEX
  8
0
 62
7
  6
CONTINUOUS
 10
-17.1637357665
 20
698.0354930152
  0
VERTEX
  8
0
 62
7
  6
CONTINUOUS
 10
-16.9657155498
 20
697.7378609127
  0
VERTEX
  8
0
 62
7
  6
CONTINUOUS
 10
-16.7811976518
 20
697.46514511
  0
VERTEX
  8
0
 62
7
  6
CONTINUOUS
 10
-16.6112299956
 20
697.2175916304
  0
VERTEX
  8
0
 62
7
  6
CONTINUOUS
 10
-16.4559696309
 20
696.994338094
  0
VERTEX
  8
0
 62
7
  6
CONTINUOUS
 10
-16.315722165
 20
696.7948044718
  0
VERTEX
  8
0
 62
7
  6
CONTINUOUS
 10
-16.0804949924
 20
696.4644779346
  0
SEQEND
  0
LINE
  8
0
 62
7
  6
CONTINUOUS
 10
-16.0806329225
 20
717.4833714636
 11
-16.3159405262
 21
717.1529217505
  0
LINE
  8
0
 62
7
  6
CONTINUOUS
 10
-15.9056387468
 20
717.7259191415
 11
-16.0806329225
 21
717.4833714636
  0
LINE
  8
0
 62
7
  6
CONTINUOUS
 10
-15.7318015129
 20
717.964303859
 11
-15.9056387468
 21
717.7259191415
  0
LINE
  8
0
 62
7
  6
CONTINUOUS
 10
-15.724607958
 20
717.9740194371
 11
-15.7318015129
 21
717.964303859
  0
LINE
  8
0
 62
7
  6
CONTINUOUS
 10
-15.7317992832
 20
-414.0162660403
 11
-15.724607958
 21
-414.0259805629
  0
LINE
  8
0
 62
7
  6
CONTINUOUS
 10
-15.9055515537
 20
-413.7780001819
 11
-15.7317992832
 21
-414.0162660403
  0
LINE
  8
0
 62
7
  6
CONTINUOUS
 10
-16.0804949924
 20
-413.5355220654
 11
-15.9055515537
 21
-413.7780001819
  0
POLYLINE
  8
0
 62
7
  6
CONTINUOUS
 66
1
 70
0
  0
VERTEX
  8
0
 62
7
  6
CONTINUOUS
 10
-16.3159405262
 20
620.1529217505
  0
VERTEX
  8
0
 62
7
  6
CONTINUOUS
 10
-16.4562499213
 20
619.9533000256
  0
VERTEX
  8
0
 62
7
  6
CONTINUOUS
 10
-16.6115532046
 20
619.7299798053
  0
VERTEX
  8
0
 62
7
  6
CONTINUOUS
 10
-16.7815488821
 20
619.4823787275
  0
VERTEX
  8
0
 62
7
  6
CONTINUOUS
 10
-16.9660819127
 20
619.2096300888
  0
VERTEX
  8
0
 62
7
  6
CONTINUOUS
 10
-17.1640870894
 20
618.9120128489
  0
VERTEX
  8
0
 62
7
  6
CONTINUOUS
 10
-17.3746726946
 20
618.5890870621
  0
VERTEX
  8
0
 62
7
  6
CONTINUOUS
 10
-17.5959422618
 20
618.2421427407
  0
VERTEX
  8
0
 62
7
  6
CONTINUOUS
 10
-17.8259004144
 20
617.871847607
  0
VERTEX
  8
0
 62
7
  6
CONTINUOUS
 10
-18.0622950307
 20
617.4796285843
  0
VERTEX
  8
0
 62
7
  6
CONTINUOUS
 10
-18.3027185724
 20
617.0664212658
  0
VERTEX
  8
0
 62
7
  6
CONTINUOUS
 10
-18.5442863493
 20
616.6343673629
  0
VERTEX
  8
0
 62
7
  6
CONTINUOUS
 10
-18.7845822792
 20
616.1835277878
  0
VERTEX
  8
0
 62
7
  6
CONTINUOUS
 10
-19.0186816297
 20
615.7210805298
  0
VERTEX
  8
0
 62
7
  6
CONTINUOUS
 10
-19.2410999669
 20
615.2529180723
  0
VERTEX
  8
0
 62
7
  6
CONTINUOUS
 10
-19.4495962678
 20
614.7829578454
  0
VERTEX
  8
0
 62
7
  6
CONTINUOUS
 10
-19.6403331457
 20
614.3168500306
  0
VERTEX
  8
0
 62
7
  6
CONTINUOUS
 10
-19.8129512408
 20
613.8552888577
  0
VERTEX
  8
0
 62
7
  6
CONTINUOUS
 10
-19.9662030101
 20
613.4009064616
  0
VERTEX
  8
0
 62
7
  6
CONTINUOUS
 10
-20.1002238036
 20
612.9535393079
  0
VERTEX
  8
0
 62
7
  6
CONTINUOUS
 10
-20.2149532535
 20
612.5147273728
  0
VERTEX
  8
0
 62
7
  6
CONTINUOUS
 10
-20.3109846973
 20
612.0819922586
  0
VERTEX
  8
0
 62
7
  6
CONTINUOUS
 10
-20.389256118
 20
611.6533888395
  0
VERTEX
  8
0
 62
7
  6
CONTINUOUS
 10
-20.4496569605
 20
611.2288572761
  0
VERTEX
  8
0
 62
7
  6
CONTINUOUS
 10
-20.492571553
 20
610.8079842798
  0
VERTEX
  8
0
 62
7
  6
CONTINUOUS
 10
-20.5180931647
 20
610.3898850725
  0
VERTEX
  8
0
 62
7
  6
CONTINUOUS
 10
-20.526684614
 20
609.9743875529
  0
VERTEX
  8
0
 62
7
  6
CONTINUOUS
 10
-20.5181251845
 20
609.5589404013
  0
VERTEX
  8
0
 62
7
  6
CONTINUOUS
 10
-20.4926604041
 20
609.1410533135
  0
VERTEX
  8
0
 62
7
  6
CONTINUOUS
 10
-20.4498021668
 20
608.7203711418
  0
VERTEX
  8
0
 62
7
  6
CONTINUOUS
 10
-20.3894417648
 20
608.2958069745
  0
VERTEX
  8
0
 62
7
  6
CONTINUOUS
 10
-20.3111909571
 20
607.8670657984
  0
VERTEX
  8
0
 62
7
  6
CONTINUOUS
 10
-20.2151418375
 20
607.434109737
  0
VERTEX
  8
0
 62
7
  6
CONTINUOUS
 10
-20.1003866983
 20
606.995080469
  0
VERTEX
  8
0
 62
7
  6
CONTINUOUS
 10
-19.9663484792
 20
606.5475943086
  0
VERTEX
  8
0
 62
7
  6
CONTINUOUS
 10
-19.8131075471
 20
606.093189472
  0
VERTEX
  8
0
 62
7
  6
CONTINUOUS
 10
-19.6405499928
 20
605.6317415874
  0
VERTEX
  8
0
 62
7
  6
CONTINUOUS
 10
-19.449926241
 20
605.1658547331
  0
VERTEX
  8
0
 62
7
  6
CONTINUOUS
 10
-19.2416507906
 20
604.6962933408
  0
VERTEX
  8
0
 62
7
  6
CONTINUOUS
 10
-19.019414862
 20
604.228451979
  0
VERTEX
  8
0
 62
7
  6
CONTINUOUS
 10
-18.7853346964
 20
603.7659624389
  0
VERTEX
  8
0
 62
7
  6
CONTINUOUS
 10
-18.5449457483
 20
603.3148774846
  0
VERTEX
  8
0
 62
7
  6
CONTINUOUS
 10
-18.3031508283
 20
602.8823886065
  0
VERTEX
  8
0
 62
7
  6
CONTINUOUS
 10
-18.0624735219
 20
602.4687114169
  0
VERTEX
  8
0
 62
7
  6
CONTINUOUS
 10
-17.8258868519
 20
602.0761691324
  0
VERTEX
  8
0
 62
7
  6
CONTINUOUS
 10
-17.5957749262
 20
601.7056304296
  0
VERTEX
  8
0
 62
7
  6
CONTINUOUS
 10
-17.3743908187
 20
601.3585159048
  0
VERTEX
  8
0
 62
7
  6
CONTINUOUS
 10
-17.1637357665
 20
601.0354930152
  0
VERTEX
  8
0
 62
7
  6
CONTINUOUS
 10
-16.9657155498
 20
600.7378609127
  0
VERTEX
  8
0
 62
7
  6
CONTINUOUS
 10
-16.7811976518
 20
600.46514511
  0
VERTEX
  8
0
 62
7
  6
CONTINUOUS
 10
-16.6112299956
 20
600.2175916304
  0
VERTEX
  8
0
 62
7
  6
CONTINUOUS
 10
-16.4559696309
 20
599.994338094
  0
VERTEX
  8
0
 62
7
  6
CONTINUOUS
 10
-16.315722165
 20
599.7948044718
  0
VERTEX
  8
0
 62
7
  6
CONTINUOUS
 10
-16.0804949924
 20
599.4644779346
  0
SEQEND
  0
LINE
  8
0
 62
7
  6
CONTINUOUS
 10
-16.0806329225
 20
620.4833714636
 11
-16.3159405262
 21
620.1529217505
  0
LINE
  8
0
 62
7
  6
CONTINUOUS
 10
-15.9056387468
 20
620.7259191415
 11
-16.0806329225
 21
620.4833714636
  0
LINE
  8
0
 62
7
  6
CONTINUOUS
 10
-15.7318015129
 20
620.964303859
 11
-15.9056387468
 21
620.7259191415
  0
LINE
  8
0
 62
7
  6
CONTINUOUS
 10
-15.724607958
 20
620.9740194371
 11
-15.7318015129
 21
620.964303859
  0
LINE
  8
0
 62
7
  6
CONTINUOUS
 10
-15.724607958
 20
-317.0259805629
 11
384.275392042
 21
-317.0259805629
  0
LINE
  8
0
 62
7
  6
CONTINUOUS
 10
384.275392042
 20
-295.0259805629
 11
-15.724607958
 21
-295.0259805629
  0
LINE
  8
0
 62
7
  6
CONTINUOUS
 10
-15.7317992832
 20
-317.0162660403
 11
-15.724607958
 21
-317.0259805629
  0
LINE
  8
0
 62
7
  6
CONTINUOUS
 10
-15.9055515537
 20
-316.7780001819
 11
-15.7317992832
 21
-317.0162660403
  0
LINE
  8
0
 62
7
  6
CONTINUOUS
 10
-16.0804949924
 20
-316.5355220654
 11
-15.9055515537
 21
-316.7780001819
  0
POLYLINE
  8
0
 62
7
  6
CONTINUOUS
 66
1
 70
0
  0
VERTEX
  8
0
 62
7
  6
CONTINUOUS
 10
-16.3159405262
 20
523.1529217505
  0
VERTEX
  8
0
 62
7
  6
CONTINUOUS
 10
-16.4562499213
 20
522.9533000256
  0
VERTEX
  8
0
 62
7
  6
CONTINUOUS
 10
-16.6115532046
 20
522.7299798053
  0
VERTEX
  8
0
 62
7
  6
CONTINUOUS
 10
-16.7815488821
 20
522.4823787275
  0
VERTEX
  8
0
 62
7
  6
CONTINUOUS
 10
-16.9660819127
 20
522.2096300888
  0
VERTEX
  8
0
 62
7
  6
CONTINUOUS
 10
-17.1640870894
 20
521.9120128489
  0
VERTEX
  8
0
 62
7
  6
CONTINUOUS
 10
-17.3746726946
 20
521.5890870621
  0
VERTEX
  8
0
 62
7
  6
CONTINUOUS
 10
-17.5959422618
 20
521.2421427407
  0
VERTEX
  8
0
 62
7
  6
CONTINUOUS
 10
-17.8259004144
 20
520.871847607
  0
VERTEX
  8
0
 62
7
  6
CONTINUOUS
 10
-18.0622950307
 20
520.4796285843
  0
VERTEX
  8
0
 62
7
  6
CONTINUOUS
 10
-18.3027185724
 20
520.0664212658
  0
VERTEX
  8
0
 62
7
  6
CONTINUOUS
 10
-18.5442863493
 20
519.6343673629
  0
VERTEX
  8
0
 62
7
  6
CONTINUOUS
 10
-18.7845822792
 20
519.1835277878
  0
VERTEX
  8
0
 62
7
  6
CONTINUOUS
 10
-19.0186816297
 20
518.7210805298
  0
VERTEX
  8
0
 62
7
  6
CONTINUOUS
 10
-19.2410999669
 20
518.2529180723
  0
VERTEX
  8
0
 62
7
  6
CONTINUOUS
 10
-19.4495962678
 20
517.7829578454
  0
VERTEX
  8
0
 62
7
  6
CONTINUOUS
 10
-19.6403331457
 20
517.3168500306
  0
VERTEX
  8
0
 62
7
  6
CONTINUOUS
 10
-19.8129512408
 20
516.8552888577
  0
VERTEX
  8
0
 62
7
  6
CONTINUOUS
 10
-19.9662030101
 20
516.4009064616
  0
VERTEX
  8
0
 62
7
  6
CONTINUOUS
 10
-20.1002238036
 20
515.9535393079
  0
VERTEX
  8
0
 62
7
  6
CONTINUOUS
 10
-20.2149532535
 20
515.5147273728
  0
VERTEX
  8
0
 62
7
  6
CONTINUOUS
 10
-20.3109846973
 20
515.0819922586
  0
VERTEX
  8
0
 62
7
  6
CONTINUOUS
 10
-20.389256118
 20
514.6533888395
  0
VERTEX
  8
0
 62
7
  6
CONTINUOUS
 10
-20.4496569605
 20
514.2288572761
  0
VERTEX
  8
0
 62
7
  6
CONTINUOUS
 10
-20.492571553
 20
513.8079842798
  0
VERTEX
  8
0
 62
7
  6
CONTINUOUS
 10
-20.5180931647
 20
513.3898850725
  0
VERTEX
  8
0
 62
7
  6
CONTINUOUS
 10
-20.526684614
 20
512.9743875529
  0
VERTEX
  8
0
 62
7
  6
CONTINUOUS
 10
-20.5181251845
 20
512.5589404013
  0
VERTEX
  8
0
 62
7
  6
CONTINUOUS
 10
-20.4926604041
 20
512.1410533135
  0
VERTEX
  8
0
 62
7
  6
CONTINUOUS
 10
-20.4498021668
 20
511.7203711418
  0
VERTEX
  8
0
 62
7
  6
CONTINUOUS
 10
-20.3894417648
 20
511.2958069745
  0
VERTEX
  8
0
 62
7
  6
CONTINUOUS
 10
-20.3111909571
 20
510.8670657984
  0
VERTEX
  8
0
 62
7
  6
CONTINUOUS
 10
-20.2151418375
 20
510.434109737
  0
VERTEX
  8
0
 62
7
  6
CONTINUOUS
 10
-20.1003866983
 20
509.995080469
  0
VERTEX
  8
0
 62
7
  6
CONTINUOUS
 10
-19.9663484792
 20
509.5475943086
  0
VERTEX
  8
0
 62
7
  6
CONTINUOUS
 10
-19.8131075471
 20
509.093189472
  0
VERTEX
  8
0
 62
7
  6
CONTINUOUS
 10
-19.6405499928
 20
508.6317415874
  0
VERTEX
  8
0
 62
7
  6
CONTINUOUS
 10
-19.449926241
 20
508.1658547331
  0
VERTEX
  8
0
 62
7
  6
CONTINUOUS
 10
-19.2416507906
 20
507.6962933408
  0
VERTEX
  8
0
 62
7
  6
CONTINUOUS
 10
-19.019414862
 20
507.228451979
  0
VERTEX
  8
0
 62
7
  6
CONTINUOUS
 10
-18.7853346964
 20
506.7659624389
  0
VERTEX
  8
0
 62
7
  6
CONTINUOUS
 10
-18.5449457483
 20
506.3148774846
  0
VERTEX
  8
0
 62
7
  6
CONTINUOUS
 10
-18.3031508283
 20
505.8823886065
  0
VERTEX
  8
0
 62
7
  6
CONTINUOUS
 10
-18.0624735219
 20
505.4687114169
  0
VERTEX
  8
0
 62
7
  6
CONTINUOUS
 10
-17.8258868519
 20
505.0761691324
  0
VERTEX
  8
0
 62
7
  6
CONTINUOUS
 10
-17.5957749262
 20
504.7056304296
  0
VERTEX
  8
0
 62
7
  6
CONTINUOUS
 10
-17.3743908187
 20
504.3585159048
  0
VERTEX
  8
0
 62
7
  6
CONTINUOUS
 10
-17.1637357665
 20
504.0354930152
  0
VERTEX
  8
0
 62
7
  6
CONTINUOUS
 10
-16.9657155498
 20
503.7378609127
  0
VERTEX
  8
0
 62
7
  6
CONTINUOUS
 10
-16.7811976518
 20
503.46514511
  0
VERTEX
  8
0
 62
7
  6
CONTINUOUS
 10
-16.6112299956
 20
503.2175916304
  0
VERTEX
  8
0
 62
7
  6
CONTINUOUS
 10
-16.4559696309
 20
502.994338094
  0
VERTEX
  8
0
 62
7
  6
CONTINUOUS
 10
-16.315722165
 20
502.7948044718
  0
VERTEX
  8
0
 62
7
  6
CONTINUOUS
 10
-16.0804949924
 20
502.4644779346
  0
SEQEND
  0
LINE
  8
0
 62
7
  6
CONTINUOUS
 10
-16.0806329225
 20
523.4833714636
 11
-16.3159405262
 21
523.1529217505
  0
LINE
  8
0
 62
7
  6
CONTINUOUS
 10
-15.9056387468
 20
523.7259191415
 11
-16.0806329225
 21
523.4833714636
  0
LINE
  8
0
 62
7
  6
CONTINUOUS
 10
-15.7318015129
 20
523.964303859
 11
-15.9056387468
 21
523.7259191415
  0
LINE
  8
0
 62
7
  6
CONTINUOUS
 10
-15.724607958
 20
523.9740194371
 11
-15.7318015129
 21
523.964303859
  0
LINE
  8
0
 62
7
  6
CONTINUOUS
 10
-15.724607958
 20
-220.0259805629
 11
384.275392042
 21
-220.0259805629
  0
LINE
  8
0
 62
7
  6
CONTINUOUS
 10
384.275392042
 20
-198.0259805629
 11
-15.724607958
 21
-198.0259805629
  0
LINE
  8
0
 62
7
  6
CONTINUOUS
 10
-15.7317992832
 20
-220.0162660403
 11
-15.724607958
 21
-220.0259805629
  0
LINE
  8
0
 62
7
  6
CONTINUOUS
 10
-15.9055515537
 20
-219.7780001819
 11
-15.7317992832
 21
-220.0162660403
  0
LINE
  8
0
 62
7
  6
CONTINUOUS
 10
-16.0804949924
 20
-219.5355220654
 11
-15.9055515537
 21
-219.7780001819
  0
POLYLINE
  8
0
 62
7
  6
CONTINUOUS
 66
1
 70
0
  0
VERTEX
  8
0
 62
7
  6
CONTINUOUS
 10
-16.3159405262
 20
426.1529217505
  0
VERTEX
  8
0
 62
7
  6
CONTINUOUS
 10
-16.4562499213
 20
425.9533000256
  0
VERTEX
  8
0
 62
7
  6
CONTINUOUS
 10
-16.6115532046
 20
425.7299798053
  0
VERTEX
  8
0
 62
7
  6
CONTINUOUS
 10
-16.7815488821
 20
425.4823787275
  0
VERTEX
  8
0
 62
7
  6
CONTINUOUS
 10
-16.9660819127
 20
425.2096300888
  0
VERTEX
  8
0
 62
7
  6
CONTINUOUS
 10
-17.1640870894
 20
424.9120128489
  0
VERTEX
  8
0
 62
7
  6
CONTINUOUS
 10
-17.3746726946
 20
424.5890870621
  0
VERTEX
  8
0
 62
7
  6
CONTINUOUS
 10
-17.5959422618
 20
424.2421427407
  0
VERTEX
  8
0
 62
7
  6
CONTINUOUS
 10
-17.8259004144
 20
423.871847607
  0
VERTEX
  8
0
 62
7
  6
CONTINUOUS
 10
-18.0622950307
 20
423.4796285843
  0
VERTEX
  8
0
 62
7
  6
CONTINUOUS
 10
-18.3027185724
 20
423.0664212658
  0
VERTEX
  8
0
 62
7
  6
CONTINUOUS
 10
-18.5442863493
 20
422.6343673629
  0
VERTEX
  8
0
 62
7
  6
CONTINUOUS
 10
-18.7845822792
 20
422.1835277878
  0
VERTEX
  8
0
 62
7
  6
CONTINUOUS
 10
-19.0186816297
 20
421.7210805298
  0
VERTEX
  8
0
 62
7
  6
CONTINUOUS
 10
-19.2410999669
 20
421.2529180723
  0
VERTEX
  8
0
 62
7
  6
CONTINUOUS
 10
-19.4495962678
 20
420.7829578454
  0
VERTEX
  8
0
 62
7
  6
CONTINUOUS
 10
-19.6403331457
 20
420.3168500306
  0
VERTEX
  8
0
 62
7
  6
CONTINUOUS
 10
-19.8129512408
 20
419.8552888577
  0
VERTEX
  8
0
 62
7
  6
CONTINUOUS
 10
-19.9662030101
 20
419.4009064616
  0
VERTEX
  8
0
 62
7
  6
CONTINUOUS
 10
-20.1002238036
 20
418.9535393079
  0
VERTEX
  8
0
 62
7
  6
CONTINUOUS
 10
-20.2149532535
 20
418.5147273728
  0
VERTEX
  8
0
 62
7
  6
CONTINUOUS
 10
-20.3109846973
 20
418.0819922586
  0
VERTEX
  8
0
 62
7
  6
CONTINUOUS
 10
-20.389256118
 20
417.6533888395
  0
VERTEX
  8
0
 62
7
  6
CONTINUOUS
 10
-20.4496569605
 20
417.2288572761
  0
VERTEX
  8
0
 62
7
  6
CONTINUOUS
 10
-20.492571553
 20
416.8079842798
  0
VERTEX
  8
0
 62
7
  6
CONTINUOUS
 10
-20.5180931647
 20
416.3898850725
  0
VERTEX
  8
0
 62
7
  6
CONTINUOUS
 10
-20.526684614
 20
415.9743875529
  0
VERTEX
  8
0
 62
7
  6
CONTINUOUS
 10
-20.5181251845
 20
415.5589404013
  0
VERTEX
  8
0
 62
7
  6
CONTINUOUS
 10
-20.4926604041
 20
415.1410533135
  0
VERTEX
  8
0
 62
7
  6
CONTINUOUS
 10
-20.4498021668
 20
414.7203711418
  0
VERTEX
  8
0
 62
7
  6
CONTINUOUS
 10
-20.3894417648
 20
414.2958069745
  0
VERTEX
  8
0
 62
7
  6
CONTINUOUS
 10
-20.3111909571
 20
413.8670657984
  0
VERTEX
  8
0
 62
7
  6
CONTINUOUS
 10
-20.2151418375
 20
413.434109737
  0
VERTEX
  8
0
 62
7
  6
CONTINUOUS
 10
-20.1003866983
 20
412.995080469
  0
VERTEX
  8
0
 62
7
  6
CONTINUOUS
 10
-19.9663484792
 20
412.5475943086
  0
VERTEX
  8
0
 62
7
  6
CONTINUOUS
 10
-19.8131075471
 20
412.093189472
  0
VERTEX
  8
0
 62
7
  6
CONTINUOUS
 10
-19.6405499928
 20
411.6317415874
  0
VERTEX
  8
0
 62
7
  6
CONTINUOUS
 10
-19.449926241
 20
411.1658547331
  0
VERTEX
  8
0
 62
7
  6
CONTINUOUS
 10
-19.2416507906
 20
410.6962933408
  0
VERTEX
  8
0
 62
7
  6
CONTINUOUS
 10
-19.019414862
 20
410.228451979
  0
VERTEX
  8
0
 62
7
  6
CONTINUOUS
 10
-18.7853346964
 20
409.7659624389
  0
VERTEX
  8
0
 62
7
  6
CONTINUOUS
 10
-18.5449457483
 20
409.3148774846
  0
VERTEX
  8
0
 62
7
  6
CONTINUOUS
 10
-18.3031508283
 20
408.8823886065
  0
VERTEX
  8
0
 62
7
  6
CONTINUOUS
 10
-18.0624735219
 20
408.4687114169
  0
VERTEX
  8
0
 62
7
  6
CONTINUOUS
 10
-17.8258868519
 20
408.0761691324
  0
VERTEX
  8
0
 62
7
  6
CONTINUOUS
 10
-17.5957749262
 20
407.7056304296
  0
VERTEX
  8
0
 62
7
  6
CONTINUOUS
 10
-17.3743908187
 20
407.3585159048
  0
VERTEX
  8
0
 62
7
  6
CONTINUOUS
 10
-17.1637357665
 20
407.0354930152
  0
VERTEX
  8
0
 62
7
  6
CONTINUOUS
 10
-16.9657155498
 20
406.7378609127
  0
VERTEX
  8
0
 62
7
  6
CONTINUOUS
 10
-16.7811976518
 20
406.46514511
  0
VERTEX
  8
0
 62
7
  6
CONTINUOUS
 10
-16.6112299956
 20
406.2175916304
  0
VERTEX
  8
0
 62
7
  6
CONTINUOUS
 10
-16.4559696309
 20
405.994338094
  0
VERTEX
  8
0
 62
7
  6
CONTINUOUS
 10
-16.315722165
 20
405.7948044718
  0
VERTEX
  8
0
 62
7
  6
CONTINUOUS
 10
-16.0804949924
 20
405.4644779346
  0
SEQEND
  0
LINE
  8
0
 62
7
  6
CONTINUOUS
 10
-16.0806329225
 20
426.4833714636
 11
-16.3159405262
 21
426.1529217505
  0
LINE
  8
0
 62
7
  6
CONTINUOUS
 10
-15.9056387468
 20
426.7259191415
 11
-16.0806329225
 21
426.4833714636
  0
LINE
  8
0
 62
7
  6
CONTINUOUS
 10
-15.7318015129
 20
426.964303859
 11
-15.9056387468
 21
426.7259191415
  0
LINE
  8
0
 62
7
  6
CONTINUOUS
 10
-15.724607958
 20
426.9740194371
 11
-15.7318015129
 21
426.964303859
  0
LINE
  8
0
 62
7
  6
CONTINUOUS
 10
-15.7317992832
 20
-123.0162660403
 11
-15.724607958
 21
-123.0259805629
  0
LINE
  8
0
 62
7
  6
CONTINUOUS
 10
-15.9055515537
 20
-122.7780001819
 11
-15.7317992832
 21
-123.0162660403
  0
LINE
  8
0
 62
7
  6
CONTINUOUS
 10
-16.0804949924
 20
-122.5355220654
 11
-15.9055515537
 21
-122.7780001819
  0
LINE
  8
0
 62
7
  6
CONTINUOUS
 10
-15.724607958
 20
-123.0259805629
 11
384.275392042
 21
-123.0259805629
  0
LINE
  8
0
 62
7
  6
CONTINUOUS
 10
-45.724607958
 20
761.9740194371
 11
-45.724607958
 21
-458.0259805629
  0
POLYLINE
  8
0
 62
7
  6
CONTINUOUS
 66
1
 70
0
  0
VERTEX
  8
0
 62
7
  6
CONTINUOUS
 10
-16.3159405262
 20
259.1529217505
  0
VERTEX
  8
0
 62
7
  6
CONTINUOUS
 10
-16.4562499213
 20
258.9533000256
  0
VERTEX
  8
0
 62
7
  6
CONTINUOUS
 10
-16.6115532046
 20
258.7299798053
  0
VERTEX
  8
0
 62
7
  6
CONTINUOUS
 10
-16.7815488821
 20
258.4823787275
  0
VERTEX
  8
0
 62
7
  6
CONTINUOUS
 10
-16.9660819127
 20
258.2096300888
  0
VERTEX
  8
0
 62
7
  6
CONTINUOUS
 10
-17.1640870894
 20
257.9120128489
  0
VERTEX
  8
0
 62
7
  6
CONTINUOUS
 10
-17.3746726946
 20
257.5890870621
  0
VERTEX
  8
0
 62
7
  6
CONTINUOUS
 10
-17.5959422618
 20
257.2421427407
  0
VERTEX
  8
0
 62
7
  6
CONTINUOUS
 10
-17.8259004144
 20
256.871847607
  0
VERTEX
  8
0
 62
7
  6
CONTINUOUS
 10
-18.0622950307
 20
256.4796285843
  0
VERTEX
  8
0
 62
7
  6
CONTINUOUS
 10
-18.3027185724
 20
256.0664212658
  0
VERTEX
  8
0
 62
7
  6
CONTINUOUS
 10
-18.5442863493
 20
255.6343673629
  0
VERTEX
  8
0
 62
7
  6
CONTINUOUS
 10
-18.7845822792
 20
255.1835277878
  0
VERTEX
  8
0
 62
7
  6
CONTINUOUS
 10
-19.0186816297
 20
254.7210805298
  0
VERTEX
  8
0
 62
7
  6
CONTINUOUS
 10
-19.2410999669
 20
254.2529180723
  0
VERTEX
  8
0
 62
7
  6
CONTINUOUS
 10
-19.4495962678
 20
253.7829578454
  0
VERTEX
  8
0
 62
7
  6
CONTINUOUS
 10
-19.6403331457
 20
253.3168500306
  0
VERTEX
  8
0
 62
7
  6
CONTINUOUS
 10
-19.8129512408
 20
252.8552888577
  0
VERTEX
  8
0
 62
7
  6
CONTINUOUS
 10
-19.9662030101
 20
252.4009064616
  0
VERTEX
  8
0
 62
7
  6
CONTINUOUS
 10
-20.1002238036
 20
251.9535393079
  0
VERTEX
  8
0
 62
7
  6
CONTINUOUS
 10
-20.2149532535
 20
251.5147273728
  0
VERTEX
  8
0
 62
7
  6
CONTINUOUS
 10
-20.3109846973
 20
251.0819922586
  0
VERTEX
  8
0
 62
7
  6
CONTINUOUS
 10
-20.389256118
 20
250.6533888395
  0
VERTEX
  8
0
 62
7
  6
CONTINUOUS
 10
-20.4496569605
 20
250.2288572761
  0
VERTEX
  8
0
 62
7
  6
CONTINUOUS
 10
-20.492571553
 20
249.8079842798
  0
VERTEX
  8
0
 62
7
  6
CONTINUOUS
 10
-20.5180931647
 20
249.3898850725
  0
VERTEX
  8
0
 62
7
  6
CONTINUOUS
 10
-20.526684614
 20
248.9743875529
  0
VERTEX
  8
0
 62
7
  6
CONTINUOUS
 10
-20.5181251845
 20
248.5589404013
  0
VERTEX
  8
0
 62
7
  6
CONTINUOUS
 10
-20.4926604041
 20
248.1410533135
  0
VERTEX
  8
0
 62
7
  6
CONTINUOUS
 10
-20.4498021668
 20
247.7203711418
  0
VERTEX
  8
0
 62
7
  6
CONTINUOUS
 10
-20.3894417648
 20
247.2958069745
  0
VERTEX
  8
0
 62
7
  6
CONTINUOUS
 10
-20.3111909571
 20
246.8670657984
  0
VERTEX
  8
0
 62
7
  6
CONTINUOUS
 10
-20.2151418375
 20
246.434109737
  0
VERTEX
  8
0
 62
7
  6
CONTINUOUS
 10
-20.1003866983
 20
245.995080469
  0
VERTEX
  8
0
 62
7
  6
CONTINUOUS
 10
-19.9663484792
 20
245.5475943086
  0
VERTEX
  8
0
 62
7
  6
CONTINUOUS
 10
-19.8131075471
 20
245.093189472
  0
VERTEX
  8
0
 62
7
  6
CONTINUOUS
 10
-19.6405499928
 20
244.6317415874
  0
VERTEX
  8
0
 62
7
  6
CONTINUOUS
 10
-19.449926241
 20
244.1658547331
  0
VERTEX
  8
0
 62
7
  6
CONTINUOUS
 10
-19.2416507906
 20
243.6962933408
  0
VERTEX
  8
0
 62
7
  6
CONTINUOUS
 10
-19.019414862
 20
243.228451979
  0
VERTEX
  8
0
 62
7
  6
CONTINUOUS
 10
-18.7853346964
 20
242.7659624389
  0
VERTEX
  8
0
 62
7
  6
CONTINUOUS
 10
-18.5449457483
 20
242.3148774846
  0
VERTEX
  8
0
 62
7
  6
CONTINUOUS
 10
-18.3031508283
 20
241.8823886065
  0
VERTEX
  8
0
 62
7
  6
CONTINUOUS
 10
-18.0624735219
 20
241.4687114169
  0
VERTEX
  8
0
 62
7
  6
CONTINUOUS
 10
-17.8258868519
 20
241.0761691324
  0
VERTEX
  8
0
 62
7
  6
CONTINUOUS
 10
-17.5957749262
 20
240.7056304296
  0
VERTEX
  8
0
 62
7
  6
CONTINUOUS
 10
-17.3743908187
 20
240.3585159048
  0
VERTEX
  8
0
 62
7
  6
CONTINUOUS
 10
-17.1637357665
 20
240.0354930152
  0
VERTEX
  8
0
 62
7
  6
CONTINUOUS
 10
-16.9657155498
 20
239.7378609127
  0
VERTEX
  8
0
 62
7
  6
CONTINUOUS
 10
-16.7811976518
 20
239.46514511
  0
VERTEX
  8
0
 62
7
  6
CONTINUOUS
 10
-16.6112299956
 20
239.2175916304
  0
VERTEX
  8
0
 62
7
  6
CONTINUOUS
 10
-16.4559696309
 20
238.994338094
  0
VERTEX
  8
0
 62
7
  6
CONTINUOUS
 10
-16.315722165
 20
238.7948044718
  0
VERTEX
  8
0
 62
7
  6
CONTINUOUS
 10
-16.0804949924
 20
238.4644779346
  0
SEQEND
  0
LINE
  8
0
 62
7
  6
CONTINUOUS
 10
-16.0806329225
 20
259.4833714636
 11
-16.3159405262
 21
259.1529217505
  0
LINE
  8
0
 62
7
  6
CONTINUOUS
 10
-15.9056387468
 20
259.7259191415
 11
-16.0806329225
 21
259.4833714636
  0
LINE
  8
0
 62
7
  6
CONTINUOUS
 10
-15.7318015129
 20
259.964303859
 11
-15.9056387468
 21
259.7259191415
  0
LINE
  8
0
 62
7
  6
CONTINUOUS
 10
-15.724607958
 20
259.9740194371
 11
-15.7318015129
 21
259.964303859
  0
LINE
  8
0
 62
7
  6
CONTINUOUS
 10
384.275392042
 20
-101.0259805629
 11
-15.724607958
 21
-101.0259805629
  0
LINE
  8
0
 62
7
  6
CONTINUOUS
 10
-15.7317992832
 20
43.9837339597
 11
-15.724607958
 21
43.9740194371
  0
LINE
  8
0
 62
7
  6
CONTINUOUS
 10
-15.9055515537
 20
44.2219998181
 11
-15.7317992832
 21
43.9837339597
  0
LINE
  8
0
 62
7
  6
CONTINUOUS
 10
-16.0804949924
 20
44.4644779346
 11
-15.9055515537
 21
44.2219998181
  0
LINE
  8
0
 62
7
  6
CONTINUOUS
 10
-15.724607958
 20
761.9740194371
 11
-15.724607958
 21
717.9740194371
  0
LINE
  8
0
 62
7
  6
CONTINUOUS
 10
-15.724607958
 20
695.9740194371
 11
-15.724607958
 21
620.9740194371
  0
LINE
  8
0
 62
7
  6
CONTINUOUS
 10
-15.724607958
 20
598.9740194371
 11
-15.724607958
 21
523.9740194371
  0
LINE
  8
0
 62
7
  6
CONTINUOUS
 10
-15.724607958
 20
501.9740194371
 11
-15.724607958
 21
426.9740194371
  0
LINE
  8
0
 62
7
  6
CONTINUOUS
 10
-15.724607958
 20
404.9740194371
 11
-15.724607958
 21
259.9740194371
  0
LINE
  8
0
 62
7
  6
CONTINUOUS
 10
-15.724607958
 20
237.9740194371
 11
-15.724607958
 21
162.9740194371
  0
LINE
  8
0
 62
7
  6
CONTINUOUS
 10
-15.724607958
 20
140.9740194371
 11
-15.724607958
 21
65.9740194371
  0
LINE
  8
0
 62
7
  6
CONTINUOUS
 10
-15.724607958
 20
43.9740194371
 11
-15.724607958
 21
-101.0259805629
  0
LINE
  8
0
 62
7
  6
CONTINUOUS
 10
-15.724607958
 20
-123.0259805629
 11
-15.724607958
 21
-198.0259805629
  0
LINE
  8
0
 62
7
  6
CONTINUOUS
 10
-15.724607958
 20
-220.0259805629
 11
-15.724607958
 21
-295.0259805629
  0
LINE
  8
0
 62
7
  6
CONTINUOUS
 10
-15.724607958
 20
-317.0259805629
 11
-15.724607958
 21
-392.0259805629
  0
LINE
  8
0
 62
7
  6
CONTINUOUS
 10
-15.724607958
 20
-414.0259805629
 11
-15.724607958
 21
-458.0259805629
  0
POLYLINE
  8
0
 62
7
  6
CONTINUOUS
 66
1
 70
0
  0
VERTEX
  8
0
 62
7
  6
CONTINUOUS
 10
-16.3159393793
 20
162.152923372
  0
VERTEX
  8
0
 62
7
  6
CONTINUOUS
 10
-16.456248523
 20
161.9533020248
  0
VERTEX
  8
0
 62
7
  6
CONTINUOUS
 10
-16.6115515421
 20
161.729982201
  0
VERTEX
  8
0
 62
7
  6
CONTINUOUS
 10
-16.7815468884
 20
161.4823816511
  0
VERTEX
  8
0
 62
7
  6
CONTINUOUS
 10
-16.9660794194
 20
161.2096338115
  0
VERTEX
  8
0
 62
7
  6
CONTINUOUS
 10
-17.1640839997
 20
160.9120175365
  0
VERTEX
  8
0
 62
7
  6
CONTINUOUS
 10
-17.3746689406
 20
160.5890928976
  0
VERTEX
  8
0
 62
7
  6
CONTINUOUS
 10
-17.5959378919
 20
160.2421496796
  0
VERTEX
  8
0
 62
7
  6
CONTINUOUS
 10
-17.8258956202
 20
159.871855454
  0
VERTEX
  8
0
 62
7
  6
CONTINUOUS
 10
-18.062290082
 20
159.4796369329
  0
VERTEX
  8
0
 62
7
  6
CONTINUOUS
 10
-18.3027139727
 20
159.0664292865
  0
VERTEX
  8
0
 62
7
  6
CONTINUOUS
 10
-18.5442823309
 20
158.6343747116
  0
VERTEX
  8
0
 62
7
  6
CONTINUOUS
 10
-18.7845790544
 20
158.1835338177
  0
VERTEX
  8
0
 62
7
  6
CONTINUOUS
 10
-19.0186786805
 20
157.7210865371
  0
VERTEX
  8
0
 62
7
  6
CONTINUOUS
 10
-19.2410955416
 20
157.2529278324
  0
VERTEX
  8
0
 62
7
  6
CONTINUOUS
 10
-19.4495897093
 20
156.7829732224
  0
VERTEX
  8
0
 62
7
  6
CONTINUOUS
 10
-19.6403239663
 20
156.3168742972
  0
VERTEX
  8
0
 62
7
  6
CONTINUOUS
 10
-19.8129409443
 20
155.8553178047
  0
VERTEX
  8
0
 62
7
  6
CONTINUOUS
 10
-19.9661982303
 20
155.4009172923
  0
VERTEX
  8
0
 62
7
  6
CONTINUOUS
 10
-20.1002225014
 20
154.9535439515
  0
VERTEX
  8
0
 62
7
  6
CONTINUOUS
 10
-20.2149456514
 20
154.5147478208
  0
VERTEX
  8
0
 62
7
  6
CONTINUOUS
 10
-20.3109616915
 20
154.082105907
  0
VERTEX
  8
0
 62
7
  6
CONTINUOUS
 10
-20.3891982386
 20
153.653764335
  0
VERTEX
  8
0
 62
7
  6
CONTINUOUS
 10
-20.4495704086
 20
153.2295657895
  0
VERTEX
  8
0
 62
7
  6
CONTINUOUS
 10
-20.4924888148
 20
152.8090678576
  0
VERTEX
  8
0
 62
7
  6
CONTINUOUS
 10
-20.5180365618
 20
152.3912719578
  0
VERTEX
  8
0
 62
7
  6
CONTINUOUS
 10
-20.5266847249
 20
151.9758692635
  0
VERTEX
  8
0
 62
7
  6
CONTINUOUS
 10
-20.5181823361
 20
151.5603480976
  0
VERTEX
  8
0
 62
7
  6
CONTINUOUS
 10
-20.4927451379
 20
151.1421647325
  0
VERTEX
  8
0
 62
7
  6
CONTINUOUS
 10
-20.4498918623
 20
150.7211064918
  0
VERTEX
  8
0
 62
7
  6
CONTINUOUS
 10
-20.3895022188
 20
150.2961999261
  0
VERTEX
  8
0
 62
7
  6
CONTINUOUS
 10
-20.3112147968
 20
149.8671836268
  0
VERTEX
  8
0
 62
7
  6
CONTINUOUS
 10
-20.2151469094
 20
149.4341205255
  0
VERTEX
  8
0
 62
7
  6
CONTINUOUS
 10
-20.100382123
 20
148.9950641514
  0
VERTEX
  8
0
 62
7
  6
CONTINUOUS
 10
-19.9663457931
 20
148.5475812728
  0
VERTEX
  8
0
 62
7
  6
CONTINUOUS
 10
-19.8131095504
 20
148.0931951046
  0
VERTEX
  8
0
 62
7
  6
CONTINUOUS
 10
-19.6405504726
 20
147.6317435371
  0
VERTEX
  8
0
 62
7
  6
CONTINUOUS
 10
-19.4499239298
 20
147.1658493135
  0
VERTEX
  8
0
 62
7
  6
CONTINUOUS
 10
-19.241646076
 20
146.6962832351
  0
VERTEX
  8
0
 62
7
  6
CONTINUOUS
 10
-19.0194084998
 20
146.2284390175
  0
VERTEX
  8
0
 62
7
  6
CONTINUOUS
 10
-18.7853286022
 20
145.765950554
  0
VERTEX
  8
0
 62
7
  6
CONTINUOUS
 10
-18.5449406241
 20
145.3148681123
  0
VERTEX
  8
0
 62
7
  6
CONTINUOUS
 10
-18.3031467035
 20
144.8823813373
  0
VERTEX
  8
0
 62
7
  6
CONTINUOUS
 10
-18.0624703056
 20
144.4687059906
  0
VERTEX
  8
0
 62
7
  6
CONTINUOUS
 10
-17.8258841158
 20
144.0761646795
  0
VERTEX
  8
0
 62
7
  6
CONTINUOUS
 10
-17.5957724588
 20
143.7056265118
  0
VERTEX
  8
0
 62
7
  6
CONTINUOUS
 10
-17.3743884597
 20
143.3585122664
  0
VERTEX
  8
0
 62
7
  6
CONTINUOUS
 10
-17.1637334746
 20
143.035489538
  0
VERTEX
  8
0
 62
7
  6
CONTINUOUS
 10
-16.9657133779
 20
142.7378576844
  0
VERTEX
  8
0
 62
7
  6
CONTINUOUS
 10
-16.781195664
 20
142.4651421951
  0
VERTEX
  8
0
 62
7
  6
CONTINUOUS
 10
-16.6112283085
 20
142.2175891812
  0
VERTEX
  8
0
 62
7
  6
CONTINUOUS
 10
-16.4559682618
 20
141.9943361364
  0
VERTEX
  8
0
 62
7
  6
CONTINUOUS
 10
-16.315721074
 20
141.7948029259
  0
VERTEX
  8
0
 62
7
  6
CONTINUOUS
 10
-16.1905413845
 20
141.6183885455
  0
VERTEX
  8
0
 62
7
  6
CONTINUOUS
 10
-15.9855024602
 20
141.3325331275
  0
SEQEND
  0
LINE
  8
0
 62
7
  6
CONTINUOUS
 10
-16.0806322232
 20
162.4833724388
 11
-16.3159393793
 21
162.152923372
  0
LINE
  8
0
 62
7
  6
CONTINUOUS
 10
-15.9056384024
 20
162.7259196168
 11
-16.0806322232
 21
162.4833724388
  0
LINE
  8
0
 62
7
  6
CONTINUOUS
 10
-15.9855024602
 20
141.3325331275
 11
-15.7895866711
 21
141.0627870857
  0
LINE
  8
0
 62
7
  6
CONTINUOUS
 10
384.8665062489
 20
696.7948044718
 11
384.6312790763
 21
696.4644779346
  0
LINE
  8
0
 62
7
  6
CONTINUOUS
 10
384.6312790763
 20
696.4644779346
 11
384.4563356376
 21
696.2219998181
  0
POLYLINE
  8
0
 62
7
  6
CONTINUOUS
 66
1
 70
0
  0
VERTEX
  8
0
 62
7
  6
CONTINUOUS
 10
-15.7318015016
 20
162.9643038715
  0
VERTEX
  8
0
 62
7
  6
CONTINUOUS
 10
-15.7896168409
 20
162.8852083608
  0
VERTEX
  8
0
 62
7
  6
CONTINUOUS
 10
-15.9056384024
 20
162.7259196168
  0
SEQEND
  0
LINE
  8
0
 62
7
  6
CONTINUOUS
 10
384.4563356376
 20
696.2219998181
 11
384.2825833671
 21
695.9837339597
  0
LINE
  8
0
 62
7
  6
CONTINUOUS
 10
384.2825833671
 20
695.9837339597
 11
384.275392042
 21
695.9740194371
  0
LINE
  8
0
 62
7
  6
CONTINUOUS
 10
-15.724607958
 20
162.9740194371
 11
-15.7318015016
 21
162.9643038715
  0
LINE
  8
0
 62
7
  6
CONTINUOUS
 10
384.275392042
 20
-392.0259805629
 11
384.2825855968
 21
-392.035696141
  0
POLYLINE
  8
0
 62
7
  6
CONTINUOUS
 66
1
 70
0
  0
VERTEX
  8
0
 62
7
  6
CONTINUOUS
 10
-15.7895866711
 20
141.0627870857
  0
VERTEX
  8
0
 62
7
  6
CONTINUOUS
 10
-15.7317992677
 20
140.9837339363
  0
VERTEX
  8
0
 62
7
  6
CONTINUOUS
 10
-15.724607958
 20
140.9740194371
  0
SEQEND
  0
LINE
  8
0
 62
7
  6
CONTINUOUS
 10
384.2825855968
 20
-392.035696141
 11
384.4564228307
 21
-392.2740808585
  0
LINE
  8
0
 62
7
  6
CONTINUOUS
 10
384.4564228307
 20
-392.2740808585
 11
384.6314170064
 21
-392.5166285364
  0
POLYLINE
  8
0
 62
7
  6
CONTINUOUS
 66
1
 70
0
  0
VERTEX
  8
0
 62
7
  6
CONTINUOUS
 10
384.6314170064
 20
-392.5166285364
  0
VERTEX
  8
0
 62
7
  6
CONTINUOUS
 10
384.8667246101
 20
-392.8470782495
  0
VERTEX
  8
0
 62
7
  6
CONTINUOUS
 10
385.0070340052
 20
-393.0466999744
  0
VERTEX
  8
0
 62
7
  6
CONTINUOUS
 10
385.1623372885
 20
-393.2700201947
  0
VERTEX
  8
0
 62
7
  6
CONTINUOUS
 10
385.332332966
 20
-393.5176212725
  0
VERTEX
  8
0
 62
7
  6
CONTINUOUS
 10
385.5168659966
 20
-393.7903699112
  0
VERTEX
  8
0
 62
7
  6
CONTINUOUS
 10
385.7148711733
 20
-394.0879871511
  0
VERTEX
  8
0
 62
7
  6
CONTINUOUS
 10
385.9254567785
 20
-394.4109129379
  0
VERTEX
  8
0
 62
7
  6
CONTINUOUS
 10
386.1467263457
 20
-394.7578572593
  0
VERTEX
  8
0
 62
7
  6
CONTINUOUS
 10
386.3766844983
 20
-395.128152393
  0
VERTEX
  8
0
 62
7
  6
CONTINUOUS
 10
386.6130791146
 20
-395.5203714157
  0
VERTEX
  8
0
 62
7
  6
CONTINUOUS
 10
386.8535026563
 20
-395.9335787342
  0
VERTEX
  8
0
 62
7
  6
CONTINUOUS
 10
387.0950704332
 20
-396.3656326371
  0
VERTEX
  8
0
 62
7
  6
CONTINUOUS
 10
387.3353663631
 20
-396.8164722122
  0
VERTEX
  8
0
 62
7
  6
CONTINUOUS
 10
387.5694657136
 20
-397.2789194702
  0
VERTEX
  8
0
 62
7
  6
CONTINUOUS
 10
387.7918840508
 20
-397.7470819277
  0
VERTEX
  8
0
 62
7
  6
CONTINUOUS
 10
388.0003803517
 20
-398.2170421546
  0
VERTEX
  8
0
 62
7
  6
CONTINUOUS
 10
388.1911172296
 20
-398.6831499694
  0
VERTEX
  8
0
 62
7
  6
CONTINUOUS
 10
388.3637353247
 20
-399.1447111423
  0
VERTEX
  8
0
 62
7
  6
CONTINUOUS
 10
388.516987094
 20
-399.5990935384
  0
VERTEX
  8
0
 62
7
  6
CONTINUOUS
 10
388.6510078875
 20
-400.0464606921
  0
VERTEX
  8
0
 62
7
  6
CONTINUOUS
 10
388.7657373374
 20
-400.4852726272
  0
VERTEX
  8
0
 62
7
  6
CONTINUOUS
 10
388.8617687812
 20
-400.9180077414
  0
VERTEX
  8
0
 62
7
  6
CONTINUOUS
 10
388.9400402019
 20
-401.3466111605
  0
VERTEX
  8
0
 62
7
  6
CONTINUOUS
 10
389.0004410444
 20
-401.7711427239
  0
VERTEX
  8
0
 62
7
  6
CONTINUOUS
 10
389.0433556369
 20
-402.1920157202
  0
VERTEX
  8
0
 62
7
  6
CONTINUOUS
 10
389.0688772486
 20
-402.6101149275
  0
VERTEX
  8
0
 62
7
  6
CONTINUOUS
 10
389.0774686979
 20
-403.0256124471
  0
VERTEX
  8
0
 62
7
  6
CONTINUOUS
 10
389.0689092684
 20
-403.4410595987
  0
VERTEX
  8
0
 62
7
  6
CONTINUOUS
 10
389.043444488
 20
-403.8589466865
  0
VERTEX
  8
0
 62
7
  6
CONTINUOUS
 10
389.0005862507
 20
-404.2796288582
  0
VERTEX
  8
0
 62
7
  6
CONTINUOUS
 10
388.9402258487
 20
-404.7041930255
  0
VERTEX
  8
0
 62
7
  6
CONTINUOUS
 10
388.861975041
 20
-405.1329342016
  0
VERTEX
  8
0
 62
7
  6
CONTINUOUS
 10
388.7659259214
 20
-405.565890263
  0
VERTEX
  8
0
 62
7
  6
CONTINUOUS
 10
388.6511707822
 20
-406.004919531
  0
VERTEX
  8
0
 62
7
  6
CONTINUOUS
 10
388.5171325631
 20
-406.4524056914
  0
VERTEX
  8
0
 62
7
  6
CONTINUOUS
 10
388.363891631
 20
-406.906810528
  0
VERTEX
  8
0
 62
7
  6
CONTINUOUS
 10
388.1913340767
 20
-407.3682584126
  0
VERTEX
  8
0
 62
7
  6
CONTINUOUS
 10
388.0007103249
 20
-407.8341452669
  0
VERTEX
  8
0
 62
7
  6
CONTINUOUS
 10
387.7924348745
 20
-408.3037066592
  0
VERTEX
  8
0
 62
7
  6
CONTINUOUS
 10
387.5701989459
 20
-408.771548021
  0
VERTEX
  8
0
 62
7
  6
CONTINUOUS
 10
387.3361187803
 20
-409.2340375611
  0
VERTEX
  8
0
 62
7
  6
CONTINUOUS
 10
387.0957298322
 20
-409.6851225154
  0
VERTEX
  8
0
 62
7
  6
CONTINUOUS
 10
386.8539349122
 20
-410.1176113935
  0
VERTEX
  8
0
 62
7
  6
CONTINUOUS
 10
386.6132576059
 20
-410.5312885831
  0
VERTEX
  8
0
 62
7
  6
CONTINUOUS
 10
386.3766709359
 20
-410.9238308676
  0
VERTEX
  8
0
 62
7
  6
CONTINUOUS
 10
386.1465590101
 20
-411.2943695704
  0
VERTEX
  8
0
 62
7
  6
CONTINUOUS
 10
385.9251749026
 20
-411.6414840952
  0
VERTEX
  8
0
 62
7
  6
CONTINUOUS
 10
385.7145198504
 20
-411.9645069848
  0
VERTEX
  8
0
 62
7
  6
CONTINUOUS
 10
385.5164996337
 20
-412.2621390873
  0
VERTEX
  8
0
 62
7
  6
CONTINUOUS
 10
385.3319817357
 20
-412.53485489
  0
VERTEX
  8
0
 62
7
  6
CONTINUOUS
 10
385.1620140795
 20
-412.7824083696
  0
VERTEX
  8
0
 62
7
  6
CONTINUOUS
 10
385.0067537148
 20
-413.005661906
  0
VERTEX
  8
0
 62
7
  6
CONTINUOUS
 10
384.8665062489
 20
-413.2051955282
  0
SEQEND
  0
POLYLINE
  8
0
 62
7
  6
CONTINUOUS
 66
1
 70
0
  0
VERTEX
  8
0
 62
7
  6
CONTINUOUS
 10
-16.3159405262
 20
65.1529217505
  0
VERTEX
  8
0
 62
7
  6
CONTINUOUS
 10
-16.4562499213
 20
64.9533000256
  0
VERTEX
  8
0
 62
7
  6
CONTINUOUS
 10
-16.6115532046
 20
64.7299798053
  0
VERTEX
  8
0
 62
7
  6
CONTINUOUS
 10
-16.7815488821
 20
64.4823787275
  0
VERTEX
  8
0
 62
7
  6
CONTINUOUS
 10
-16.9660819127
 20
64.2096300888
  0
VERTEX
  8
0
 62
7
  6
CONTINUOUS
 10
-17.1640870894
 20
63.9120128489
  0
VERTEX
  8
0
 62
7
  6
CONTINUOUS
 10
-17.3746726946
 20
63.5890870621
  0
VERTEX
  8
0
 62
7
  6
CONTINUOUS
 10
-17.5959422618
 20
63.2421427407
  0
VERTEX
  8
0
 62
7
  6
CONTINUOUS
 10
-17.8259004144
 20
62.871847607
  0
VERTEX
  8
0
 62
7
  6
CONTINUOUS
 10
-18.0622950307
 20
62.4796285843
  0
VERTEX
  8
0
 62
7
  6
CONTINUOUS
 10
-18.3027185724
 20
62.0664212658
  0
VERTEX
  8
0
 62
7
  6
CONTINUOUS
 10
-18.5442863493
 20
61.6343673629
  0
VERTEX
  8
0
 62
7
  6
CONTINUOUS
 10
-18.7845822792
 20
61.1835277878
  0
VERTEX
  8
0
 62
7
  6
CONTINUOUS
 10
-19.0186816297
 20
60.7210805298
  0
VERTEX
  8
0
 62
7
  6
CONTINUOUS
 10
-19.2410999669
 20
60.2529180723
  0
VERTEX
  8
0
 62
7
  6
CONTINUOUS
 10
-19.4495962678
 20
59.7829578454
  0
VERTEX
  8
0
 62
7
  6
CONTINUOUS
 10
-19.6403331457
 20
59.3168500306
  0
VERTEX
  8
0
 62
7
  6
CONTINUOUS
 10
-19.8129512408
 20
58.8552888577
  0
VERTEX
  8
0
 62
7
  6
CONTINUOUS
 10
-19.9662030101
 20
58.4009064616
  0
VERTEX
  8
0
 62
7
  6
CONTINUOUS
 10
-20.1002238036
 20
57.9535393079
  0
VERTEX
  8
0
 62
7
  6
CONTINUOUS
 10
-20.2149532535
 20
57.5147273728
  0
VERTEX
  8
0
 62
7
  6
CONTINUOUS
 10
-20.3109846973
 20
57.0819922586
  0
VERTEX
  8
0
 62
7
  6
CONTINUOUS
 10
-20.389256118
 20
56.6533888395
  0
VERTEX
  8
0
 62
7
  6
CONTINUOUS
 10
-20.4496569605
 20
56.2288572761
  0
VERTEX
  8
0
 62
7
  6
CONTINUOUS
 10
-20.492571553
 20
55.8079842798
  0
VERTEX
  8
0
 62
7
  6
CONTINUOUS
 10
-20.5180931647
 20
55.3898850725
  0
VERTEX
  8
0
 62
7
  6
CONTINUOUS
 10
-20.526684614
 20
54.9743875529
  0
VERTEX
  8
0
 62
7
  6
CONTINUOUS
 10
-20.5181251845
 20
54.5589404013
  0
VERTEX
  8
0
 62
7
  6
CONTINUOUS
 10
-20.4926604041
 20
54.1410533135
  0
VERTEX
  8
0
 62
7
  6
CONTINUOUS
 10
-20.4498021668
 20
53.7203711418
  0
VERTEX
  8
0
 62
7
  6
CONTINUOUS
 10
-20.3894417648
 20
53.2958069745
  0
VERTEX
  8
0
 62
7
  6
CONTINUOUS
 10
-20.3111909571
 20
52.8670657984
  0
VERTEX
  8
0
 62
7
  6
CONTINUOUS
 10
-20.2151418375
 20
52.434109737
  0
VERTEX
  8
0
 62
7
  6
CONTINUOUS
 10
-20.1003866983
 20
51.995080469
  0
VERTEX
  8
0
 62
7
  6
CONTINUOUS
 10
-19.9663484792
 20
51.5475943086
  0
VERTEX
  8
0
 62
7
  6
CONTINUOUS
 10
-19.8131075471
 20
51.093189472
  0
VERTEX
  8
0
 62
7
  6
CONTINUOUS
 10
-19.6405499928
 20
50.6317415874
  0
VERTEX
  8
0
 62
7
  6
CONTINUOUS
 10
-19.449926241
 20
50.1658547331
  0
VERTEX
  8
0
 62
7
  6
CONTINUOUS
 10
-19.2416507906
 20
49.6962933408
  0
VERTEX
  8
0
 62
7
  6
CONTINUOUS
 10
-19.019414862
 20
49.228451979
  0
VERTEX
  8
0
 62
7
  6
CONTINUOUS
 10
-18.7853346964
 20
48.7659624389
  0
VERTEX
  8
0
 62
7
  6
CONTINUOUS
 10
-18.5449457483
 20
48.3148774846
  0
VERTEX
  8
0
 62
7
  6
CONTINUOUS
 10
-18.3031508283
 20
47.8823886065
  0
VERTEX
  8
0
 62
7
  6
CONTINUOUS
 10
-18.0624735219
 20
47.4687114169
  0
VERTEX
  8
0
 62
7
  6
CONTINUOUS
 10
-17.8258868519
 20
47.0761691324
  0
VERTEX
  8
0
 62
7
  6
CONTINUOUS
 10
-17.5957749262
 20
46.7056304296
  0
VERTEX
  8
0
 62
7
  6
CONTINUOUS
 10
-17.3743908187
 20
46.3585159048
  0
VERTEX
  8
0
 62
7
  6
CONTINUOUS
 10
-17.1637357665
 20
46.0354930152
  0
VERTEX
  8
0
 62
7
  6
CONTINUOUS
 10
-16.9657155498
 20
45.7378609127
  0
VERTEX
  8
0
 62
7
  6
CONTINUOUS
 10
-16.7811976518
 20
45.46514511
  0
VERTEX
  8
0
 62
7
  6
CONTINUOUS
 10
-16.6112299956
 20
45.2175916304
  0
VERTEX
  8
0
 62
7
  6
CONTINUOUS
 10
-16.4559696309
 20
44.994338094
  0
VERTEX
  8
0
 62
7
  6
CONTINUOUS
 10
-16.315722165
 20
44.7948044718
  0
VERTEX
  8
0
 62
7
  6
CONTINUOUS
 10
-16.0804949924
 20
44.4644779346
  0
SEQEND
  0
LINE
  8
0
 62
7
  6
CONTINUOUS
 10
-16.0806329225
 20
65.4833714636
 11
-16.3159405262
 21
65.1529217505
  0
LINE
  8
0
 62
7
  6
CONTINUOUS
 10
384.8665062489
 20
599.7948044718
 11
384.6312790763
 21
599.4644779346
  0
LINE
  8
0
 62
7
  6
CONTINUOUS
 10
-15.9056387468
 20
65.7259191415
 11
-16.0806329225
 21
65.4833714636
  0
LINE
  8
0
 62
7
  6
CONTINUOUS
 10
384.6312790763
 20
599.4644779346
 11
384.4563356376
 21
599.2219998181
  0
LINE
  8
0
 62
7
  6
CONTINUOUS
 10
-15.7318015129
 20
65.964303859
 11
-15.9056387468
 21
65.7259191415
  0
LINE
  8
0
 62
7
  6
CONTINUOUS
 10
384.4563356376
 20
599.2219998181
 11
384.2825833671
 21
598.9837339597
  0
LINE
  8
0
 62
7
  6
CONTINUOUS
 10
384.2825833671
 20
598.9837339597
 11
384.275392042
 21
598.9740194371
  0
LINE
  8
0
 62
7
  6
CONTINUOUS
 10
-15.724607958
 20
65.9740194371
 11
-15.7318015129
 21
65.964303859
  0
LINE
  8
0
 62
7
  6
CONTINUOUS
 10
-15.724607958
 20
43.9740194371
 11
384.275392042
 21
43.9740194371
  0
LINE
  8
0
 62
7
  6
CONTINUOUS
 10
384.275392042
 20
65.9740194371
 11
-15.724607958
 21
65.9740194371
  0
LINE
  8
0
 62
7
  6
CONTINUOUS
 10
-15.7317992832
 20
237.9837339597
 11
-15.724607958
 21
237.9740194371
  0
LINE
  8
0
 62
7
  6
CONTINUOUS
 10
384.275392042
 20
-295.0259805629
 11
384.2825855968
 21
-295.035696141
  0
LINE
  8
0
 62
7
  6
CONTINUOUS
 10
-15.9055515537
 20
238.2219998181
 11
-15.7317992832
 21
237.9837339597
  0
LINE
  8
0
 62
7
  6
CONTINUOUS
 10
384.2825855968
 20
-295.035696141
 11
384.4564228307
 21
-295.2740808585
  0
LINE
  8
0
 62
7
  6
CONTINUOUS
 10
-16.0804949924
 20
238.4644779346
 11
-15.9055515537
 21
238.2219998181
  0
LINE
  8
0
 62
7
  6
CONTINUOUS
 10
384.4564228307
 20
-295.2740808585
 11
384.6314170064
 21
-295.5166285364
  0
POLYLINE
  8
0
 62
7
  6
CONTINUOUS
 66
1
 70
0
  0
VERTEX
  8
0
 62
7
  6
CONTINUOUS
 10
384.6314170064
 20
-295.5166285364
  0
VERTEX
  8
0
 62
7
  6
CONTINUOUS
 10
384.8667246101
 20
-295.8470782495
  0
VERTEX
  8
0
 62
7
  6
CONTINUOUS
 10
385.0070340052
 20
-296.0466999744
  0
VERTEX
  8
0
 62
7
  6
CONTINUOUS
 10
385.1623372885
 20
-296.2700201947
  0
VERTEX
  8
0
 62
7
  6
CONTINUOUS
 10
385.332332966
 20
-296.5176212725
  0
VERTEX
  8
0
 62
7
  6
CONTINUOUS
 10
385.5168659966
 20
-296.7903699112
  0
VERTEX
  8
0
 62
7
  6
CONTINUOUS
 10
385.7148711733
 20
-297.0879871511
  0
VERTEX
  8
0
 62
7
  6
CONTINUOUS
 10
385.9254567785
 20
-297.4109129379
  0
VERTEX
  8
0
 62
7
  6
CONTINUOUS
 10
386.1467263457
 20
-297.7578572593
  0
VERTEX
  8
0
 62
7
  6
CONTINUOUS
 10
386.3766844983
 20
-298.128152393
  0
VERTEX
  8
0
 62
7
  6
CONTINUOUS
 10
386.6130791146
 20
-298.5203714157
  0
VERTEX
  8
0
 62
7
  6
CONTINUOUS
 10
386.8535026563
 20
-298.9335787342
  0
VERTEX
  8
0
 62
7
  6
CONTINUOUS
 10
387.0950704332
 20
-299.3656326371
  0
VERTEX
  8
0
 62
7
  6
CONTINUOUS
 10
387.3353663631
 20
-299.8164722122
  0
VERTEX
  8
0
 62
7
  6
CONTINUOUS
 10
387.5694657136
 20
-300.2789194702
  0
VERTEX
  8
0
 62
7
  6
CONTINUOUS
 10
387.7918840508
 20
-300.7470819277
  0
VERTEX
  8
0
 62
7
  6
CONTINUOUS
 10
388.0003803517
 20
-301.2170421546
  0
VERTEX
  8
0
 62
7
  6
CONTINUOUS
 10
388.1911172296
 20
-301.6831499694
  0
VERTEX
  8
0
 62
7
  6
CONTINUOUS
 10
388.3637353247
 20
-302.1447111423
  0
VERTEX
  8
0
 62
7
  6
CONTINUOUS
 10
388.516987094
 20
-302.5990935384
  0
VERTEX
  8
0
 62
7
  6
CONTINUOUS
 10
388.6510078875
 20
-303.0464606921
  0
VERTEX
  8
0
 62
7
  6
CONTINUOUS
 10
388.7657373374
 20
-303.4852726272
  0
VERTEX
  8
0
 62
7
  6
CONTINUOUS
 10
388.8617687812
 20
-303.9180077414
  0
VERTEX
  8
0
 62
7
  6
CONTINUOUS
 10
388.9400402019
 20
-304.3466111605
  0
VERTEX
  8
0
 62
7
  6
CONTINUOUS
 10
389.0004410444
 20
-304.7711427239
  0
VERTEX
  8
0
 62
7
  6
CONTINUOUS
 10
389.0433556369
 20
-305.1920157202
  0
VERTEX
  8
0
 62
7
  6
CONTINUOUS
 10
389.0688772486
 20
-305.6101149275
  0
VERTEX
  8
0
 62
7
  6
CONTINUOUS
 10
389.0774686979
 20
-306.0256124471
  0
VERTEX
  8
0
 62
7
  6
CONTINUOUS
 10
389.0689092684
 20
-306.4410595987
  0
VERTEX
  8
0
 62
7
  6
CONTINUOUS
 10
389.043444488
 20
-306.8589466865
  0
VERTEX
  8
0
 62
7
  6
CONTINUOUS
 10
389.0005862507
 20
-307.2796288582
  0
VERTEX
  8
0
 62
7
  6
CONTINUOUS
 10
388.9402258487
 20
-307.7041930255
  0
VERTEX
  8
0
 62
7
  6
CONTINUOUS
 10
388.861975041
 20
-308.1329342016
  0
VERTEX
  8
0
 62
7
  6
CONTINUOUS
 10
388.7659259214
 20
-308.565890263
  0
VERTEX
  8
0
 62
7
  6
CONTINUOUS
 10
388.6511707822
 20
-309.004919531
  0
VERTEX
  8
0
 62
7
  6
CONTINUOUS
 10
388.5171325631
 20
-309.4524056914
  0
VERTEX
  8
0
 62
7
  6
CONTINUOUS
 10
388.363891631
 20
-309.906810528
  0
VERTEX
  8
0
 62
7
  6
CONTINUOUS
 10
388.1913340767
 20
-310.3682584126
  0
VERTEX
  8
0
 62
7
  6
CONTINUOUS
 10
388.0007103249
 20
-310.8341452669
  0
VERTEX
  8
0
 62
7
  6
CONTINUOUS
 10
387.7924348745
 20
-311.3037066592
  0
VERTEX
  8
0
 62
7
  6
CONTINUOUS
 10
387.5701989459
 20
-311.771548021
  0
VERTEX
  8
0
 62
7
  6
CONTINUOUS
 10
387.3361187803
 20
-312.2340375611
  0
VERTEX
  8
0
 62
7
  6
CONTINUOUS
 10
387.0957298322
 20
-312.6851225154
  0
VERTEX
  8
0
 62
7
  6
CONTINUOUS
 10
386.8539349122
 20
-313.1176113935
  0
VERTEX
  8
0
 62
7
  6
CONTINUOUS
 10
386.6132576059
 20
-313.5312885831
  0
VERTEX
  8
0
 62
7
  6
CONTINUOUS
 10
386.3766709359
 20
-313.9238308676
  0
VERTEX
  8
0
 62
7
  6
CONTINUOUS
 10
386.1465590101
 20
-314.2943695704
  0
VERTEX
  8
0
 62
7
  6
CONTINUOUS
 10
385.9251749026
 20
-314.6414840952
  0
VERTEX
  8
0
 62
7
  6
CONTINUOUS
 10
385.7145198504
 20
-314.9645069848
  0
VERTEX
  8
0
 62
7
  6
CONTINUOUS
 10
385.5164996337
 20
-315.2621390873
  0
VERTEX
  8
0
 62
7
  6
CONTINUOUS
 10
385.3319817357
 20
-315.53485489
  0
VERTEX
  8
0
 62
7
  6
CONTINUOUS
 10
385.1620140795
 20
-315.7824083696
  0
VERTEX
  8
0
 62
7
  6
CONTINUOUS
 10
385.0067537148
 20
-316.005661906
  0
VERTEX
  8
0
 62
7
  6
CONTINUOUS
 10
384.8665062489
 20
-316.2051955282
  0
SEQEND
  0
LINE
  8
0
 62
7
  6
CONTINUOUS
 10
384.8665062489
 20
502.7948044718
 11
384.6312790763
 21
502.4644779346
  0
LINE
  8
0
 62
7
  6
CONTINUOUS
 10
384.6312790763
 20
502.4644779346
 11
384.4563356376
 21
502.2219998181
  0
LINE
  8
0
 62
7
  6
CONTINUOUS
 10
384.4563356376
 20
502.2219998181
 11
384.2825833671
 21
501.9837339597
  0
LINE
  8
0
 62
7
  6
CONTINUOUS
 10
384.2825833671
 20
501.9837339597
 11
384.275392042
 21
501.9740194371
  0
LINE
  8
0
 62
7
  6
CONTINUOUS
 10
384.275392042
 20
-198.0259805629
 11
384.2825855968
 21
-198.035696141
  0
LINE
  8
0
 62
7
  6
CONTINUOUS
 10
384.2825855968
 20
-198.035696141
 11
384.4564228307
 21
-198.2740808585
  0
LINE
  8
0
 62
7
  6
CONTINUOUS
 10
384.4564228307
 20
-198.2740808585
 11
384.6314170064
 21
-198.5166285364
  0
POLYLINE
  8
0
 62
7
  6
CONTINUOUS
 66
1
 70
0
  0
VERTEX
  8
0
 62
7
  6
CONTINUOUS
 10
384.6314170064
 20
-198.5166285364
  0
VERTEX
  8
0
 62
7
  6
CONTINUOUS
 10
384.8667246101
 20
-198.8470782495
  0
VERTEX
  8
0
 62
7
  6
CONTINUOUS
 10
385.0070340052
 20
-199.0466999744
  0
VERTEX
  8
0
 62
7
  6
CONTINUOUS
 10
385.1623372885
 20
-199.2700201947
  0
VERTEX
  8
0
 62
7
  6
CONTINUOUS
 10
385.332332966
 20
-199.5176212725
  0
VERTEX
  8
0
 62
7
  6
CONTINUOUS
 10
385.5168659966
 20
-199.7903699112
  0
VERTEX
  8
0
 62
7
  6
CONTINUOUS
 10
385.7148711733
 20
-200.0879871511
  0
VERTEX
  8
0
 62
7
  6
CONTINUOUS
 10
385.9254567785
 20
-200.4109129379
  0
VERTEX
  8
0
 62
7
  6
CONTINUOUS
 10
386.1467263457
 20
-200.7578572593
  0
VERTEX
  8
0
 62
7
  6
CONTINUOUS
 10
386.3766844983
 20
-201.128152393
  0
VERTEX
  8
0
 62
7
  6
CONTINUOUS
 10
386.6130791146
 20
-201.5203714157
  0
VERTEX
  8
0
 62
7
  6
CONTINUOUS
 10
386.8535026563
 20
-201.9335787342
  0
VERTEX
  8
0
 62
7
  6
CONTINUOUS
 10
387.0950704332
 20
-202.3656326371
  0
VERTEX
  8
0
 62
7
  6
CONTINUOUS
 10
387.3353663631
 20
-202.8164722122
  0
VERTEX
  8
0
 62
7
  6
CONTINUOUS
 10
387.5694657136
 20
-203.2789194702
  0
VERTEX
  8
0
 62
7
  6
CONTINUOUS
 10
387.7918840508
 20
-203.7470819277
  0
VERTEX
  8
0
 62
7
  6
CONTINUOUS
 10
388.0003803517
 20
-204.2170421546
  0
VERTEX
  8
0
 62
7
  6
CONTINUOUS
 10
388.1911172296
 20
-204.6831499694
  0
VERTEX
  8
0
 62
7
  6
CONTINUOUS
 10
388.3637353247
 20
-205.1447111423
  0
VERTEX
  8
0
 62
7
  6
CONTINUOUS
 10
388.516987094
 20
-205.5990935384
  0
VERTEX
  8
0
 62
7
  6
CONTINUOUS
 10
388.6510078875
 20
-206.0464606921
  0
VERTEX
  8
0
 62
7
  6
CONTINUOUS
 10
388.7657373374
 20
-206.4852726272
  0
VERTEX
  8
0
 62
7
  6
CONTINUOUS
 10
388.8617687812
 20
-206.9180077414
  0
VERTEX
  8
0
 62
7
  6
CONTINUOUS
 10
388.9400402019
 20
-207.3466111605
  0
VERTEX
  8
0
 62
7
  6
CONTINUOUS
 10
389.0004410444
 20
-207.7711427239
  0
VERTEX
  8
0
 62
7
  6
CONTINUOUS
 10
389.0433556369
 20
-208.1920157202
  0
VERTEX
  8
0
 62
7
  6
CONTINUOUS
 10
389.0688772486
 20
-208.6101149275
  0
VERTEX
  8
0
 62
7
  6
CONTINUOUS
 10
389.0774686979
 20
-209.0256124471
  0
VERTEX
  8
0
 62
7
  6
CONTINUOUS
 10
389.0689092684
 20
-209.4410595987
  0
VERTEX
  8
0
 62
7
  6
CONTINUOUS
 10
389.043444488
 20
-209.8589466865
  0
VERTEX
  8
0
 62
7
  6
CONTINUOUS
 10
389.0005862507
 20
-210.2796288582
  0
VERTEX
  8
0
 62
7
  6
CONTINUOUS
 10
388.9402258487
 20
-210.7041930255
  0
VERTEX
  8
0
 62
7
  6
CONTINUOUS
 10
388.861975041
 20
-211.1329342016
  0
VERTEX
  8
0
 62
7
  6
CONTINUOUS
 10
388.7659259214
 20
-211.565890263
  0
VERTEX
  8
0
 62
7
  6
CONTINUOUS
 10
388.6511707822
 20
-212.004919531
  0
VERTEX
  8
0
 62
7
  6
CONTINUOUS
 10
388.5171325631
 20
-212.4524056914
  0
VERTEX
  8
0
 62
7
  6
CONTINUOUS
 10
388.363891631
 20
-212.906810528
  0
VERTEX
  8
0
 62
7
  6
CONTINUOUS
 10
388.1913340767
 20
-213.3682584126
  0
VERTEX
  8
0
 62
7
  6
CONTINUOUS
 10
388.0007103249
 20
-213.8341452669
  0
VERTEX
  8
0
 62
7
  6
CONTINUOUS
 10
387.7924348745
 20
-214.3037066592
  0
VERTEX
  8
0
 62
7
  6
CONTINUOUS
 10
387.5701989459
 20
-214.771548021
  0
VERTEX
  8
0
 62
7
  6
CONTINUOUS
 10
387.3361187803
 20
-215.2340375611
  0
VERTEX
  8
0
 62
7
  6
CONTINUOUS
 10
387.0957298322
 20
-215.6851225154
  0
VERTEX
  8
0
 62
7
  6
CONTINUOUS
 10
386.8539349122
 20
-216.1176113935
  0
VERTEX
  8
0
 62
7
  6
CONTINUOUS
 10
386.6132576059
 20
-216.5312885831
  0
VERTEX
  8
0
 62
7
  6
CONTINUOUS
 10
386.3766709359
 20
-216.9238308676
  0
VERTEX
  8
0
 62
7
  6
CONTINUOUS
 10
386.1465590101
 20
-217.2943695704
  0
VERTEX
  8
0
 62
7
  6
CONTINUOUS
 10
385.9251749026
 20
-217.6414840952
  0
VERTEX
  8
0
 62
7
  6
CONTINUOUS
 10
385.7145198504
 20
-217.9645069848
  0
VERTEX
  8
0
 62
7
  6
CONTINUOUS
 10
385.5164996337
 20
-218.2621390873
  0
VERTEX
  8
0
 62
7
  6
CONTINUOUS
 10
385.3319817357
 20
-218.53485489
  0
VERTEX
  8
0
 62
7
  6
CONTINUOUS
 10
385.1620140795
 20
-218.7824083696
  0
VERTEX
  8
0
 62
7
  6
CONTINUOUS
 10
385.0067537148
 20
-219.005661906
  0
VERTEX
  8
0
 62
7
  6
CONTINUOUS
 10
384.8665062489
 20
-219.2051955282
  0
SEQEND
  0
POLYLINE
  8
0
 62
7
  6
CONTINUOUS
 66
1
 70
0
  0
VERTEX
  8
0
 62
7
  6
CONTINUOUS
 10
-16.3159405262
 20
-101.8470782495
  0
VERTEX
  8
0
 62
7
  6
CONTINUOUS
 10
-16.4562499213
 20
-102.0466999744
  0
VERTEX
  8
0
 62
7
  6
CONTINUOUS
 10
-16.6115532046
 20
-102.2700201947
  0
VERTEX
  8
0
 62
7
  6
CONTINUOUS
 10
-16.7815488821
 20
-102.5176212725
  0
VERTEX
  8
0
 62
7
  6
CONTINUOUS
 10
-16.9660819127
 20
-102.7903699112
  0
VERTEX
  8
0
 62
7
  6
CONTINUOUS
 10
-17.1640870894
 20
-103.0879871511
  0
VERTEX
  8
0
 62
7
  6
CONTINUOUS
 10
-17.3746726946
 20
-103.4109129379
  0
VERTEX
  8
0
 62
7
  6
CONTINUOUS
 10
-17.5959422618
 20
-103.7578572593
  0
VERTEX
  8
0
 62
7
  6
CONTINUOUS
 10
-17.8259004144
 20
-104.128152393
  0
VERTEX
  8
0
 62
7
  6
CONTINUOUS
 10
-18.0622950307
 20
-104.5203714157
  0
VERTEX
  8
0
 62
7
  6
CONTINUOUS
 10
-18.3027185724
 20
-104.9335787342
  0
VERTEX
  8
0
 62
7
  6
CONTINUOUS
 10
-18.5442863493
 20
-105.3656326371
  0
VERTEX
  8
0
 62
7
  6
CONTINUOUS
 10
-18.7845822792
 20
-105.8164722122
  0
VERTEX
  8
0
 62
7
  6
CONTINUOUS
 10
-19.0186816297
 20
-106.2789194702
  0
VERTEX
  8
0
 62
7
  6
CONTINUOUS
 10
-19.2410999669
 20
-106.7470819277
  0
VERTEX
  8
0
 62
7
  6
CONTINUOUS
 10
-19.4495962678
 20
-107.2170421546
  0
VERTEX
  8
0
 62
7
  6
CONTINUOUS
 10
-19.6403331457
 20
-107.6831499694
  0
VERTEX
  8
0
 62
7
  6
CONTINUOUS
 10
-19.8129512408
 20
-108.1447111423
  0
VERTEX
  8
0
 62
7
  6
CONTINUOUS
 10
-19.9662030101
 20
-108.5990935384
  0
VERTEX
  8
0
 62
7
  6
CONTINUOUS
 10
-20.1002238036
 20
-109.0464606921
  0
VERTEX
  8
0
 62
7
  6
CONTINUOUS
 10
-20.2149532535
 20
-109.4852726272
  0
VERTEX
  8
0
 62
7
  6
CONTINUOUS
 10
-20.3109846973
 20
-109.9180077414
  0
VERTEX
  8
0
 62
7
  6
CONTINUOUS
 10
-20.389256118
 20
-110.3466111605
  0
VERTEX
  8
0
 62
7
  6
CONTINUOUS
 10
-20.4496569605
 20
-110.7711427239
  0
VERTEX
  8
0
 62
7
  6
CONTINUOUS
 10
-20.492571553
 20
-111.1920157202
  0
VERTEX
  8
0
 62
7
  6
CONTINUOUS
 10
-20.5180931647
 20
-111.6101149275
  0
VERTEX
  8
0
 62
7
  6
CONTINUOUS
 10
-20.526684614
 20
-112.0256124471
  0
VERTEX
  8
0
 62
7
  6
CONTINUOUS
 10
-20.5181251845
 20
-112.4410595987
  0
VERTEX
  8
0
 62
7
  6
CONTINUOUS
 10
-20.4926604041
 20
-112.8589466865
  0
VERTEX
  8
0
 62
7
  6
CONTINUOUS
 10
-20.4498021668
 20
-113.2796288582
  0
VERTEX
  8
0
 62
7
  6
CONTINUOUS
 10
-20.3894417648
 20
-113.7041930255
  0
VERTEX
  8
0
 62
7
  6
CONTINUOUS
 10
-20.3111909571
 20
-114.1329342016
  0
VERTEX
  8
0
 62
7
  6
CONTINUOUS
 10
-20.2151418375
 20
-114.565890263
  0
VERTEX
  8
0
 62
7
  6
CONTINUOUS
 10
-20.1003866983
 20
-115.004919531
  0
VERTEX
  8
0
 62
7
  6
CONTINUOUS
 10
-19.9663484792
 20
-115.4524056914
  0
VERTEX
  8
0
 62
7
  6
CONTINUOUS
 10
-19.8131075471
 20
-115.906810528
  0
VERTEX
  8
0
 62
7
  6
CONTINUOUS
 10
-19.6405499928
 20
-116.3682584126
  0
VERTEX
  8
0
 62
7
  6
CONTINUOUS
 10
-19.449926241
 20
-116.8341452669
  0
VERTEX
  8
0
 62
7
  6
CONTINUOUS
 10
-19.2416507906
 20
-117.3037066592
  0
VERTEX
  8
0
 62
7
  6
CONTINUOUS
 10
-19.019414862
 20
-117.771548021
  0
VERTEX
  8
0
 62
7
  6
CONTINUOUS
 10
-18.7853346964
 20
-118.2340375611
  0
VERTEX
  8
0
 62
7
  6
CONTINUOUS
 10
-18.5449457483
 20
-118.6851225154
  0
VERTEX
  8
0
 62
7
  6
CONTINUOUS
 10
-18.3031508283
 20
-119.1176113935
  0
VERTEX
  8
0
 62
7
  6
CONTINUOUS
 10
-18.0624735219
 20
-119.5312885831
  0
VERTEX
  8
0
 62
7
  6
CONTINUOUS
 10
-17.8258868519
 20
-119.9238308676
  0
VERTEX
  8
0
 62
7
  6
CONTINUOUS
 10
-17.5957749262
 20
-120.2943695704
  0
VERTEX
  8
0
 62
7
  6
CONTINUOUS
 10
-17.3743908187
 20
-120.6414840952
  0
VERTEX
  8
0
 62
7
  6
CONTINUOUS
 10
-17.1637357665
 20
-120.9645069848
  0
VERTEX
  8
0
 62
7
  6
CONTINUOUS
 10
-16.9657155498
 20
-121.2621390873
  0
VERTEX
  8
0
 62
7
  6
CONTINUOUS
 10
-16.7811976518
 20
-121.53485489
  0
VERTEX
  8
0
 62
7
  6
CONTINUOUS
 10
-16.6112299956
 20
-121.7824083696
  0
VERTEX
  8
0
 62
7
  6
CONTINUOUS
 10
-16.4559696309
 20
-122.005661906
  0
VERTEX
  8
0
 62
7
  6
CONTINUOUS
 10
-16.315722165
 20
-122.2051955282
  0
VERTEX
  8
0
 62
7
  6
CONTINUOUS
 10
-16.0804949924
 20
-122.5355220654
  0
SEQEND
  0
LINE
  8
0
 62
7
  6
CONTINUOUS
 10
-16.0806329225
 20
-101.5166285364
 11
-16.3159405262
 21
-101.8470782495
  0
LINE
  8
0
 62
7
  6
CONTINUOUS
 10
-15.9056387468
 20
-101.2740808585
 11
-16.0806329225
 21
-101.5166285364
  0
LINE
  8
0
 62
7
  6
CONTINUOUS
 10
-15.7318015129
 20
-101.035696141
 11
-15.9056387468
 21
-101.2740808585
  0
LINE
  8
0
 62
7
  6
CONTINUOUS
 10
-15.724607958
 20
-101.0259805629
 11
-15.7318015129
 21
-101.035696141
  0
LINE
  8
0
 62
7
  6
CONTINUOUS
 10
-15.724607958
 20
140.9740194371
 11
384.275392042
 21
140.9740194371
  0
LINE
  8
0
 62
7
  6
CONTINUOUS
 10
-15.7317992832
 20
404.9837339597
 11
-15.724607958
 21
404.9740194371
  0
LINE
  8
0
 62
7
  6
CONTINUOUS
 10
-15.9055515537
 20
405.2219998181
 11
-15.7317992832
 21
404.9837339597
  0
LINE
  8
0
 62
7
  6
CONTINUOUS
 10
-16.0804949924
 20
405.4644779346
 11
-15.9055515537
 21
405.2219998181
  0
POLYLINE
  8
0
 62
7
  6
CONTINUOUS
 66
1
 70
0
  0
VERTEX
  8
0
 62
7
  6
CONTINUOUS
 10
-16.3159405262
 20
-198.8470782495
  0
VERTEX
  8
0
 62
7
  6
CONTINUOUS
 10
-16.4562499213
 20
-199.0466999744
  0
VERTEX
  8
0
 62
7
  6
CONTINUOUS
 10
-16.6115532046
 20
-199.2700201947
  0
VERTEX
  8
0
 62
7
  6
CONTINUOUS
 10
-16.7815488821
 20
-199.5176212725
  0
VERTEX
  8
0
 62
7
  6
CONTINUOUS
 10
-16.9660819127
 20
-199.7903699112
  0
VERTEX
  8
0
 62
7
  6
CONTINUOUS
 10
-17.1640870894
 20
-200.0879871511
  0
VERTEX
  8
0
 62
7
  6
CONTINUOUS
 10
-17.3746726946
 20
-200.4109129379
  0
VERTEX
  8
0
 62
7
  6
CONTINUOUS
 10
-17.5959422618
 20
-200.7578572593
  0
VERTEX
  8
0
 62
7
  6
CONTINUOUS
 10
-17.8259004144
 20
-201.128152393
  0
VERTEX
  8
0
 62
7
  6
CONTINUOUS
 10
-18.0622950307
 20
-201.5203714157
  0
VERTEX
  8
0
 62
7
  6
CONTINUOUS
 10
-18.3027185724
 20
-201.9335787342
  0
VERTEX
  8
0
 62
7
  6
CONTINUOUS
 10
-18.5442863493
 20
-202.3656326371
  0
VERTEX
  8
0
 62
7
  6
CONTINUOUS
 10
-18.7845822792
 20
-202.8164722122
  0
VERTEX
  8
0
 62
7
  6
CONTINUOUS
 10
-19.0186816297
 20
-203.2789194702
  0
VERTEX
  8
0
 62
7
  6
CONTINUOUS
 10
-19.2410999669
 20
-203.7470819277
  0
VERTEX
  8
0
 62
7
  6
CONTINUOUS
 10
-19.4495962678
 20
-204.2170421546
  0
VERTEX
  8
0
 62
7
  6
CONTINUOUS
 10
-19.6403331457
 20
-204.6831499694
  0
VERTEX
  8
0
 62
7
  6
CONTINUOUS
 10
-19.8129512408
 20
-205.1447111423
  0
VERTEX
  8
0
 62
7
  6
CONTINUOUS
 10
-19.9662030101
 20
-205.5990935384
  0
VERTEX
  8
0
 62
7
  6
CONTINUOUS
 10
-20.1002238036
 20
-206.0464606921
  0
VERTEX
  8
0
 62
7
  6
CONTINUOUS
 10
-20.2149532535
 20
-206.4852726272
  0
VERTEX
  8
0
 62
7
  6
CONTINUOUS
 10
-20.3109846973
 20
-206.9180077414
  0
VERTEX
  8
0
 62
7
  6
CONTINUOUS
 10
-20.389256118
 20
-207.3466111605
  0
VERTEX
  8
0
 62
7
  6
CONTINUOUS
 10
-20.4496569605
 20
-207.7711427239
  0
VERTEX
  8
0
 62
7
  6
CONTINUOUS
 10
-20.492571553
 20
-208.1920157202
  0
VERTEX
  8
0
 62
7
  6
CONTINUOUS
 10
-20.5180931647
 20
-208.6101149275
  0
VERTEX
  8
0
 62
7
  6
CONTINUOUS
 10
-20.526684614
 20
-209.0256124471
  0
VERTEX
  8
0
 62
7
  6
CONTINUOUS
 10
-20.5181251845
 20
-209.4410595987
  0
VERTEX
  8
0
 62
7
  6
CONTINUOUS
 10
-20.4926604041
 20
-209.8589466865
  0
VERTEX
  8
0
 62
7
  6
CONTINUOUS
 10
-20.4498021668
 20
-210.2796288582
  0
VERTEX
  8
0
 62
7
  6
CONTINUOUS
 10
-20.3894417648
 20
-210.7041930255
  0
VERTEX
  8
0
 62
7
  6
CONTINUOUS
 10
-20.3111909571
 20
-211.1329342016
  0
VERTEX
  8
0
 62
7
  6
CONTINUOUS
 10
-20.2151418375
 20
-211.565890263
  0
VERTEX
  8
0
 62
7
  6
CONTINUOUS
 10
-20.1003866983
 20
-212.004919531
  0
VERTEX
  8
0
 62
7
  6
CONTINUOUS
 10
-19.9663484792
 20
-212.4524056914
  0
VERTEX
  8
0
 62
7
  6
CONTINUOUS
 10
-19.8131075471
 20
-212.906810528
  0
VERTEX
  8
0
 62
7
  6
CONTINUOUS
 10
-19.6405499928
 20
-213.3682584126
  0
VERTEX
  8
0
 62
7
  6
CONTINUOUS
 10
-19.449926241
 20
-213.8341452669
  0
VERTEX
  8
0
 62
7
  6
CONTINUOUS
 10
-19.2416507906
 20
-214.3037066592
  0
VERTEX
  8
0
 62
7
  6
CONTINUOUS
 10
-19.019414862
 20
-214.771548021
  0
VERTEX
  8
0
 62
7
  6
CONTINUOUS
 10
-18.7853346964
 20
-215.2340375611
  0
VERTEX
  8
0
 62
7
  6
CONTINUOUS
 10
-18.5449457483
 20
-215.6851225154
  0
VERTEX
  8
0
 62
7
  6
CONTINUOUS
 10
-18.3031508283
 20
-216.1176113935
  0
VERTEX
  8
0
 62
7
  6
CONTINUOUS
 10
-18.0624735219
 20
-216.5312885831
  0
VERTEX
  8
0
 62
7
  6
CONTINUOUS
 10
-17.8258868519
 20
-216.9238308676
  0
VERTEX
  8
0
 62
7
  6
CONTINUOUS
 10
-17.5957749262
 20
-217.2943695704
  0
VERTEX
  8
0
 62
7
  6
CONTINUOUS
 10
-17.3743908187
 20
-217.6414840952
  0
VERTEX
  8
0
 62
7
  6
CONTINUOUS
 10
-17.1637357665
 20
-217.9645069848
  0
VERTEX
  8
0
 62
7
  6
CONTINUOUS
 10
-16.9657155498
 20
-218.2621390873
  0
VERTEX
  8
0
 62
7
  6
CONTINUOUS
 10
-16.7811976518
 20
-218.53485489
  0
VERTEX
  8
0
 62
7
  6
CONTINUOUS
 10
-16.6112299956
 20
-218.7824083696
  0
VERTEX
  8
0
 62
7
  6
CONTINUOUS
 10
-16.4559696309
 20
-219.005661906
  0
VERTEX
  8
0
 62
7
  6
CONTINUOUS
 10
-16.315722165
 20
-219.2051955282
  0
VERTEX
  8
0
 62
7
  6
CONTINUOUS
 10
-16.0804949924
 20
-219.5355220654
  0
SEQEND
  0
LINE
  8
0
 62
7
  6
CONTINUOUS
 10
384.8665062489
 20
405.7948044718
 11
384.6312790763
 21
405.4644779346
  0
LINE
  8
0
 62
7
  6
CONTINUOUS
 10
-16.0806329225
 20
-198.5166285364
 11
-16.3159405262
 21
-198.8470782495
  0
LINE
  8
0
 62
7
  6
CONTINUOUS
 10
384.6312790763
 20
405.4644779346
 11
384.4563356376
 21
405.2219998181
  0
LINE
  8
0
 62
7
  6
CONTINUOUS
 10
-15.9056387468
 20
-198.2740808585
 11
-16.0806329225
 21
-198.5166285364
  0
LINE
  8
0
 62
7
  6
CONTINUOUS
 10
-15.7318015129
 20
-198.035696141
 11
-15.9056387468
 21
-198.2740808585
  0
LINE
  8
0
 62
7
  6
CONTINUOUS
 10
384.4563356376
 20
405.2219998181
 11
384.2825833671
 21
404.9837339597
  0
LINE
  8
0
 62
7
  6
CONTINUOUS
 10
384.2825833671
 20
404.9837339597
 11
384.275392042
 21
404.9740194371
  0
LINE
  8
0
 62
7
  6
CONTINUOUS
 10
-15.724607958
 20
-198.0259805629
 11
-15.7318015129
 21
-198.035696141
  0
LINE
  8
0
 62
7
  6
CONTINUOUS
 10
384.275392042
 20
162.9740194371
 11
-15.724607958
 21
162.9740194371
  0
LINE
  8
0
 62
7
  6
CONTINUOUS
 10
384.275392042
 20
-101.0259805629
 11
384.2825855968
 21
-101.035696141
  0
LINE
  8
0
 62
7
  6
CONTINUOUS
 10
-15.7317992832
 20
501.9837339597
 11
-15.724607958
 21
501.9740194371
  0
LINE
  8
0
 62
7
  6
CONTINUOUS
 10
-15.9055515537
 20
502.2219998181
 11
-15.7317992832
 21
501.9837339597
  0
LINE
  8
0
 62
7
  6
CONTINUOUS
 10
384.2825855968
 20
-101.035696141
 11
384.4564228307
 21
-101.2740808585
  0
LINE
  8
0
 62
7
  6
CONTINUOUS
 10
384.4564228307
 20
-101.2740808585
 11
384.6314170064
 21
-101.5166285364
  0
LINE
  8
0
 62
7
  6
CONTINUOUS
 10
-16.0804949924
 20
502.4644779346
 11
-15.9055515537
 21
502.2219998181
  0
POLYLINE
  8
0
 62
7
  6
CONTINUOUS
 66
1
 70
0
  0
VERTEX
  8
0
 62
7
  6
CONTINUOUS
 10
384.6314170064
 20
-101.5166285364
  0
VERTEX
  8
0
 62
7
  6
CONTINUOUS
 10
384.8667246101
 20
-101.8470782495
  0
VERTEX
  8
0
 62
7
  6
CONTINUOUS
 10
385.0070340052
 20
-102.0466999744
  0
VERTEX
  8
0
 62
7
  6
CONTINUOUS
 10
385.1623372885
 20
-102.2700201947
  0
VERTEX
  8
0
 62
7
  6
CONTINUOUS
 10
385.332332966
 20
-102.5176212725
  0
VERTEX
  8
0
 62
7
  6
CONTINUOUS
 10
385.5168659966
 20
-102.7903699112
  0
VERTEX
  8
0
 62
7
  6
CONTINUOUS
 10
385.7148711733
 20
-103.0879871511
  0
VERTEX
  8
0
 62
7
  6
CONTINUOUS
 10
385.9254567785
 20
-103.4109129379
  0
VERTEX
  8
0
 62
7
  6
CONTINUOUS
 10
386.1467263457
 20
-103.7578572593
  0
VERTEX
  8
0
 62
7
  6
CONTINUOUS
 10
386.3766844983
 20
-104.128152393
  0
VERTEX
  8
0
 62
7
  6
CONTINUOUS
 10
386.6130791146
 20
-104.5203714157
  0
VERTEX
  8
0
 62
7
  6
CONTINUOUS
 10
386.8535026563
 20
-104.9335787342
  0
VERTEX
  8
0
 62
7
  6
CONTINUOUS
 10
387.0950704332
 20
-105.3656326371
  0
VERTEX
  8
0
 62
7
  6
CONTINUOUS
 10
387.3353663631
 20
-105.8164722122
  0
VERTEX
  8
0
 62
7
  6
CONTINUOUS
 10
387.5694657136
 20
-106.2789194702
  0
VERTEX
  8
0
 62
7
  6
CONTINUOUS
 10
387.7918840508
 20
-106.7470819277
  0
VERTEX
  8
0
 62
7
  6
CONTINUOUS
 10
388.0003803517
 20
-107.2170421546
  0
VERTEX
  8
0
 62
7
  6
CONTINUOUS
 10
388.1911172296
 20
-107.6831499694
  0
VERTEX
  8
0
 62
7
  6
CONTINUOUS
 10
388.3637353247
 20
-108.1447111423
  0
VERTEX
  8
0
 62
7
  6
CONTINUOUS
 10
388.516987094
 20
-108.5990935384
  0
VERTEX
  8
0
 62
7
  6
CONTINUOUS
 10
388.6510078875
 20
-109.0464606921
  0
VERTEX
  8
0
 62
7
  6
CONTINUOUS
 10
388.7657373374
 20
-109.4852726272
  0
VERTEX
  8
0
 62
7
  6
CONTINUOUS
 10
388.8617687812
 20
-109.9180077414
  0
VERTEX
  8
0
 62
7
  6
CONTINUOUS
 10
388.9400402019
 20
-110.3466111605
  0
VERTEX
  8
0
 62
7
  6
CONTINUOUS
 10
389.0004410444
 20
-110.7711427239
  0
VERTEX
  8
0
 62
7
  6
CONTINUOUS
 10
389.0433556369
 20
-111.1920157202
  0
VERTEX
  8
0
 62
7
  6
CONTINUOUS
 10
389.0688772486
 20
-111.6101149275
  0
VERTEX
  8
0
 62
7
  6
CONTINUOUS
 10
389.0774686979
 20
-112.0256124471
  0
VERTEX
  8
0
 62
7
  6
CONTINUOUS
 10
389.0689092684
 20
-112.4410595987
  0
VERTEX
  8
0
 62
7
  6
CONTINUOUS
 10
389.043444488
 20
-112.8589466865
  0
VERTEX
  8
0
 62
7
  6
CONTINUOUS
 10
389.0005862507
 20
-113.2796288582
  0
VERTEX
  8
0
 62
7
  6
CONTINUOUS
 10
388.9402258487
 20
-113.7041930255
  0
VERTEX
  8
0
 62
7
  6
CONTINUOUS
 10
388.861975041
 20
-114.1329342016
  0
VERTEX
  8
0
 62
7
  6
CONTINUOUS
 10
388.7659259214
 20
-114.565890263
  0
VERTEX
  8
0
 62
7
  6
CONTINUOUS
 10
388.6511707822
 20
-115.004919531
  0
VERTEX
  8
0
 62
7
  6
CONTINUOUS
 10
388.5171325631
 20
-115.4524056914
  0
VERTEX
  8
0
 62
7
  6
CONTINUOUS
 10
388.363891631
 20
-115.906810528
  0
VERTEX
  8
0
 62
7
  6
CONTINUOUS
 10
388.1913340767
 20
-116.3682584126
  0
VERTEX
  8
0
 62
7
  6
CONTINUOUS
 10
388.0007103249
 20
-116.8341452669
  0
VERTEX
  8
0
 62
7
  6
CONTINUOUS
 10
387.7924348745
 20
-117.3037066592
  0
VERTEX
  8
0
 62
7
  6
CONTINUOUS
 10
387.5701989459
 20
-117.771548021
  0
VERTEX
  8
0
 62
7
  6
CONTINUOUS
 10
387.3361187803
 20
-118.2340375611
  0
VERTEX
  8
0
 62
7
  6
CONTINUOUS
 10
387.0957298322
 20
-118.6851225154
  0
VERTEX
  8
0
 62
7
  6
CONTINUOUS
 10
386.8539349122
 20
-119.1176113935
  0
VERTEX
  8
0
 62
7
  6
CONTINUOUS
 10
386.6132576059
 20
-119.5312885831
  0
VERTEX
  8
0
 62
7
  6
CONTINUOUS
 10
386.3766709359
 20
-119.9238308676
  0
VERTEX
  8
0
 62
7
  6
CONTINUOUS
 10
386.1465590101
 20
-120.2943695704
  0
VERTEX
  8
0
 62
7
  6
CONTINUOUS
 10
385.9251749026
 20
-120.6414840952
  0
VERTEX
  8
0
 62
7
  6
CONTINUOUS
 10
385.7145198504
 20
-120.9645069848
  0
VERTEX
  8
0
 62
7
  6
CONTINUOUS
 10
385.5164996337
 20
-121.2621390873
  0
VERTEX
  8
0
 62
7
  6
CONTINUOUS
 10
385.3319817357
 20
-121.53485489
  0
VERTEX
  8
0
 62
7
  6
CONTINUOUS
 10
385.1620140795
 20
-121.7824083696
  0
VERTEX
  8
0
 62
7
  6
CONTINUOUS
 10
385.0067537148
 20
-122.005661906
  0
VERTEX
  8
0
 62
7
  6
CONTINUOUS
 10
384.8665062489
 20
-122.2051955282
  0
SEQEND
  0
LINE
  8
0
 62
7
  6
CONTINUOUS
 10
-15.724607958
 20
237.9740194371
 11
384.275392042
 21
237.9740194371
  0
POLYLINE
  8
0
 62
7
  6
CONTINUOUS
 66
1
 70
0
  0
VERTEX
  8
0
 62
7
  6
CONTINUOUS
 10
-16.3159405262
 20
-295.8470782495
  0
VERTEX
  8
0
 62
7
  6
CONTINUOUS
 10
-16.4562499213
 20
-296.0466999744
  0
VERTEX
  8
0
 62
7
  6
CONTINUOUS
 10
-16.6115532046
 20
-296.2700201947
  0
VERTEX
  8
0
 62
7
  6
CONTINUOUS
 10
-16.7815488821
 20
-296.5176212725
  0
VERTEX
  8
0
 62
7
  6
CONTINUOUS
 10
-16.9660819127
 20
-296.7903699112
  0
VERTEX
  8
0
 62
7
  6
CONTINUOUS
 10
-17.1640870894
 20
-297.0879871511
  0
VERTEX
  8
0
 62
7
  6
CONTINUOUS
 10
-17.3746726946
 20
-297.4109129379
  0
VERTEX
  8
0
 62
7
  6
CONTINUOUS
 10
-17.5959422618
 20
-297.7578572593
  0
VERTEX
  8
0
 62
7
  6
CONTINUOUS
 10
-17.8259004144
 20
-298.128152393
  0
VERTEX
  8
0
 62
7
  6
CONTINUOUS
 10
-18.0622950307
 20
-298.5203714157
  0
VERTEX
  8
0
 62
7
  6
CONTINUOUS
 10
-18.3027185724
 20
-298.9335787342
  0
VERTEX
  8
0
 62
7
  6
CONTINUOUS
 10
-18.5442863493
 20
-299.3656326371
  0
VERTEX
  8
0
 62
7
  6
CONTINUOUS
 10
-18.7845822792
 20
-299.8164722122
  0
VERTEX
  8
0
 62
7
  6
CONTINUOUS
 10
-19.0186816297
 20
-300.2789194702
  0
VERTEX
  8
0
 62
7
  6
CONTINUOUS
 10
-19.2410999669
 20
-300.7470819277
  0
VERTEX
  8
0
 62
7
  6
CONTINUOUS
 10
-19.4495962678
 20
-301.2170421546
  0
VERTEX
  8
0
 62
7
  6
CONTINUOUS
 10
-19.6403331457
 20
-301.6831499694
  0
VERTEX
  8
0
 62
7
  6
CONTINUOUS
 10
-19.8129512408
 20
-302.1447111423
  0
VERTEX
  8
0
 62
7
  6
CONTINUOUS
 10
-19.9662030101
 20
-302.5990935384
  0
VERTEX
  8
0
 62
7
  6
CONTINUOUS
 10
-20.1002238036
 20
-303.0464606921
  0
VERTEX
  8
0
 62
7
  6
CONTINUOUS
 10
-20.2149532535
 20
-303.4852726272
  0
VERTEX
  8
0
 62
7
  6
CONTINUOUS
 10
-20.3109846973
 20
-303.9180077414
  0
VERTEX
  8
0
 62
7
  6
CONTINUOUS
 10
-20.389256118
 20
-304.3466111605
  0
VERTEX
  8
0
 62
7
  6
CONTINUOUS
 10
-20.4496569605
 20
-304.7711427239
  0
VERTEX
  8
0
 62
7
  6
CONTINUOUS
 10
-20.492571553
 20
-305.1920157202
  0
VERTEX
  8
0
 62
7
  6
CONTINUOUS
 10
-20.5180931647
 20
-305.6101149275
  0
VERTEX
  8
0
 62
7
  6
CONTINUOUS
 10
-20.526684614
 20
-306.0256124471
  0
VERTEX
  8
0
 62
7
  6
CONTINUOUS
 10
-20.5181251845
 20
-306.4410595987
  0
VERTEX
  8
0
 62
7
  6
CONTINUOUS
 10
-20.4926604041
 20
-306.8589466865
  0
VERTEX
  8
0
 62
7
  6
CONTINUOUS
 10
-20.4498021668
 20
-307.2796288582
  0
VERTEX
  8
0
 62
7
  6
CONTINUOUS
 10
-20.3894417648
 20
-307.7041930255
  0
VERTEX
  8
0
 62
7
  6
CONTINUOUS
 10
-20.3111909571
 20
-308.1329342016
  0
VERTEX
  8
0
 62
7
  6
CONTINUOUS
 10
-20.2151418375
 20
-308.565890263
  0
VERTEX
  8
0
 62
7
  6
CONTINUOUS
 10
-20.1003866983
 20
-309.004919531
  0
VERTEX
  8
0
 62
7
  6
CONTINUOUS
 10
-19.9663484792
 20
-309.4524056914
  0
VERTEX
  8
0
 62
7
  6
CONTINUOUS
 10
-19.8131075471
 20
-309.906810528
  0
VERTEX
  8
0
 62
7
  6
CONTINUOUS
 10
-19.6405499928
 20
-310.3682584126
  0
VERTEX
  8
0
 62
7
  6
CONTINUOUS
 10
-19.449926241
 20
-310.8341452669
  0
VERTEX
  8
0
 62
7
  6
CONTINUOUS
 10
-19.2416507906
 20
-311.3037066592
  0
VERTEX
  8
0
 62
7
  6
CONTINUOUS
 10
-19.019414862
 20
-311.771548021
  0
VERTEX
  8
0
 62
7
  6
CONTINUOUS
 10
-18.7853346964
 20
-312.2340375611
  0
VERTEX
  8
0
 62
7
  6
CONTINUOUS
 10
-18.5449457483
 20
-312.6851225154
  0
VERTEX
  8
0
 62
7
  6
CONTINUOUS
 10
-18.3031508283
 20
-313.1176113935
  0
VERTEX
  8
0
 62
7
  6
CONTINUOUS
 10
-18.0624735219
 20
-313.5312885831
  0
VERTEX
  8
0
 62
7
  6
CONTINUOUS
 10
-17.8258868519
 20
-313.9238308676
  0
VERTEX
  8
0
 62
7
  6
CONTINUOUS
 10
-17.5957749262
 20
-314.2943695704
  0
VERTEX
  8
0
 62
7
  6
CONTINUOUS
 10
-17.3743908187
 20
-314.6414840952
  0
VERTEX
  8
0
 62
7
  6
CONTINUOUS
 10
-17.1637357665
 20
-314.9645069848
  0
VERTEX
  8
0
 62
7
  6
CONTINUOUS
 10
-16.9657155498
 20
-315.2621390873
  0
VERTEX
  8
0
 62
7
  6
CONTINUOUS
 10
-16.7811976518
 20
-315.53485489
  0
VERTEX
  8
0
 62
7
  6
CONTINUOUS
 10
-16.6112299956
 20
-315.7824083696
  0
VERTEX
  8
0
 62
7
  6
CONTINUOUS
 10
-16.4559696309
 20
-316.005661906
  0
VERTEX
  8
0
 62
7
  6
CONTINUOUS
 10
-16.315722165
 20
-316.2051955282
  0
VERTEX
  8
0
 62
7
  6
CONTINUOUS
 10
-16.0804949924
 20
-316.5355220654
  0
SEQEND
  0
LINE
  8
0
 62
7
  6
CONTINUOUS
 10
-16.0806329225
 20
-295.5166285364
 11
-16.3159405262
 21
-295.8470782495
  0
LINE
  8
0
 62
7
  6
CONTINUOUS
 10
384.8665062489
 20
238.7948044718
 11
384.6312790763
 21
238.4644779346
  0
LINE
  8
0
 62
7
  6
CONTINUOUS
 10
-15.9056387468
 20
-295.2740808585
 11
-16.0806329225
 21
-295.5166285364
  0
LINE
  8
0
 62
7
  6
CONTINUOUS
 10
384.6312790763
 20
238.4644779346
 11
384.4563356376
 21
238.2219998181
  0
LINE
  8
0
 62
7
  6
CONTINUOUS
 10
-15.7318015129
 20
-295.035696141
 11
-15.9056387468
 21
-295.2740808585
  0
LINE
  8
0
 62
7
  6
CONTINUOUS
 10
384.4563356376
 20
238.2219998181
 11
384.2825833671
 21
237.9837339597
  0
LINE
  8
0
 62
7
  6
CONTINUOUS
 10
384.2825833671
 20
237.9837339597
 11
384.275392042
 21
237.9740194371
  0
LINE
  8
0
 62
7
  6
CONTINUOUS
 10
-15.724607958
 20
-295.0259805629
 11
-15.7318015129
 21
-295.035696141
  0
LINE
  8
0
 62
7
  6
CONTINUOUS
 10
384.275392042
 20
259.9740194371
 11
-15.724607958
 21
259.9740194371
  0
LINE
  8
0
 62
7
  6
CONTINUOUS
 10
-15.7317992832
 20
598.9837339597
 11
-15.724607958
 21
598.9740194371
  0
LINE
  8
0
 62
7
  6
CONTINUOUS
 10
384.275392042
 20
65.9740194371
 11
384.2825855968
 21
65.964303859
  0
LINE
  8
0
 62
7
  6
CONTINUOUS
 10
-15.9055515537
 20
599.2219998181
 11
-15.7317992832
 21
598.9837339597
  0
LINE
  8
0
 62
7
  6
CONTINUOUS
 10
384.2825855968
 20
65.964303859
 11
384.4564228307
 21
65.7259191415
  0
LINE
  8
0
 62
7
  6
CONTINUOUS
 10
-16.0804949924
 20
599.4644779346
 11
-15.9055515537
 21
599.2219998181
  0
LINE
  8
0
 62
7
  6
CONTINUOUS
 10
384.4564228307
 20
65.7259191415
 11
384.6314170064
 21
65.4833714636
  0
POLYLINE
  8
0
 62
7
  6
CONTINUOUS
 66
1
 70
0
  0
VERTEX
  8
0
 62
7
  6
CONTINUOUS
 10
384.6314170064
 20
65.4833714636
  0
VERTEX
  8
0
 62
7
  6
CONTINUOUS
 10
384.8667246101
 20
65.1529217505
  0
VERTEX
  8
0
 62
7
  6
CONTINUOUS
 10
385.0070340052
 20
64.9533000256
  0
VERTEX
  8
0
 62
7
  6
CONTINUOUS
 10
385.1623372885
 20
64.7299798053
  0
VERTEX
  8
0
 62
7
  6
CONTINUOUS
 10
385.332332966
 20
64.4823787275
  0
VERTEX
  8
0
 62
7
  6
CONTINUOUS
 10
385.5168659966
 20
64.2096300888
  0
VERTEX
  8
0
 62
7
  6
CONTINUOUS
 10
385.7148711733
 20
63.9120128489
  0
VERTEX
  8
0
 62
7
  6
CONTINUOUS
 10
385.9254567785
 20
63.5890870621
  0
VERTEX
  8
0
 62
7
  6
CONTINUOUS
 10
386.1467263457
 20
63.2421427407
  0
VERTEX
  8
0
 62
7
  6
CONTINUOUS
 10
386.3766844983
 20
62.871847607
  0
VERTEX
  8
0
 62
7
  6
CONTINUOUS
 10
386.6130791146
 20
62.4796285843
  0
VERTEX
  8
0
 62
7
  6
CONTINUOUS
 10
386.8535026563
 20
62.0664212658
  0
VERTEX
  8
0
 62
7
  6
CONTINUOUS
 10
387.0950704332
 20
61.6343673629
  0
VERTEX
  8
0
 62
7
  6
CONTINUOUS
 10
387.3353663631
 20
61.1835277878
  0
VERTEX
  8
0
 62
7
  6
CONTINUOUS
 10
387.5694657136
 20
60.7210805298
  0
VERTEX
  8
0
 62
7
  6
CONTINUOUS
 10
387.7918840508
 20
60.2529180723
  0
VERTEX
  8
0
 62
7
  6
CONTINUOUS
 10
388.0003803517
 20
59.7829578454
  0
VERTEX
  8
0
 62
7
  6
CONTINUOUS
 10
388.1911172296
 20
59.3168500306
  0
VERTEX
  8
0
 62
7
  6
CONTINUOUS
 10
388.3637353247
 20
58.8552888577
  0
VERTEX
  8
0
 62
7
  6
CONTINUOUS
 10
388.516987094
 20
58.4009064616
  0
VERTEX
  8
0
 62
7
  6
CONTINUOUS
 10
388.6510078875
 20
57.9535393079
  0
VERTEX
  8
0
 62
7
  6
CONTINUOUS
 10
388.7657373374
 20
57.5147273728
  0
VERTEX
  8
0
 62
7
  6
CONTINUOUS
 10
388.8617687812
 20
57.0819922586
  0
VERTEX
  8
0
 62
7
  6
CONTINUOUS
 10
388.9400402019
 20
56.6533888395
  0
VERTEX
  8
0
 62
7
  6
CONTINUOUS
 10
389.0004410444
 20
56.2288572761
  0
VERTEX
  8
0
 62
7
  6
CONTINUOUS
 10
389.0433556369
 20
55.8079842798
  0
VERTEX
  8
0
 62
7
  6
CONTINUOUS
 10
389.0688772486
 20
55.3898850725
  0
VERTEX
  8
0
 62
7
  6
CONTINUOUS
 10
389.0774686979
 20
54.9743875529
  0
VERTEX
  8
0
 62
7
  6
CONTINUOUS
 10
389.0689092684
 20
54.5589404013
  0
VERTEX
  8
0
 62
7
  6
CONTINUOUS
 10
389.043444488
 20
54.1410533135
  0
VERTEX
  8
0
 62
7
  6
CONTINUOUS
 10
389.0005862507
 20
53.7203711418
  0
VERTEX
  8
0
 62
7
  6
CONTINUOUS
 10
388.9402258487
 20
53.2958069745
  0
VERTEX
  8
0
 62
7
  6
CONTINUOUS
 10
388.861975041
 20
52.8670657984
  0
VERTEX
  8
0
 62
7
  6
CONTINUOUS
 10
388.7659259214
 20
52.434109737
  0
VERTEX
  8
0
 62
7
  6
CONTINUOUS
 10
388.6511707822
 20
51.995080469
  0
VERTEX
  8
0
 62
7
  6
CONTINUOUS
 10
388.5171325631
 20
51.5475943086
  0
VERTEX
  8
0
 62
7
  6
CONTINUOUS
 10
388.363891631
 20
51.093189472
  0
VERTEX
  8
0
 62
7
  6
CONTINUOUS
 10
388.1913340767
 20
50.6317415874
  0
VERTEX
  8
0
 62
7
  6
CONTINUOUS
 10
388.0007103249
 20
50.1658547331
  0
VERTEX
  8
0
 62
7
  6
CONTINUOUS
 10
387.7924348745
 20
49.6962933408
  0
VERTEX
  8
0
 62
7
  6
CONTINUOUS
 10
387.5701989459
 20
49.228451979
  0
VERTEX
  8
0
 62
7
  6
CONTINUOUS
 10
387.3361187803
 20
48.7659624389
  0
VERTEX
  8
0
 62
7
  6
CONTINUOUS
 10
387.0957298322
 20
48.3148774846
  0
VERTEX
  8
0
 62
7
  6
CONTINUOUS
 10
386.8539349122
 20
47.8823886065
  0
VERTEX
  8
0
 62
7
  6
CONTINUOUS
 10
386.6132576059
 20
47.4687114169
  0
VERTEX
  8
0
 62
7
  6
CONTINUOUS
 10
386.3766709359
 20
47.0761691324
  0
VERTEX
  8
0
 62
7
  6
CONTINUOUS
 10
386.1465590101
 20
46.7056304296
  0
VERTEX
  8
0
 62
7
  6
CONTINUOUS
 10
385.9251749026
 20
46.3585159048
  0
VERTEX
  8
0
 62
7
  6
CONTINUOUS
 10
385.7145198504
 20
46.0354930152
  0
VERTEX
  8
0
 62
7
  6
CONTINUOUS
 10
385.5164996337
 20
45.7378609127
  0
VERTEX
  8
0
 62
7
  6
CONTINUOUS
 10
385.3319817357
 20
45.46514511
  0
VERTEX
  8
0
 62
7
  6
CONTINUOUS
 10
385.1620140795
 20
45.2175916304
  0
VERTEX
  8
0
 62
7
  6
CONTINUOUS
 10
385.0067537148
 20
44.994338094
  0
VERTEX
  8
0
 62
7
  6
CONTINUOUS
 10
384.8665062489
 20
44.7948044718
  0
SEQEND
  0
POLYLINE
  8
0
 62
7
  6
CONTINUOUS
 66
1
 70
0
  0
VERTEX
  8
0
 62
7
  6
CONTINUOUS
 10
-16.3159405262
 20
-392.8470782495
  0
VERTEX
  8
0
 62
7
  6
CONTINUOUS
 10
-16.4562499213
 20
-393.0466999744
  0
VERTEX
  8
0
 62
7
  6
CONTINUOUS
 10
-16.6115532046
 20
-393.2700201947
  0
VERTEX
  8
0
 62
7
  6
CONTINUOUS
 10
-16.7815488821
 20
-393.5176212725
  0
VERTEX
  8
0
 62
7
  6
CONTINUOUS
 10
-16.9660819127
 20
-393.7903699112
  0
VERTEX
  8
0
 62
7
  6
CONTINUOUS
 10
-17.1640870894
 20
-394.0879871511
  0
VERTEX
  8
0
 62
7
  6
CONTINUOUS
 10
-17.3746726946
 20
-394.4109129379
  0
VERTEX
  8
0
 62
7
  6
CONTINUOUS
 10
-17.5959422618
 20
-394.7578572593
  0
VERTEX
  8
0
 62
7
  6
CONTINUOUS
 10
-17.8259004144
 20
-395.128152393
  0
VERTEX
  8
0
 62
7
  6
CONTINUOUS
 10
-18.0622950307
 20
-395.5203714157
  0
VERTEX
  8
0
 62
7
  6
CONTINUOUS
 10
-18.3027185724
 20
-395.9335787342
  0
VERTEX
  8
0
 62
7
  6
CONTINUOUS
 10
-18.5442863493
 20
-396.3656326371
  0
VERTEX
  8
0
 62
7
  6
CONTINUOUS
 10
-18.7845822792
 20
-396.8164722122
  0
VERTEX
  8
0
 62
7
  6
CONTINUOUS
 10
-19.0186816297
 20
-397.2789194702
  0
VERTEX
  8
0
 62
7
  6
CONTINUOUS
 10
-19.2410999669
 20
-397.7470819277
  0
VERTEX
  8
0
 62
7
  6
CONTINUOUS
 10
-19.4495962678
 20
-398.2170421546
  0
VERTEX
  8
0
 62
7
  6
CONTINUOUS
 10
-19.6403331457
 20
-398.6831499694
  0
VERTEX
  8
0
 62
7
  6
CONTINUOUS
 10
-19.8129512408
 20
-399.1447111423
  0
VERTEX
  8
0
 62
7
  6
CONTINUOUS
 10
-19.9662030101
 20
-399.5990935384
  0
VERTEX
  8
0
 62
7
  6
CONTINUOUS
 10
-20.1002238036
 20
-400.0464606921
  0
VERTEX
  8
0
 62
7
  6
CONTINUOUS
 10
-20.2149532535
 20
-400.4852726272
  0
VERTEX
  8
0
 62
7
  6
CONTINUOUS
 10
-20.3109846973
 20
-400.9180077414
  0
VERTEX
  8
0
 62
7
  6
CONTINUOUS
 10
-20.389256118
 20
-401.3466111605
  0
VERTEX
  8
0
 62
7
  6
CONTINUOUS
 10
-20.4496569605
 20
-401.7711427239
  0
VERTEX
  8
0
 62
7
  6
CONTINUOUS
 10
-20.492571553
 20
-402.1920157202
  0
VERTEX
  8
0
 62
7
  6
CONTINUOUS
 10
-20.5180931647
 20
-402.6101149275
  0
VERTEX
  8
0
 62
7
  6
CONTINUOUS
 10
-20.526684614
 20
-403.0256124471
  0
VERTEX
  8
0
 62
7
  6
CONTINUOUS
 10
-20.5181251845
 20
-403.4410595987
  0
VERTEX
  8
0
 62
7
  6
CONTINUOUS
 10
-20.4926604041
 20
-403.8589466865
  0
VERTEX
  8
0
 62
7
  6
CONTINUOUS
 10
-20.4498021668
 20
-404.2796288582
  0
VERTEX
  8
0
 62
7
  6
CONTINUOUS
 10
-20.3894417648
 20
-404.7041930255
  0
VERTEX
  8
0
 62
7
  6
CONTINUOUS
 10
-20.3111909571
 20
-405.1329342016
  0
VERTEX
  8
0
 62
7
  6
CONTINUOUS
 10
-20.2151418375
 20
-405.565890263
  0
VERTEX
  8
0
 62
7
  6
CONTINUOUS
 10
-20.1003866983
 20
-406.004919531
  0
VERTEX
  8
0
 62
7
  6
CONTINUOUS
 10
-19.9663484792
 20
-406.4524056914
  0
VERTEX
  8
0
 62
7
  6
CONTINUOUS
 10
-19.8131075471
 20
-406.906810528
  0
VERTEX
  8
0
 62
7
  6
CONTINUOUS
 10
-19.6405499928
 20
-407.3682584126
  0
VERTEX
  8
0
 62
7
  6
CONTINUOUS
 10
-19.449926241
 20
-407.8341452669
  0
VERTEX
  8
0
 62
7
  6
CONTINUOUS
 10
-19.2416507906
 20
-408.3037066592
  0
VERTEX
  8
0
 62
7
  6
CONTINUOUS
 10
-19.019414862
 20
-408.771548021
  0
VERTEX
  8
0
 62
7
  6
CONTINUOUS
 10
-18.7853346964
 20
-409.2340375611
  0
VERTEX
  8
0
 62
7
  6
CONTINUOUS
 10
-18.5449457483
 20
-409.6851225154
  0
VERTEX
  8
0
 62
7
  6
CONTINUOUS
 10
-18.3031508283
 20
-410.1176113935
  0
VERTEX
  8
0
 62
7
  6
CONTINUOUS
 10
-18.0624735219
 20
-410.5312885831
  0
VERTEX
  8
0
 62
7
  6
CONTINUOUS
 10
-17.8258868519
 20
-410.9238308676
  0
VERTEX
  8
0
 62
7
  6
CONTINUOUS
 10
-17.5957749262
 20
-411.2943695704
  0
VERTEX
  8
0
 62
7
  6
CONTINUOUS
 10
-17.3743908187
 20
-411.6414840952
  0
VERTEX
  8
0
 62
7
  6
CONTINUOUS
 10
-17.1637357665
 20
-411.9645069848
  0
VERTEX
  8
0
 62
7
  6
CONTINUOUS
 10
-16.9657155498
 20
-412.2621390873
  0
VERTEX
  8
0
 62
7
  6
CONTINUOUS
 10
-16.7811976518
 20
-412.53485489
  0
VERTEX
  8
0
 62
7
  6
CONTINUOUS
 10
-16.6112299956
 20
-412.7824083696
  0
VERTEX
  8
0
 62
7
  6
CONTINUOUS
 10
-16.4559696309
 20
-413.005661906
  0
VERTEX
  8
0
 62
7
  6
CONTINUOUS
 10
-16.315722165
 20
-413.2051955282
  0
VERTEX
  8
0
 62
7
  6
CONTINUOUS
 10
-16.0804949924
 20
-413.5355220654
  0
SEQEND
  0
LINE
  8
0
 62
7
  6
CONTINUOUS
 10
-16.0806329225
 20
-392.5166285364
 11
-16.3159405262
 21
-392.8470782495
  0
LINE
  8
0
 62
7
  6
CONTINUOUS
 10
384.8665051579
 20
141.7948029259
 11
384.6312784328
 21
141.4644770387
  0
LINE
  8
0
 62
7
  6
CONTINUOUS
 10
-15.9056387468
 20
-392.2740808585
 11
-16.0806329225
 21
-392.5166285364
  0
LINE
  8
0
 62
7
  6
CONTINUOUS
 10
384.6312784328
 20
141.4644770387
 11
384.4563353033
 21
141.2219993585
  0
LINE
  8
0
 62
7
  6
CONTINUOUS
 10
-15.7318015129
 20
-392.035696141
 11
-15.9056387468
 21
-392.2740808585
  0
LINE
  8
0
 62
7
  6
CONTINUOUS
 10
384.4563353033
 20
141.2219993585
 11
384.2825833516
 21
140.9837339363
  0
LINE
  8
0
 62
7
  6
CONTINUOUS
 10
384.2825833516
 20
140.9837339363
 11
384.275392042
 21
140.9740194371
  0
LINE
  8
0
 62
7
  6
CONTINUOUS
 10
-15.724607958
 20
-392.0259805629
 11
-15.7318015129
 21
-392.035696141
  0
LINE
  8
0
 62
7
  6
CONTINUOUS
 10
-15.7317992832
 20
695.9837339597
 11
-15.724607958
 21
695.9740194371
  0
LINE
  8
0
 62
7
  6
CONTINUOUS
 10
384.275392042
 20
162.9740194371
 11
384.2825855855
 21
162.9643038715
  0
LINE
  8
0
 62
7
  6
CONTINUOUS
 10
-15.9055515537
 20
696.2219998181
 11
-15.7317992832
 21
695.9837339597
  0
LINE
  8
0
 62
7
  6
CONTINUOUS
 10
384.2825855855
 20
162.9643038715
 11
384.4564224863
 21
162.7259196168
  0
LINE
  8
0
 62
7
  6
CONTINUOUS
 10
-16.0804949924
 20
696.4644779346
 11
-15.9055515537
 21
696.2219998181
  0
LINE
  8
0
 62
7
  6
CONTINUOUS
 10
384.4564224863
 20
162.7259196168
 11
384.6314163071
 21
162.4833724388
  0
POLYLINE
  8
0
 62
7
  6
CONTINUOUS
 66
1
 70
0
  0
VERTEX
  8
0
 62
7
  6
CONTINUOUS
 10
384.6314163071
 20
162.4833724388
  0
VERTEX
  8
0
 62
7
  6
CONTINUOUS
 10
384.8667234633
 20
162.152923372
  0
VERTEX
  8
0
 62
7
  6
CONTINUOUS
 10
385.0070326069
 20
161.9533020248
  0
VERTEX
  8
0
 62
7
  6
CONTINUOUS
 10
385.162335626
 20
161.729982201
  0
VERTEX
  8
0
 62
7
  6
CONTINUOUS
 10
385.3323309723
 20
161.4823816511
  0
VERTEX
  8
0
 62
7
  6
CONTINUOUS
 10
385.5168635033
 20
161.2096338115
  0
VERTEX
  8
0
 62
7
  6
CONTINUOUS
 10
385.7148680836
 20
160.9120175365
  0
VERTEX
  8
0
 62
7
  6
CONTINUOUS
 10
385.9254530245
 20
160.5890928976
  0
VERTEX
  8
0
 62
7
  6
CONTINUOUS
 10
386.1467219758
 20
160.2421496796
  0
VERTEX
  8
0
 62
7
  6
CONTINUOUS
 10
386.3766797041
 20
159.871855454
  0
VERTEX
  8
0
 62
7
  6
CONTINUOUS
 10
386.6130741659
 20
159.4796369329
  0
VERTEX
  8
0
 62
7
  6
CONTINUOUS
 10
386.8534980566
 20
159.0664292865
  0
VERTEX
  8
0
 62
7
  6
CONTINUOUS
 10
387.0950664148
 20
158.6343747116
  0
VERTEX
  8
0
 62
7
  6
CONTINUOUS
 10
387.3353631383
 20
158.1835338177
  0
VERTEX
  8
0
 62
7
  6
CONTINUOUS
 10
387.5694627644
 20
157.7210865371
  0
VERTEX
  8
0
 62
7
  6
CONTINUOUS
 10
387.7918796255
 20
157.2529278324
  0
VERTEX
  8
0
 62
7
  6
CONTINUOUS
 10
388.0003737932
 20
156.7829732224
  0
VERTEX
  8
0
 62
7
  6
CONTINUOUS
 10
388.1911080502
 20
156.3168742972
  0
VERTEX
  8
0
 62
7
  6
CONTINUOUS
 10
388.3637250282
 20
155.8553178047
  0
VERTEX
  8
0
 62
7
  6
CONTINUOUS
 10
388.5169823142
 20
155.4009172923
  0
VERTEX
  8
0
 62
7
  6
CONTINUOUS
 10
388.6510065853
 20
154.9535439515
  0
VERTEX
  8
0
 62
7
  6
CONTINUOUS
 10
388.7657297353
 20
154.5147478208
  0
VERTEX
  8
0
 62
7
  6
CONTINUOUS
 10
388.8617457754
 20
154.082105907
  0
VERTEX
  8
0
 62
7
  6
CONTINUOUS
 10
388.9399823225
 20
153.653764335
  0
VERTEX
  8
0
 62
7
  6
CONTINUOUS
 10
389.0003544925
 20
153.2295657895
  0
VERTEX
  8
0
 62
7
  6
CONTINUOUS
 10
389.0432728987
 20
152.8090678576
  0
VERTEX
  8
0
 62
7
  6
CONTINUOUS
 10
389.0688206457
 20
152.3912719578
  0
VERTEX
  8
0
 62
7
  6
CONTINUOUS
 10
389.0774688088
 20
151.9758692635
  0
VERTEX
  8
0
 62
7
  6
CONTINUOUS
 10
389.06896642
 20
151.5603480976
  0
VERTEX
  8
0
 62
7
  6
CONTINUOUS
 10
389.0435292218
 20
151.1421647325
  0
VERTEX
  8
0
 62
7
  6
CONTINUOUS
 10
389.0006759462
 20
150.7211064918
  0
VERTEX
  8
0
 62
7
  6
CONTINUOUS
 10
388.9402863027
 20
150.2961999261
  0
VERTEX
  8
0
 62
7
  6
CONTINUOUS
 10
388.8619988807
 20
149.8671836268
  0
VERTEX
  8
0
 62
7
  6
CONTINUOUS
 10
388.7659309933
 20
149.4341205255
  0
VERTEX
  8
0
 62
7
  6
CONTINUOUS
 10
388.6511662069
 20
148.9950641514
  0
VERTEX
  8
0
 62
7
  6
CONTINUOUS
 10
388.517129877
 20
148.5475812728
  0
VERTEX
  8
0
 62
7
  6
CONTINUOUS
 10
388.3638936343
 20
148.0931951046
  0
VERTEX
  8
0
 62
7
  6
CONTINUOUS
 10
388.1913345565
 20
147.6317435371
  0
VERTEX
  8
0
 62
7
  6
CONTINUOUS
 10
388.0007080137
 20
147.1658493135
  0
VERTEX
  8
0
 62
7
  6
CONTINUOUS
 10
387.7924301599
 20
146.6962832351
  0
VERTEX
  8
0
 62
7
  6
CONTINUOUS
 10
387.5701925837
 20
146.2284390175
  0
VERTEX
  8
0
 62
7
  6
CONTINUOUS
 10
387.3361126861
 20
145.765950554
  0
VERTEX
  8
0
 62
7
  6
CONTINUOUS
 10
387.095724708
 20
145.3148681123
  0
VERTEX
  8
0
 62
7
  6
CONTINUOUS
 10
386.8539307874
 20
144.8823813373
  0
VERTEX
  8
0
 62
7
  6
CONTINUOUS
 10
386.6132543895
 20
144.4687059906
  0
VERTEX
  8
0
 62
7
  6
CONTINUOUS
 10
386.3766681997
 20
144.0761646795
  0
VERTEX
  8
0
 62
7
  6
CONTINUOUS
 10
386.1465565427
 20
143.7056265118
  0
VERTEX
  8
0
 62
7
  6
CONTINUOUS
 10
385.9251725436
 20
143.3585122664
  0
VERTEX
  8
0
 62
7
  6
CONTINUOUS
 10
385.7145175585
 20
143.035489538
  0
VERTEX
  8
0
 62
7
  6
CONTINUOUS
 10
385.5164974618
 20
142.7378576844
  0
VERTEX
  8
0
 62
7
  6
CONTINUOUS
 10
385.3319797479
 20
142.4651421951
  0
VERTEX
  8
0
 62
7
  6
CONTINUOUS
 10
385.1620123925
 20
142.2175891812
  0
VERTEX
  8
0
 62
7
  6
CONTINUOUS
 10
385.0067523457
 20
141.9943361364
  0
VERTEX
  8
0
 62
7
  6
CONTINUOUS
 10
384.8665051579
 20
141.7948029259
  0
SEQEND
  0
LINE
  8
0
 62
7
  6
CONTINUOUS
 10
384.275392042
 20
761.9740194371
 11
384.275392042
 21
717.9740194371
  0
LINE
  8
0
 62
7
  6
CONTINUOUS
 10
384.275392042
 20
695.9740194371
 11
384.275392042
 21
620.9740194371
  0
LINE
  8
0
 62
7
  6
CONTINUOUS
 10
384.275392042
 20
598.9740194371
 11
384.275392042
 21
523.9740194371
  0
LINE
  8
0
 62
7
  6
CONTINUOUS
 10
384.275392042
 20
501.9740194371
 11
384.275392042
 21
426.9740194371
  0
LINE
  8
0
 62
7
  6
CONTINUOUS
 10
384.275392042
 20
404.9740194371
 11
384.275392042
 21
259.9740194371
  0
LINE
  8
0
 62
7
  6
CONTINUOUS
 10
384.275392042
 20
237.9740194371
 11
384.275392042
 21
162.9740194371
  0
LINE
  8
0
 62
7
  6
CONTINUOUS
 10
384.275392042
 20
140.9740194371
 11
384.275392042
 21
65.9740194371
  0
LINE
  8
0
 62
7
  6
CONTINUOUS
 10
384.275392042
 20
43.9740194371
 11
384.275392042
 21
-101.0259805629
  0
LINE
  8
0
 62
7
  6
CONTINUOUS
 10
384.275392042
 20
-123.0259805629
 11
384.275392042
 21
-198.0259805629
  0
LINE
  8
0
 62
7
  6
CONTINUOUS
 10
384.275392042
 20
-220.0259805629
 11
384.275392042
 21
-295.0259805629
  0
LINE
  8
0
 62
7
  6
CONTINUOUS
 10
384.275392042
 20
-317.0259805629
 11
384.275392042
 21
-392.0259805629
  0
LINE
  8
0
 62
7
  6
CONTINUOUS
 10
384.275392042
 20
-414.0259805629
 11
384.275392042
 21
-458.0259805629
  0
LINE
  8
0
 62
7
  6
CONTINUOUS
 10
414.275392042
 20
761.9740194371
 11
414.275392042
 21
-458.0259805629
  0
LINE
  8
0
 62
7
  6
CONTINUOUS
 10
384.8665062489
 20
44.7948044718
 11
384.6312790763
 21
44.4644779346
  0
LINE
  8
0
 62
7
  6
CONTINUOUS
 10
384.6312790763
 20
44.4644779346
 11
384.4563356376
 21
44.2219998181
  0
LINE
  8
0
 62
7
  6
CONTINUOUS
 10
384.4563356376
 20
44.2219998181
 11
384.2825833671
 21
43.9837339597
  0
LINE
  8
0
 62
7
  6
CONTINUOUS
 10
384.2825833671
 20
43.9837339597
 11
384.275392042
 21
43.9740194371
  0
LINE
  8
0
 62
7
  6
CONTINUOUS
 10
-15.724607958
 20
404.9740194371
 11
384.275392042
 21
404.9740194371
  0
LINE
  8
0
 62
7
  6
CONTINUOUS
 10
384.275392042
 20
259.9740194371
 11
384.2825855968
 21
259.964303859
  0
LINE
  8
0
 62
7
  6
CONTINUOUS
 10
384.2825855968
 20
259.964303859
 11
384.4564228307
 21
259.7259191415
  0
LINE
  8
0
 62
7
  6
CONTINUOUS
 10
384.4564228307
 20
259.7259191415
 11
384.6314170064
 21
259.4833714636
  0
POLYLINE
  8
0
 62
7
  6
CONTINUOUS
 66
1
 70
0
  0
VERTEX
  8
0
 62
7
  6
CONTINUOUS
 10
384.6314170064
 20
259.4833714636
  0
VERTEX
  8
0
 62
7
  6
CONTINUOUS
 10
384.8667246101
 20
259.1529217505
  0
VERTEX
  8
0
 62
7
  6
CONTINUOUS
 10
385.0070340052
 20
258.9533000256
  0
VERTEX
  8
0
 62
7
  6
CONTINUOUS
 10
385.1623372885
 20
258.7299798053
  0
VERTEX
  8
0
 62
7
  6
CONTINUOUS
 10
385.332332966
 20
258.4823787275
  0
VERTEX
  8
0
 62
7
  6
CONTINUOUS
 10
385.5168659966
 20
258.2096300888
  0
VERTEX
  8
0
 62
7
  6
CONTINUOUS
 10
385.7148711733
 20
257.9120128489
  0
VERTEX
  8
0
 62
7
  6
CONTINUOUS
 10
385.9254567785
 20
257.5890870621
  0
VERTEX
  8
0
 62
7
  6
CONTINUOUS
 10
386.1467263457
 20
257.2421427407
  0
VERTEX
  8
0
 62
7
  6
CONTINUOUS
 10
386.3766844983
 20
256.871847607
  0
VERTEX
  8
0
 62
7
  6
CONTINUOUS
 10
386.6130791146
 20
256.4796285843
  0
VERTEX
  8
0
 62
7
  6
CONTINUOUS
 10
386.8535026563
 20
256.0664212658
  0
VERTEX
  8
0
 62
7
  6
CONTINUOUS
 10
387.0950704332
 20
255.6343673629
  0
VERTEX
  8
0
 62
7
  6
CONTINUOUS
 10
387.3353663631
 20
255.1835277878
  0
VERTEX
  8
0
 62
7
  6
CONTINUOUS
 10
387.5694657136
 20
254.7210805298
  0
VERTEX
  8
0
 62
7
  6
CONTINUOUS
 10
387.7918840508
 20
254.2529180723
  0
VERTEX
  8
0
 62
7
  6
CONTINUOUS
 10
388.0003803517
 20
253.7829578454
  0
VERTEX
  8
0
 62
7
  6
CONTINUOUS
 10
388.1911172296
 20
253.3168500306
  0
VERTEX
  8
0
 62
7
  6
CONTINUOUS
 10
388.3637353247
 20
252.8552888577
  0
VERTEX
  8
0
 62
7
  6
CONTINUOUS
 10
388.516987094
 20
252.4009064616
  0
VERTEX
  8
0
 62
7
  6
CONTINUOUS
 10
388.6510078875
 20
251.9535393079
  0
VERTEX
  8
0
 62
7
  6
CONTINUOUS
 10
388.7657373374
 20
251.5147273728
  0
VERTEX
  8
0
 62
7
  6
CONTINUOUS
 10
388.8617687812
 20
251.0819922586
  0
VERTEX
  8
0
 62
7
  6
CONTINUOUS
 10
388.9400402019
 20
250.6533888395
  0
VERTEX
  8
0
 62
7
  6
CONTINUOUS
 10
389.0004410444
 20
250.2288572761
  0
VERTEX
  8
0
 62
7
  6
CONTINUOUS
 10
389.0433556369
 20
249.8079842798
  0
VERTEX
  8
0
 62
7
  6
CONTINUOUS
 10
389.0688772486
 20
249.3898850725
  0
VERTEX
  8
0
 62
7
  6
CONTINUOUS
 10
389.0774686979
 20
248.9743875529
  0
VERTEX
  8
0
 62
7
  6
CONTINUOUS
 10
389.0689092684
 20
248.5589404013
  0
VERTEX
  8
0
 62
7
  6
CONTINUOUS
 10
389.043444488
 20
248.1410533135
  0
VERTEX
  8
0
 62
7
  6
CONTINUOUS
 10
389.0005862507
 20
247.7203711418
  0
VERTEX
  8
0
 62
7
  6
CONTINUOUS
 10
388.9402258487
 20
247.2958069745
  0
VERTEX
  8
0
 62
7
  6
CONTINUOUS
 10
388.861975041
 20
246.8670657984
  0
VERTEX
  8
0
 62
7
  6
CONTINUOUS
 10
388.7659259214
 20
246.434109737
  0
VERTEX
  8
0
 62
7
  6
CONTINUOUS
 10
388.6511707822
 20
245.995080469
  0
VERTEX
  8
0
 62
7
  6
CONTINUOUS
 10
388.5171325631
 20
245.5475943086
  0
VERTEX
  8
0
 62
7
  6
CONTINUOUS
 10
388.363891631
 20
245.093189472
  0
VERTEX
  8
0
 62
7
  6
CONTINUOUS
 10
388.1913340767
 20
244.6317415874
  0
VERTEX
  8
0
 62
7
  6
CONTINUOUS
 10
388.0007103249
 20
244.1658547331
  0
VERTEX
  8
0
 62
7
  6
CONTINUOUS
 10
387.7924348745
 20
243.6962933408
  0
VERTEX
  8
0
 62
7
  6
CONTINUOUS
 10
387.5701989459
 20
243.228451979
  0
VERTEX
  8
0
 62
7
  6
CONTINUOUS
 10
387.3361187803
 20
242.7659624389
  0
VERTEX
  8
0
 62
7
  6
CONTINUOUS
 10
387.0957298322
 20
242.3148774846
  0
VERTEX
  8
0
 62
7
  6
CONTINUOUS
 10
386.8539349122
 20
241.8823886065
  0
VERTEX
  8
0
 62
7
  6
CONTINUOUS
 10
386.6132576059
 20
241.4687114169
  0
VERTEX
  8
0
 62
7
  6
CONTINUOUS
 10
386.3766709359
 20
241.0761691324
  0
VERTEX
  8
0
 62
7
  6
CONTINUOUS
 10
386.1465590101
 20
240.7056304296
  0
VERTEX
  8
0
 62
7
  6
CONTINUOUS
 10
385.9251749026
 20
240.3585159048
  0
VERTEX
  8
0
 62
7
  6
CONTINUOUS
 10
385.7145198504
 20
240.0354930152
  0
VERTEX
  8
0
 62
7
  6
CONTINUOUS
 10
385.5164996337
 20
239.7378609127
  0
VERTEX
  8
0
 62
7
  6
CONTINUOUS
 10
385.3319817357
 20
239.46514511
  0
VERTEX
  8
0
 62
7
  6
CONTINUOUS
 10
385.1620140795
 20
239.2175916304
  0
VERTEX
  8
0
 62
7
  6
CONTINUOUS
 10
385.0067537148
 20
238.994338094
  0
VERTEX
  8
0
 62
7
  6
CONTINUOUS
 10
384.8665062489
 20
238.7948044718
  0
SEQEND
  0
LINE
  8
0
 62
7
  6
CONTINUOUS
 10
384.275392042
 20
426.9740194371
 11
-15.724607958
 21
426.9740194371
  0
LINE
  8
0
 62
7
  6
CONTINUOUS
 10
384.8665062489
 20
-122.2051955282
 11
384.6312790763
 21
-122.5355220654
  0
LINE
  8
0
 62
7
  6
CONTINUOUS
 10
384.6312790763
 20
-122.5355220654
 11
384.4563356376
 21
-122.7780001819
  0
LINE
  8
0
 62
7
  6
CONTINUOUS
 10
384.4563356376
 20
-122.7780001819
 11
384.2825833671
 21
-123.0162660403
  0
LINE
  8
0
 62
7
  6
CONTINUOUS
 10
384.2825833671
 20
-123.0162660403
 11
384.275392042
 21
-123.0259805629
  0
LINE
  8
0
 62
7
  6
CONTINUOUS
 10
-15.724607958
 20
501.9740194371
 11
384.275392042
 21
501.9740194371
  0
LINE
  8
0
 62
7
  6
CONTINUOUS
 10
384.275392042
 20
426.9740194371
 11
384.2825855968
 21
426.964303859
  0
LINE
  8
0
 62
7
  6
CONTINUOUS
 10
384.2825855968
 20
426.964303859
 11
384.4564228307
 21
426.7259191415
  0
LINE
  8
0
 62
7
  6
CONTINUOUS
 10
384.4564228307
 20
426.7259191415
 11
384.6314170064
 21
426.4833714636
  0
POLYLINE
  8
0
 62
7
  6
CONTINUOUS
 66
1
 70
0
  0
VERTEX
  8
0
 62
7
  6
CONTINUOUS
 10
384.6314170064
 20
426.4833714636
  0
VERTEX
  8
0
 62
7
  6
CONTINUOUS
 10
384.8667246101
 20
426.1529217505
  0
VERTEX
  8
0
 62
7
  6
CONTINUOUS
 10
385.0070340052
 20
425.9533000256
  0
VERTEX
  8
0
 62
7
  6
CONTINUOUS
 10
385.1623372885
 20
425.7299798053
  0
VERTEX
  8
0
 62
7
  6
CONTINUOUS
 10
385.332332966
 20
425.4823787275
  0
VERTEX
  8
0
 62
7
  6
CONTINUOUS
 10
385.5168659966
 20
425.2096300888
  0
VERTEX
  8
0
 62
7
  6
CONTINUOUS
 10
385.7148711733
 20
424.9120128489
  0
VERTEX
  8
0
 62
7
  6
CONTINUOUS
 10
385.9254567785
 20
424.5890870621
  0
VERTEX
  8
0
 62
7
  6
CONTINUOUS
 10
386.1467263457
 20
424.2421427407
  0
VERTEX
  8
0
 62
7
  6
CONTINUOUS
 10
386.3766844983
 20
423.871847607
  0
VERTEX
  8
0
 62
7
  6
CONTINUOUS
 10
386.6130791146
 20
423.4796285843
  0
VERTEX
  8
0
 62
7
  6
CONTINUOUS
 10
386.8535026563
 20
423.0664212658
  0
VERTEX
  8
0
 62
7
  6
CONTINUOUS
 10
387.0950704332
 20
422.6343673629
  0
VERTEX
  8
0
 62
7
  6
CONTINUOUS
 10
387.3353663631
 20
422.1835277878
  0
VERTEX
  8
0
 62
7
  6
CONTINUOUS
 10
387.5694657136
 20
421.7210805298
  0
VERTEX
  8
0
 62
7
  6
CONTINUOUS
 10
387.7918840508
 20
421.2529180723
  0
VERTEX
  8
0
 62
7
  6
CONTINUOUS
 10
388.0003803517
 20
420.7829578454
  0
VERTEX
  8
0
 62
7
  6
CONTINUOUS
 10
388.1911172296
 20
420.3168500306
  0
VERTEX
  8
0
 62
7
  6
CONTINUOUS
 10
388.3637353247
 20
419.8552888577
  0
VERTEX
  8
0
 62
7
  6
CONTINUOUS
 10
388.516987094
 20
419.4009064616
  0
VERTEX
  8
0
 62
7
  6
CONTINUOUS
 10
388.6510078875
 20
418.9535393079
  0
VERTEX
  8
0
 62
7
  6
CONTINUOUS
 10
388.7657373374
 20
418.5147273728
  0
VERTEX
  8
0
 62
7
  6
CONTINUOUS
 10
388.8617687812
 20
418.0819922586
  0
VERTEX
  8
0
 62
7
  6
CONTINUOUS
 10
388.9400402019
 20
417.6533888395
  0
VERTEX
  8
0
 62
7
  6
CONTINUOUS
 10
389.0004410444
 20
417.2288572761
  0
VERTEX
  8
0
 62
7
  6
CONTINUOUS
 10
389.0433556369
 20
416.8079842798
  0
VERTEX
  8
0
 62
7
  6
CONTINUOUS
 10
389.0688772486
 20
416.3898850725
  0
VERTEX
  8
0
 62
7
  6
CONTINUOUS
 10
389.0774686979
 20
415.9743875529
  0
VERTEX
  8
0
 62
7
  6
CONTINUOUS
 10
389.0689092684
 20
415.5589404013
  0
VERTEX
  8
0
 62
7
  6
CONTINUOUS
 10
389.043444488
 20
415.1410533135
  0
VERTEX
  8
0
 62
7
  6
CONTINUOUS
 10
389.0005862507
 20
414.7203711418
  0
VERTEX
  8
0
 62
7
  6
CONTINUOUS
 10
388.9402258487
 20
414.2958069745
  0
VERTEX
  8
0
 62
7
  6
CONTINUOUS
 10
388.861975041
 20
413.8670657984
  0
VERTEX
  8
0
 62
7
  6
CONTINUOUS
 10
388.7659259214
 20
413.434109737
  0
VERTEX
  8
0
 62
7
  6
CONTINUOUS
 10
388.6511707822
 20
412.995080469
  0
VERTEX
  8
0
 62
7
  6
CONTINUOUS
 10
388.5171325631
 20
412.5475943086
  0
VERTEX
  8
0
 62
7
  6
CONTINUOUS
 10
388.363891631
 20
412.093189472
  0
VERTEX
  8
0
 62
7
  6
CONTINUOUS
 10
388.1913340767
 20
411.6317415874
  0
VERTEX
  8
0
 62
7
  6
CONTINUOUS
 10
388.0007103249
 20
411.1658547331
  0
VERTEX
  8
0
 62
7
  6
CONTINUOUS
 10
387.7924348745
 20
410.6962933408
  0
VERTEX
  8
0
 62
7
  6
CONTINUOUS
 10
387.5701989459
 20
410.228451979
  0
VERTEX
  8
0
 62
7
  6
CONTINUOUS
 10
387.3361187803
 20
409.7659624389
  0
VERTEX
  8
0
 62
7
  6
CONTINUOUS
 10
387.0957298322
 20
409.3148774846
  0
VERTEX
  8
0
 62
7
  6
CONTINUOUS
 10
386.8539349122
 20
408.8823886065
  0
VERTEX
  8
0
 62
7
  6
CONTINUOUS
 10
386.6132576059
 20
408.4687114169
  0
VERTEX
  8
0
 62
7
  6
CONTINUOUS
 10
386.3766709359
 20
408.0761691324
  0
VERTEX
  8
0
 62
7
  6
CONTINUOUS
 10
386.1465590101
 20
407.7056304296
  0
VERTEX
  8
0
 62
7
  6
CONTINUOUS
 10
385.9251749026
 20
407.3585159048
  0
VERTEX
  8
0
 62
7
  6
CONTINUOUS
 10
385.7145198504
 20
407.0354930152
  0
VERTEX
  8
0
 62
7
  6
CONTINUOUS
 10
385.5164996337
 20
406.7378609127
  0
VERTEX
  8
0
 62
7
  6
CONTINUOUS
 10
385.3319817357
 20
406.46514511
  0
VERTEX
  8
0
 62
7
  6
CONTINUOUS
 10
385.1620140795
 20
406.2175916304
  0
VERTEX
  8
0
 62
7
  6
CONTINUOUS
 10
385.0067537148
 20
405.994338094
  0
VERTEX
  8
0
 62
7
  6
CONTINUOUS
 10
384.8665062489
 20
405.7948044718
  0
SEQEND
  0
LINE
  8
0
 62
7
  6
CONTINUOUS
 10
384.8665062489
 20
-219.2051955282
 11
384.6312790763
 21
-219.5355220654
  0
LINE
  8
0
 62
7
  6
CONTINUOUS
 10
384.6312790763
 20
-219.5355220654
 11
384.4563356376
 21
-219.7780001819
  0
LINE
  8
0
 62
7
  6
CONTINUOUS
 10
384.4563356376
 20
-219.7780001819
 11
384.2825833671
 21
-220.0162660403
  0
LINE
  8
0
 62
7
  6
CONTINUOUS
 10
384.2825833671
 20
-220.0162660403
 11
384.275392042
 21
-220.0259805629
  0
LINE
  8
0
 62
7
  6
CONTINUOUS
 10
384.275392042
 20
523.9740194371
 11
-15.724607958
 21
523.9740194371
  0
LINE
  8
0
 62
7
  6
CONTINUOUS
 10
384.275392042
 20
523.9740194371
 11
384.2825855968
 21
523.964303859
  0
LINE
  8
0
 62
7
  6
CONTINUOUS
 10
384.2825855968
 20
523.964303859
 11
384.4564228307
 21
523.7259191415
  0
LINE
  8
0
 62
7
  6
CONTINUOUS
 10
384.4564228307
 20
523.7259191415
 11
384.6314170064
 21
523.4833714636
  0
POLYLINE
  8
0
 62
7
  6
CONTINUOUS
 66
1
 70
0
  0
VERTEX
  8
0
 62
7
  6
CONTINUOUS
 10
384.6314170064
 20
523.4833714636
  0
VERTEX
  8
0
 62
7
  6
CONTINUOUS
 10
384.8667246101
 20
523.1529217505
  0
VERTEX
  8
0
 62
7
  6
CONTINUOUS
 10
385.0070340052
 20
522.9533000256
  0
VERTEX
  8
0
 62
7
  6
CONTINUOUS
 10
385.1623372885
 20
522.7299798053
  0
VERTEX
  8
0
 62
7
  6
CONTINUOUS
 10
385.332332966
 20
522.4823787275
  0
VERTEX
  8
0
 62
7
  6
CONTINUOUS
 10
385.5168659966
 20
522.2096300888
  0
VERTEX
  8
0
 62
7
  6
CONTINUOUS
 10
385.7148711733
 20
521.9120128489
  0
VERTEX
  8
0
 62
7
  6
CONTINUOUS
 10
385.9254567785
 20
521.5890870621
  0
VERTEX
  8
0
 62
7
  6
CONTINUOUS
 10
386.1467263457
 20
521.2421427407
  0
VERTEX
  8
0
 62
7
  6
CONTINUOUS
 10
386.3766844983
 20
520.871847607
  0
VERTEX
  8
0
 62
7
  6
CONTINUOUS
 10
386.6130791146
 20
520.4796285843
  0
VERTEX
  8
0
 62
7
  6
CONTINUOUS
 10
386.8535026563
 20
520.0664212658
  0
VERTEX
  8
0
 62
7
  6
CONTINUOUS
 10
387.0950704332
 20
519.6343673629
  0
VERTEX
  8
0
 62
7
  6
CONTINUOUS
 10
387.3353663631
 20
519.1835277878
  0
VERTEX
  8
0
 62
7
  6
CONTINUOUS
 10
387.5694657136
 20
518.7210805298
  0
VERTEX
  8
0
 62
7
  6
CONTINUOUS
 10
387.7918840508
 20
518.2529180723
  0
VERTEX
  8
0
 62
7
  6
CONTINUOUS
 10
388.0003803517
 20
517.7829578454
  0
VERTEX
  8
0
 62
7
  6
CONTINUOUS
 10
388.1911172296
 20
517.3168500306
  0
VERTEX
  8
0
 62
7
  6
CONTINUOUS
 10
388.3637353247
 20
516.8552888577
  0
VERTEX
  8
0
 62
7
  6
CONTINUOUS
 10
388.516987094
 20
516.4009064616
  0
VERTEX
  8
0
 62
7
  6
CONTINUOUS
 10
388.6510078875
 20
515.9535393079
  0
VERTEX
  8
0
 62
7
  6
CONTINUOUS
 10
388.7657373374
 20
515.5147273728
  0
VERTEX
  8
0
 62
7
  6
CONTINUOUS
 10
388.8617687812
 20
515.0819922586
  0
VERTEX
  8
0
 62
7
  6
CONTINUOUS
 10
388.9400402019
 20
514.6533888395
  0
VERTEX
  8
0
 62
7
  6
CONTINUOUS
 10
389.0004410444
 20
514.2288572761
  0
VERTEX
  8
0
 62
7
  6
CONTINUOUS
 10
389.0433556369
 20
513.8079842798
  0
VERTEX
  8
0
 62
7
  6
CONTINUOUS
 10
389.0688772486
 20
513.3898850725
  0
VERTEX
  8
0
 62
7
  6
CONTINUOUS
 10
389.0774686979
 20
512.9743875529
  0
VERTEX
  8
0
 62
7
  6
CONTINUOUS
 10
389.0689092684
 20
512.5589404013
  0
VERTEX
  8
0
 62
7
  6
CONTINUOUS
 10
389.043444488
 20
512.1410533135
  0
VERTEX
  8
0
 62
7
  6
CONTINUOUS
 10
389.0005862507
 20
511.7203711418
  0
VERTEX
  8
0
 62
7
  6
CONTINUOUS
 10
388.9402258487
 20
511.2958069745
  0
VERTEX
  8
0
 62
7
  6
CONTINUOUS
 10
388.861975041
 20
510.8670657984
  0
VERTEX
  8
0
 62
7
  6
CONTINUOUS
 10
388.7659259214
 20
510.434109737
  0
VERTEX
  8
0
 62
7
  6
CONTINUOUS
 10
388.6511707822
 20
509.995080469
  0
VERTEX
  8
0
 62
7
  6
CONTINUOUS
 10
388.5171325631
 20
509.5475943086
  0
VERTEX
  8
0
 62
7
  6
CONTINUOUS
 10
388.363891631
 20
509.093189472
  0
VERTEX
  8
0
 62
7
  6
CONTINUOUS
 10
388.1913340767
 20
508.6317415874
  0
VERTEX
  8
0
 62
7
  6
CONTINUOUS
 10
388.0007103249
 20
508.1658547331
  0
VERTEX
  8
0
 62
7
  6
CONTINUOUS
 10
387.7924348745
 20
507.6962933408
  0
VERTEX
  8
0
 62
7
  6
CONTINUOUS
 10
387.5701989459
 20
507.228451979
  0
VERTEX
  8
0
 62
7
  6
CONTINUOUS
 10
387.3361187803
 20
506.7659624389
  0
VERTEX
  8
0
 62
7
  6
CONTINUOUS
 10
387.0957298322
 20
506.3148774846
  0
VERTEX
  8
0
 62
7
  6
CONTINUOUS
 10
386.8539349122
 20
505.8823886065
  0
VERTEX
  8
0
 62
7
  6
CONTINUOUS
 10
386.6132576059
 20
505.4687114169
  0
VERTEX
  8
0
 62
7
  6
CONTINUOUS
 10
386.3766709359
 20
505.0761691324
  0
VERTEX
  8
0
 62
7
  6
CONTINUOUS
 10
386.1465590101
 20
504.7056304296
  0
VERTEX
  8
0
 62
7
  6
CONTINUOUS
 10
385.9251749026
 20
504.3585159048
  0
VERTEX
  8
0
 62
7
  6
CONTINUOUS
 10
385.7145198504
 20
504.0354930152
  0
VERTEX
  8
0
 62
7
  6
CONTINUOUS
 10
385.5164996337
 20
503.7378609127
  0
VERTEX
  8
0
 62
7
  6
CONTINUOUS
 10
385.3319817357
 20
503.46514511
  0
VERTEX
  8
0
 62
7
  6
CONTINUOUS
 10
385.1620140795
 20
503.2175916304
  0
VERTEX
  8
0
 62
7
  6
CONTINUOUS
 10
385.0067537148
 20
502.994338094
  0
VERTEX
  8
0
 62
7
  6
CONTINUOUS
 10
384.8665062489
 20
502.7948044718
  0
SEQEND
  0
LINE
  8
0
 62
7
  6
CONTINUOUS
 10
384.8665062489
 20
-316.2051955282
 11
384.6312790763
 21
-316.5355220654
  0
LINE
  8
0
 62
7
  6
CONTINUOUS
 10
384.6312790763
 20
-316.5355220654
 11
384.4563356376
 21
-316.7780001819
  0
LINE
  8
0
 62
7
  6
CONTINUOUS
 10
384.4563356376
 20
-316.7780001819
 11
384.2825833671
 21
-317.0162660403
  0
LINE
  8
0
 62
7
  6
CONTINUOUS
 10
384.2825833671
 20
-317.0162660403
 11
384.275392042
 21
-317.0259805629
  0
LINE
  8
0
 62
7
  6
CONTINUOUS
 10
384.275392042
 20
620.9740194371
 11
384.2825855968
 21
620.964303859
  0
LINE
  8
0
 62
7
  6
CONTINUOUS
 10
384.2825855968
 20
620.964303859
 11
384.4564228307
 21
620.7259191415
  0
LINE
  8
0
 62
7
  6
CONTINUOUS
 10
384.4564228307
 20
620.7259191415
 11
384.6314170064
 21
620.4833714636
  0
POLYLINE
  8
0
 62
7
  6
CONTINUOUS
 66
1
 70
0
  0
VERTEX
  8
0
 62
7
  6
CONTINUOUS
 10
384.6314170064
 20
620.4833714636
  0
VERTEX
  8
0
 62
7
  6
CONTINUOUS
 10
384.8667246101
 20
620.1529217505
  0
VERTEX
  8
0
 62
7
  6
CONTINUOUS
 10
385.0070340052
 20
619.9533000256
  0
VERTEX
  8
0
 62
7
  6
CONTINUOUS
 10
385.1623372885
 20
619.7299798053
  0
VERTEX
  8
0
 62
7
  6
CONTINUOUS
 10
385.332332966
 20
619.4823787275
  0
VERTEX
  8
0
 62
7
  6
CONTINUOUS
 10
385.5168659966
 20
619.2096300888
  0
VERTEX
  8
0
 62
7
  6
CONTINUOUS
 10
385.7148711733
 20
618.9120128489
  0
VERTEX
  8
0
 62
7
  6
CONTINUOUS
 10
385.9254567785
 20
618.5890870621
  0
VERTEX
  8
0
 62
7
  6
CONTINUOUS
 10
386.1467263457
 20
618.2421427407
  0
VERTEX
  8
0
 62
7
  6
CONTINUOUS
 10
386.3766844983
 20
617.871847607
  0
VERTEX
  8
0
 62
7
  6
CONTINUOUS
 10
386.6130791146
 20
617.4796285843
  0
VERTEX
  8
0
 62
7
  6
CONTINUOUS
 10
386.8535026563
 20
617.0664212658
  0
VERTEX
  8
0
 62
7
  6
CONTINUOUS
 10
387.0950704332
 20
616.6343673629
  0
VERTEX
  8
0
 62
7
  6
CONTINUOUS
 10
387.3353663631
 20
616.1835277878
  0
VERTEX
  8
0
 62
7
  6
CONTINUOUS
 10
387.5694657136
 20
615.7210805298
  0
VERTEX
  8
0
 62
7
  6
CONTINUOUS
 10
387.7918840508
 20
615.2529180723
  0
VERTEX
  8
0
 62
7
  6
CONTINUOUS
 10
388.0003803517
 20
614.7829578454
  0
VERTEX
  8
0
 62
7
  6
CONTINUOUS
 10
388.1911172296
 20
614.3168500306
  0
VERTEX
  8
0
 62
7
  6
CONTINUOUS
 10
388.3637353247
 20
613.8552888577
  0
VERTEX
  8
0
 62
7
  6
CONTINUOUS
 10
388.516987094
 20
613.4009064616
  0
VERTEX
  8
0
 62
7
  6
CONTINUOUS
 10
388.6510078875
 20
612.9535393079
  0
VERTEX
  8
0
 62
7
  6
CONTINUOUS
 10
388.7657373374
 20
612.5147273728
  0
VERTEX
  8
0
 62
7
  6
CONTINUOUS
 10
388.8617687812
 20
612.0819922586
  0
VERTEX
  8
0
 62
7
  6
CONTINUOUS
 10
388.9400402019
 20
611.6533888395
  0
VERTEX
  8
0
 62
7
  6
CONTINUOUS
 10
389.0004410444
 20
611.2288572761
  0
VERTEX
  8
0
 62
7
  6
CONTINUOUS
 10
389.0433556369
 20
610.8079842798
  0
VERTEX
  8
0
 62
7
  6
CONTINUOUS
 10
389.0688772486
 20
610.3898850725
  0
VERTEX
  8
0
 62
7
  6
CONTINUOUS
 10
389.0774686979
 20
609.9743875529
  0
VERTEX
  8
0
 62
7
  6
CONTINUOUS
 10
389.0689092684
 20
609.5589404013
  0
VERTEX
  8
0
 62
7
  6
CONTINUOUS
 10
389.043444488
 20
609.1410533135
  0
VERTEX
  8
0
 62
7
  6
CONTINUOUS
 10
389.0005862507
 20
608.7203711418
  0
VERTEX
  8
0
 62
7
  6
CONTINUOUS
 10
388.9402258487
 20
608.2958069745
  0
VERTEX
  8
0
 62
7
  6
CONTINUOUS
 10
388.861975041
 20
607.8670657984
  0
VERTEX
  8
0
 62
7
  6
CONTINUOUS
 10
388.7659259214
 20
607.434109737
  0
VERTEX
  8
0
 62
7
  6
CONTINUOUS
 10
388.6511707822
 20
606.995080469
  0
VERTEX
  8
0
 62
7
  6
CONTINUOUS
 10
388.5171325631
 20
606.5475943086
  0
VERTEX
  8
0
 62
7
  6
CONTINUOUS
 10
388.363891631
 20
606.093189472
  0
VERTEX
  8
0
 62
7
  6
CONTINUOUS
 10
388.1913340767
 20
605.6317415874
  0
VERTEX
  8
0
 62
7
  6
CONTINUOUS
 10
388.0007103249
 20
605.1658547331
  0
VERTEX
  8
0
 62
7
  6
CONTINUOUS
 10
387.7924348745
 20
604.6962933408
  0
VERTEX
  8
0
 62
7
  6
CONTINUOUS
 10
387.5701989459
 20
604.228451979
  0
VERTEX
  8
0
 62
7
  6
CONTINUOUS
 10
387.3361187803
 20
603.7659624389
  0
VERTEX
  8
0
 62
7
  6
CONTINUOUS
 10
387.0957298322
 20
603.3148774846
  0
VERTEX
  8
0
 62
7
  6
CONTINUOUS
 10
386.8539349122
 20
602.8823886065
  0
VERTEX
  8
0
 62
7
  6
CONTINUOUS
 10
386.6132576059
 20
602.4687114169
  0
VERTEX
  8
0
 62
7
  6
CONTINUOUS
 10
386.3766709359
 20
602.0761691324
  0
VERTEX
  8
0
 62
7
  6
CONTINUOUS
 10
386.1465590101
 20
601.7056304296
  0
VERTEX
  8
0
 62
7
  6
CONTINUOUS
 10
385.9251749026
 20
601.3585159048
  0
VERTEX
  8
0
 62
7
  6
CONTINUOUS
 10
385.7145198504
 20
601.0354930152
  0
VERTEX
  8
0
 62
7
  6
CONTINUOUS
 10
385.5164996337
 20
600.7378609127
  0
VERTEX
  8
0
 62
7
  6
CONTINUOUS
 10
385.3319817357
 20
600.46514511
  0
VERTEX
  8
0
 62
7
  6
CONTINUOUS
 10
385.1620140795
 20
600.2175916304
  0
VERTEX
  8
0
 62
7
  6
CONTINUOUS
 10
385.0067537148
 20
599.994338094
  0
VERTEX
  8
0
 62
7
  6
CONTINUOUS
 10
384.8665062489
 20
599.7948044718
  0
SEQEND
  0
LINE
  8
0
 62
7
  6
CONTINUOUS
 10
-15.724607958
 20
598.9740194371
 11
384.275392042
 21
598.9740194371
  0
LINE
  8
0
 62
7
  6
CONTINUOUS
 10
384.275392042
 20
620.9740194371
 11
-15.724607958
 21
620.9740194371
  0
LINE
  8
0
 62
7
  6
CONTINUOUS
 10
384.8665062489
 20
-413.2051955282
 11
384.6312790763
 21
-413.5355220654
  0
LINE
  8
0
 62
7
  6
CONTINUOUS
 10
384.6312790763
 20
-413.5355220654
 11
384.4563356376
 21
-413.7780001819
  0
LINE
  8
0
 62
7
  6
CONTINUOUS
 10
384.4563356376
 20
-413.7780001819
 11
384.2825833671
 21
-414.0162660403
  0
LINE
  8
0
 62
7
  6
CONTINUOUS
 10
384.2825833671
 20
-414.0162660403
 11
384.275392042
 21
-414.0259805629
  0
LINE
  8
0
 62
7
  6
CONTINUOUS
 10
384.275392042
 20
717.9740194371
 11
384.2825855968
 21
717.964303859
  0
LINE
  8
0
 62
7
  6
CONTINUOUS
 10
384.2825855968
 20
717.964303859
 11
384.4564228307
 21
717.7259191415
  0
LINE
  8
0
 62
7
  6
CONTINUOUS
 10
384.4564228307
 20
717.7259191415
 11
384.6314170064
 21
717.4833714636
  0
POLYLINE
  8
0
 62
7
  6
CONTINUOUS
 66
1
 70
0
  0
VERTEX
  8
0
 62
7
  6
CONTINUOUS
 10
384.6314170064
 20
717.4833714636
  0
VERTEX
  8
0
 62
7
  6
CONTINUOUS
 10
384.8667246101
 20
717.1529217505
  0
VERTEX
  8
0
 62
7
  6
CONTINUOUS
 10
385.0070340052
 20
716.9533000256
  0
VERTEX
  8
0
 62
7
  6
CONTINUOUS
 10
385.1623372885
 20
716.7299798053
  0
VERTEX
  8
0
 62
7
  6
CONTINUOUS
 10
385.332332966
 20
716.4823787275
  0
VERTEX
  8
0
 62
7
  6
CONTINUOUS
 10
385.5168659966
 20
716.2096300888
  0
VERTEX
  8
0
 62
7
  6
CONTINUOUS
 10
385.7148711733
 20
715.9120128489
  0
VERTEX
  8
0
 62
7
  6
CONTINUOUS
 10
385.9254567785
 20
715.5890870621
  0
VERTEX
  8
0
 62
7
  6
CONTINUOUS
 10
386.1467263457
 20
715.2421427407
  0
VERTEX
  8
0
 62
7
  6
CONTINUOUS
 10
386.3766844983
 20
714.871847607
  0
VERTEX
  8
0
 62
7
  6
CONTINUOUS
 10
386.6130791146
 20
714.4796285843
  0
VERTEX
  8
0
 62
7
  6
CONTINUOUS
 10
386.8535026563
 20
714.0664212658
  0
VERTEX
  8
0
 62
7
  6
CONTINUOUS
 10
387.0950704332
 20
713.6343673629
  0
VERTEX
  8
0
 62
7
  6
CONTINUOUS
 10
387.3353663631
 20
713.1835277878
  0
VERTEX
  8
0
 62
7
  6
CONTINUOUS
 10
387.5694657136
 20
712.7210805298
  0
VERTEX
  8
0
 62
7
  6
CONTINUOUS
 10
387.7918840508
 20
712.2529180723
  0
VERTEX
  8
0
 62
7
  6
CONTINUOUS
 10
388.0003803517
 20
711.7829578454
  0
VERTEX
  8
0
 62
7
  6
CONTINUOUS
 10
388.1911172296
 20
711.3168500306
  0
VERTEX
  8
0
 62
7
  6
CONTINUOUS
 10
388.3637353247
 20
710.8552888577
  0
VERTEX
  8
0
 62
7
  6
CONTINUOUS
 10
388.516987094
 20
710.4009064616
  0
VERTEX
  8
0
 62
7
  6
CONTINUOUS
 10
388.6510078875
 20
709.9535393079
  0
VERTEX
  8
0
 62
7
  6
CONTINUOUS
 10
388.7657373374
 20
709.5147273728
  0
VERTEX
  8
0
 62
7
  6
CONTINUOUS
 10
388.8617687812
 20
709.0819922586
  0
VERTEX
  8
0
 62
7
  6
CONTINUOUS
 10
388.9400402019
 20
708.6533888395
  0
VERTEX
  8
0
 62
7
  6
CONTINUOUS
 10
389.0004410444
 20
708.2288572761
  0
VERTEX
  8
0
 62
7
  6
CONTINUOUS
 10
389.0433556369
 20
707.8079842798
  0
VERTEX
  8
0
 62
7
  6
CONTINUOUS
 10
389.0688772486
 20
707.3898850725
  0
VERTEX
  8
0
 62
7
  6
CONTINUOUS
 10
389.0774686979
 20
706.9743875529
  0
VERTEX
  8
0
 62
7
  6
CONTINUOUS
 10
389.0689092684
 20
706.5589404013
  0
VERTEX
  8
0
 62
7
  6
CONTINUOUS
 10
389.043444488
 20
706.1410533135
  0
VERTEX
  8
0
 62
7
  6
CONTINUOUS
 10
389.0005862507
 20
705.7203711418
  0
VERTEX
  8
0
 62
7
  6
CONTINUOUS
 10
388.9402258487
 20
705.2958069745
  0
VERTEX
  8
0
 62
7
  6
CONTINUOUS
 10
388.861975041
 20
704.8670657984
  0
VERTEX
  8
0
 62
7
  6
CONTINUOUS
 10
388.7659259214
 20
704.434109737
  0
VERTEX
  8
0
 62
7
  6
CONTINUOUS
 10
388.6511707822
 20
703.995080469
  0
VERTEX
  8
0
 62
7
  6
CONTINUOUS
 10
388.5171325631
 20
703.5475943086
  0
VERTEX
  8
0
 62
7
  6
CONTINUOUS
 10
388.363891631
 20
703.093189472
  0
VERTEX
  8
0
 62
7
  6
CONTINUOUS
 10
388.1913340767
 20
702.6317415874
  0
VERTEX
  8
0
 62
7
  6
CONTINUOUS
 10
388.0007103249
 20
702.1658547331
  0
VERTEX
  8
0
 62
7
  6
CONTINUOUS
 10
387.7924348745
 20
701.6962933408
  0
VERTEX
  8
0
 62
7
  6
CONTINUOUS
 10
387.5701989459
 20
701.228451979
  0
VERTEX
  8
0
 62
7
  6
CONTINUOUS
 10
387.3361187803
 20
700.7659624389
  0
VERTEX
  8
0
 62
7
  6
CONTINUOUS
 10
387.0957298322
 20
700.3148774846
  0
VERTEX
  8
0
 62
7
  6
CONTINUOUS
 10
386.8539349122
 20
699.8823886065
  0
VERTEX
  8
0
 62
7
  6
CONTINUOUS
 10
386.6132576059
 20
699.4687114169
  0
VERTEX
  8
0
 62
7
  6
CONTINUOUS
 10
386.3766709359
 20
699.0761691324
  0
VERTEX
  8
0
 62
7
  6
CONTINUOUS
 10
386.1465590101
 20
698.7056304296
  0
VERTEX
  8
0
 62
7
  6
CONTINUOUS
 10
385.9251749026
 20
698.3585159048
  0
VERTEX
  8
0
 62
7
  6
CONTINUOUS
 10
385.7145198504
 20
698.0354930152
  0
VERTEX
  8
0
 62
7
  6
CONTINUOUS
 10
385.5164996337
 20
697.7378609127
  0
VERTEX
  8
0
 62
7
  6
CONTINUOUS
 10
385.3319817357
 20
697.46514511
  0
VERTEX
  8
0
 62
7
  6
CONTINUOUS
 10
385.1620140795
 20
697.2175916304
  0
VERTEX
  8
0
 62
7
  6
CONTINUOUS
 10
385.0067537148
 20
696.994338094
  0
VERTEX
  8
0
 62
7
  6
CONTINUOUS
 10
384.8665062489
 20
696.7948044718
  0
SEQEND
  0
LINE
  8
0
 62
7
  6
CONTINUOUS
 10
-15.724607958
 20
695.9740194371
 11
384.275392042
 21
695.9740194371
  0
LINE
  8
0
 62
7
  6
CONTINUOUS
 10
384.275392042
 20
717.9740194371
 11
-15.724607958
 21
717.9740194371
  0
LINE
  8
0
 62
7
  6
CONTINUOUS
 10
-15.724607958
 20
761.9740194371
 11
-45.724607958
 21
761.9740194371
  0
LINE
  8
0
 62
7
  6
CONTINUOUS
 10
384.275392042
 20
761.9740194371
 11
414.275392042
 21
761.9740194371
  0
ENDSEC
  0
EOF
