999
DXF file: K:\Client\125_Heirloom\001\00\Final_Data\Drawings\LADDER TOWEL WARMERS\wg1220sn_2.dxf
999
Pro/ENGINEER 2017110 by Parametric Technology Corporation
  0
SECTION
  2
HEADER
  9
$EXTMAX
 10
420.0
 20
297.0
 30
0.0
  9
$EXTMIN
 10
0.0
 20
0.0
 30
0.0
  9
$LIMMIN
 10
0.0
 20
0.0
  9
$LIMMAX
 10
420.0
 20
297.0
  9
$VIEWCTR
 10
210.0
 20
148.5
  9
$VIEWSIZE
 40
297.0
  9
$CLAYER
  8
0
  9
$LTSCALE
 40
23.1
  9
$CELTYPE
  6
BYLAYER
  9
$DIMSCALE
 40
1.0
  9
$DIMASZ
 40
3.0
  9
$DIMEXO
 40
1.0
  9
$DIMDLI
 40
15.96
  9
$DIMEXE
 40
1.0
  9
$DIMCEN
 40
3.78
  9
$DIMLFAC
 40
1.0
  9
$DIMBLK
  1
_FILLED
  9
$DIMALT
 70
0
  9
$DIMALTF
 40
0.0393700787
  9
$DIMTXT
 40
3.0
  9
$AUNITS
 70
0
  9
$PDMODE
 70
3
  9
$PDSIZE
 40
5.0
  9
$TILEMODE
 70
1
  0
ENDSEC
  0
SECTION
  2
TABLES
  0
TABLE
  2
LTYPE
 70
6
  0
LTYPE
  2
BYBLOCK
 70
0
  3

 72
65
 73
0
 40
0.0
  0
LTYPE
  2
BYLAYER
 70
0
  3

 72
65
 73
0
 40
0.0
  0
LTYPE
  2
CONTINUOUS
 70
64
  3
Solid line
 72
65
 73
0
 40
0.0
  0
LTYPE
  2
CENTER
 70
64
  3
____ _ ____ _ ____ _ ____ _ ____ _ ____ _ ____
 72
65
 73
4
 40
0.6
 49
0.375
 49
-0.075
 49
0.075
 49
-0.075
  0
LTYPE
  2
HIDDEN
 70
64
  3
- - - - - - - - - - - - - - - - - - - -
 72
65
 73
2
 40
0.2
 49
0.1
 49
-0.1
  0
LTYPE
  2
PHANTOM
 70
64
  3
_____ _ _ _____ _ _ _____ _ _ _____
 72
65
 73
6
 40
0.8
 49
0.45
 49
-0.05
 49
0.1
 49
-0.05
 49
0.1
 49
-0.05
  0
LTYPE
  2
DOT
 70
64
  3
. . . . . . . . . . . . . . . . . . . .
 72
65
 73
2
 40
0.2
 49
0.1
 49
-0.1
  0
LTYPE
  2
DASHED
 70
64
  3
- - - - - - - - - - - - - - - - - - - -
 72
65
 73
2
 40
0.2
 49
0.1
 49
-0.1
  0
ENDTAB
  0
TABLE
  2
LAYER
 70
36
  0
LAYER
  2
0
 70
0
 62
7
  6
CONTINUOUS
  0
LAYER
  2
DEFAULT_1
 70
0
 62
7
  6
CENTER
  0
LAYER
  2
DEFAULT_2
 70
0
 62
8
  6
HIDDEN
  0
LAYER
  2
DEFAULT_3
 70
0
 62
7
  6
PHANTOM
  0
LAYER
  2
0000_BOM
 70
0
 62
7
  6
CONTINUOUS
  0
LAYER
  2
0000_REV_TABLE
 70
0
 62
7
  6
CONTINUOUS
  0
LAYER
  2
0000_STEVENS_NOTE
 70
0
 62
7
  6
CONTINUOUS
  0
LAYER
  2
01_DATUM_PLANES
 70
0
 62
7
  6
CONTINUOUS
  0
LAYER
  2
01_DEF_PLANES
 70
0
 62
7
  6
CONTINUOUS
  0
LAYER
  2
02_DATUM_COS
 70
0
 62
7
  6
CONTINUOUS
  0
LAYER
  2
99_SOLID
 70
0
 62
7
  6
CONTINUOUS
  0
LAYER
  2
CAD-MASTER_ZINC-PL
 70
0
 62
7
  6
CONTINUOUS
  0
LAYER
  2
CURVE
 70
0
 62
7
  6
CONTINUOUS
  0
LAYER
  2
SKEL
 70
0
 62
7
  6
CONTINUOUS
  0
LAYER
  2
SKETCH
 70
0
 62
7
  6
CONTINUOUS
  0
LAYER
  2
SURFACE
 70
0
 62
7
  6
CONTINUOUS
  0
ENDTAB
  0
TABLE
  2
STYLE
 70
1
  0
STYLE
  2
STANDARD
 70
0
 40
0.0
 41
0.75
 50
0.0
 71
0
 42
0.2
  3
txt
  4

  0
STYLE
  2
TEXTSTYLE_1
 70
0
 40
0.0
 41
0.8
 50
0.0
 71
0
 42
0.2
  3
gdt
  4

  0
ENDTAB
  0
ENDSEC
  0
SECTION
  2
BLOCKS
  0
ENDSEC
  0
SECTION
  2
ENTITIES
  0
LINE
  8
0
 62
7
  6
CONTINUOUS
 10
117.1988608721
 20
-457.4191740561
 11
147.1988031625
 21
-457.4191740561
  0
LINE
  8
0
 62
7
  6
CONTINUOUS
 10
147.1988320173
 20
-369.9191740561
 11
239.1988320173
 21
-369.9191740561
  0
LINE
  8
0
 62
7
  6
CONTINUOUS
 10
147.1988320173
 20
-344.9191740561
 11
239.1988320173
 21
-344.9191740561
  0
LINE
  8
0
 62
7
  6
CONTINUOUS
 10
145.8214304712
 20
673.389403708
 11
146.2224460909
 21
673.8906853251
  0
LINE
  8
0
 62
7
  6
CONTINUOUS
 10
146.2224460909
 20
673.8906853251
 11
146.5510631385
 21
674.2956675186
  0
LINE
  8
0
 62
7
  6
CONTINUOUS
 10
146.5510631385
 20
674.2956675186
 11
146.9142871708
 21
674.7379070234
  0
LINE
  8
0
 62
7
  6
CONTINUOUS
 10
146.9142871708
 20
674.7379070234
 11
147.1910701523
 21
675.0716442199
  0
LINE
  8
0
 62
7
  6
CONTINUOUS
 10
147.1910701523
 20
675.0716442199
 11
147.1988320173
 21
675.0808259439
  0
LINE
  8
0
 62
7
  6
CONTINUOUS
 10
147.1988320173
 20
-369.9191740561
 11
147.1910725706
 21
-369.9100025411
  0
LINE
  8
0
 62
7
  6
CONTINUOUS
 10
147.1910725706
 20
-369.9100025411
 11
146.8099499291
 21
-369.4497739274
  0
LINE
  8
0
 62
7
  6
CONTINUOUS
 10
146.8099499291
 20
-369.4497739274
 11
146.5507771092
 21
-369.1336637344
  0
LINE
  8
0
 62
7
  6
CONTINUOUS
 10
146.5507771092
 20
-369.1336637344
 11
146.2220849418
 21
-368.7285874657
  0
POLYLINE
  8
0
 62
7
  6
CONTINUOUS
 66
1
 70
0
  0
VERTEX
  8
0
 62
7
  6
CONTINUOUS
 10
146.2220849418
 20
-368.7285874657
  0
VERTEX
  8
0
 62
7
  6
CONTINUOUS
 10
145.821057347
 20
-368.2272810398
  0
VERTEX
  8
0
 62
7
  6
CONTINUOUS
 10
145.5929677233
 20
-367.9383409105
  0
VERTEX
  8
0
 62
7
  6
CONTINUOUS
 10
145.3466089431
 20
-367.6227739468
  0
VERTEX
  8
0
 62
7
  6
CONTINUOUS
 10
145.0830142763
 20
-367.2808246523
  0
VERTEX
  8
0
 62
7
  6
CONTINUOUS
 10
144.8032126689
 20
-366.9123554686
  0
VERTEX
  8
0
 62
7
  6
CONTINUOUS
 10
144.5086160059
 20
-366.5175685213
  0
VERTEX
  8
0
 62
7
  6
CONTINUOUS
 10
144.200352694
 20
-366.0958807962
  0
VERTEX
  8
0
 62
7
  6
CONTINUOUS
 10
143.8816584001
 20
-365.6495101543
  0
VERTEX
  8
0
 62
7
  6
CONTINUOUS
 10
143.5550440217
 20
-365.1786483865
  0
VERTEX
  8
0
 62
7
  6
CONTINUOUS
 10
143.2259497728
 20
-364.6887906893
  0
VERTEX
  8
0
 62
7
  6
CONTINUOUS
 10
142.8998847874
 20
-364.1836467169
  0
VERTEX
  8
0
 62
7
  6
CONTINUOUS
 10
142.5818655598
 20
-363.6687648863
  0
VERTEX
  8
0
 62
7
  6
CONTINUOUS
 10
142.2774026079
 20
-363.1480045617
  0
VERTEX
  8
0
 62
7
  6
CONTINUOUS
 10
141.991900622
 20
-362.6301425549
  0
VERTEX
  8
0
 62
7
  6
CONTINUOUS
 10
141.7328197658
 20
-362.1249614565
  0
VERTEX
  8
0
 62
7
  6
CONTINUOUS
 10
141.4998472975
 20
-361.6333032949
  0
VERTEX
  8
0
 62
7
  6
CONTINUOUS
 10
141.2951803907
 20
-361.1601953719
  0
VERTEX
  8
0
 62
7
  6
CONTINUOUS
 10
141.1169384673
 20
-360.7028644577
  0
VERTEX
  8
0
 62
7
  6
CONTINUOUS
 10
140.9637944489
 20
-360.2612689529
  0
VERTEX
  8
0
 62
7
  6
CONTINUOUS
 10
140.8343918352
 20
-359.8322412677
  0
VERTEX
  8
0
 62
7
  6
CONTINUOUS
 10
140.7266483983
 20
-359.41296159
  0
VERTEX
  8
0
 62
7
  6
CONTINUOUS
 10
140.6401844086
 20
-359.0023449859
  0
VERTEX
  8
0
 62
7
  6
CONTINUOUS
 10
140.5738114882
 20
-358.5987197334
  0
VERTEX
  8
0
 62
7
  6
CONTINUOUS
 10
140.5271747735
 20
-358.2010263848
  0
VERTEX
  8
0
 62
7
  6
CONTINUOUS
 10
140.4993958463
 20
-357.8086031108
  0
VERTEX
  8
0
 62
7
  6
CONTINUOUS
 10
140.4903940141
 20
-357.4185853349
  0
VERTEX
  8
0
 62
7
  6
CONTINUOUS
 10
140.4994379947
 20
-357.0287064536
  0
VERTEX
  8
0
 62
7
  6
CONTINUOUS
 10
140.5272509489
 20
-356.6365107189
  0
VERTEX
  8
0
 62
7
  6
CONTINUOUS
 10
140.5738918964
 20
-356.2390244092
  0
VERTEX
  8
0
 62
7
  6
CONTINUOUS
 10
140.6402722477
 20
-355.8355348414
  0
VERTEX
  8
0
 62
7
  6
CONTINUOUS
 10
140.7267780132
 20
-355.4248518002
  0
VERTEX
  8
0
 62
7
  6
CONTINUOUS
 10
140.8345798299
 20
-355.0054341607
  0
VERTEX
  8
0
 62
7
  6
CONTINUOUS
 10
140.9640584737
 20
-354.576274089
  0
VERTEX
  8
0
 62
7
  6
CONTINUOUS
 10
141.1172706857
 20
-354.1345814966
  0
VERTEX
  8
0
 62
7
  6
CONTINUOUS
 10
141.2955161359
 20
-353.6773141721
  0
VERTEX
  8
0
 62
7
  6
CONTINUOUS
 10
141.5002207421
 20
-353.2042206508
  0
VERTEX
  8
0
 62
7
  6
CONTINUOUS
 10
141.7333516499
 20
-352.7123151251
  0
VERTEX
  8
0
 62
7
  6
CONTINUOUS
 10
141.9926707359
 20
-352.2067584122
  0
VERTEX
  8
0
 62
7
  6
CONTINUOUS
 10
142.2785357056
 20
-351.6883736287
  0
VERTEX
  8
0
 62
7
  6
CONTINUOUS
 10
142.5833073904
 20
-351.1671880697
  0
VERTEX
  8
0
 62
7
  6
CONTINUOUS
 10
142.901431571
 20
-350.6522544636
  0
VERTEX
  8
0
 62
7
  6
CONTINUOUS
 10
143.2274251652
 20
-350.1473196282
  0
VERTEX
  8
0
 62
7
  6
CONTINUOUS
 10
143.5561925852
 20
-349.6580001036
  0
VERTEX
  8
0
 62
7
  6
CONTINUOUS
 10
143.8824323031
 20
-349.1877394522
  0
VERTEX
  8
0
 62
7
  6
CONTINUOUS
 10
144.2008560081
 20
-348.7417681303
  0
VERTEX
  8
0
 62
7
  6
CONTINUOUS
 10
144.5089394438
 20
-348.3203419963
  0
VERTEX
  8
0
 62
7
  6
CONTINUOUS
 10
144.8034981442
 20
-347.9256193798
  0
VERTEX
  8
0
 62
7
  6
CONTINUOUS
 10
145.0833205464
 20
-347.5571233233
  0
VERTEX
  8
0
 62
7
  6
CONTINUOUS
 10
145.3469467793
 20
-347.2151413863
  0
VERTEX
  8
0
 62
7
  6
CONTINUOUS
 10
145.5933359437
 20
-346.8995383479
  0
VERTEX
  8
0
 62
7
  6
CONTINUOUS
 10
145.8214304712
 20
-346.610596292
  0
SEQEND
  0
LINE
  8
0
 62
7
  6
CONTINUOUS
 10
117.1988320173
 20
-457.4191740561
 11
117.1988320173
 21
762.5808259439
  0
LINE
  8
0
 62
7
  6
CONTINUOUS
 10
147.1988320173
 20
-457.4191740561
 11
147.1988320173
 21
-369.9191740561
  0
LINE
  8
0
 62
7
  6
CONTINUOUS
 10
147.1988320173
 20
-344.9191740561
 11
147.1988320173
 21
650.0808259439
  0
LINE
  8
0
 62
7
  6
CONTINUOUS
 10
147.1988320173
 20
675.0808259439
 11
147.1988320173
 21
762.5808259439
  0
LINE
  8
0
 62
7
  6
CONTINUOUS
 10
239.1988320173
 20
-369.9191740561
 11
239.1988320173
 21
-344.9191740561
  0
LINE
  8
0
 62
7
  6
CONTINUOUS
 10
239.1988320173
 20
650.0808259439
 11
239.1988320173
 21
675.0808259439
  0
LINE
  8
0
 62
7
  6
CONTINUOUS
 10
145.8214304712
 20
-346.610596292
 11
146.2224460909
 21
-346.1093146749
  0
POLYLINE
  8
0
 62
7
  6
CONTINUOUS
 66
1
 70
0
  0
VERTEX
  8
0
 62
7
  6
CONTINUOUS
 10
146.2224460909
 20
-346.1093146749
  0
VERTEX
  8
0
 62
7
  6
CONTINUOUS
 10
146.5510631385
 20
-345.7043324814
  0
VERTEX
  8
0
 62
7
  6
CONTINUOUS
 10
146.6891220367
 20
-345.5356348171
  0
SEQEND
  0
LINE
  8
0
 62
7
  6
CONTINUOUS
 10
146.6888957579
 20
650.6975626209
 11
146.3952812853
 21
651.0574075354
  0
POLYLINE
  8
0
 62
7
  6
CONTINUOUS
 66
1
 70
0
  0
VERTEX
  8
0
 62
7
  6
CONTINUOUS
 10
146.3952812853
 20
651.0574075354
  0
VERTEX
  8
0
 62
7
  6
CONTINUOUS
 10
146.0308639844
 20
651.5094616044
  0
VERTEX
  8
0
 62
7
  6
CONTINUOUS
 10
145.821057347
 20
651.7727189602
  0
VERTEX
  8
0
 62
7
  6
CONTINUOUS
 10
145.5929677233
 20
652.0616590895
  0
VERTEX
  8
0
 62
7
  6
CONTINUOUS
 10
145.3466089431
 20
652.3772260532
  0
VERTEX
  8
0
 62
7
  6
CONTINUOUS
 10
145.0830142763
 20
652.7191753477
  0
VERTEX
  8
0
 62
7
  6
CONTINUOUS
 10
144.8032126689
 20
653.0876445314
  0
VERTEX
  8
0
 62
7
  6
CONTINUOUS
 10
144.5086160059
 20
653.4824314787
  0
VERTEX
  8
0
 62
7
  6
CONTINUOUS
 10
144.200352694
 20
653.9041192038
  0
VERTEX
  8
0
 62
7
  6
CONTINUOUS
 10
143.8816584001
 20
654.3504898457
  0
VERTEX
  8
0
 62
7
  6
CONTINUOUS
 10
143.5550440217
 20
654.8213516135
  0
VERTEX
  8
0
 62
7
  6
CONTINUOUS
 10
143.2259497728
 20
655.3112093107
  0
VERTEX
  8
0
 62
7
  6
CONTINUOUS
 10
142.8998847874
 20
655.8163532831
  0
VERTEX
  8
0
 62
7
  6
CONTINUOUS
 10
142.5818655598
 20
656.3312351137
  0
VERTEX
  8
0
 62
7
  6
CONTINUOUS
 10
142.2774026079
 20
656.8519954383
  0
VERTEX
  8
0
 62
7
  6
CONTINUOUS
 10
141.991900622
 20
657.3698574451
  0
VERTEX
  8
0
 62
7
  6
CONTINUOUS
 10
141.7328197658
 20
657.8750385435
  0
VERTEX
  8
0
 62
7
  6
CONTINUOUS
 10
141.4998472975
 20
658.3666967051
  0
VERTEX
  8
0
 62
7
  6
CONTINUOUS
 10
141.2951803907
 20
658.8398046281
  0
VERTEX
  8
0
 62
7
  6
CONTINUOUS
 10
141.1169384673
 20
659.2971355423
  0
VERTEX
  8
0
 62
7
  6
CONTINUOUS
 10
140.9637944489
 20
659.7387310471
  0
VERTEX
  8
0
 62
7
  6
CONTINUOUS
 10
140.8343918352
 20
660.1677587323
  0
VERTEX
  8
0
 62
7
  6
CONTINUOUS
 10
140.7266483983
 20
660.58703841
  0
VERTEX
  8
0
 62
7
  6
CONTINUOUS
 10
140.6401844086
 20
660.9976550141
  0
VERTEX
  8
0
 62
7
  6
CONTINUOUS
 10
140.5738114882
 20
661.4012802666
  0
VERTEX
  8
0
 62
7
  6
CONTINUOUS
 10
140.5271747735
 20
661.7989736152
  0
VERTEX
  8
0
 62
7
  6
CONTINUOUS
 10
140.4993958463
 20
662.1913968892
  0
VERTEX
  8
0
 62
7
  6
CONTINUOUS
 10
140.4903940141
 20
662.5814146651
  0
VERTEX
  8
0
 62
7
  6
CONTINUOUS
 10
140.4994379947
 20
662.9712935464
  0
VERTEX
  8
0
 62
7
  6
CONTINUOUS
 10
140.5272509489
 20
663.3634892811
  0
VERTEX
  8
0
 62
7
  6
CONTINUOUS
 10
140.5738918964
 20
663.7609755908
  0
VERTEX
  8
0
 62
7
  6
CONTINUOUS
 10
140.6402722477
 20
664.1644651586
  0
VERTEX
  8
0
 62
7
  6
CONTINUOUS
 10
140.7267780132
 20
664.5751481998
  0
VERTEX
  8
0
 62
7
  6
CONTINUOUS
 10
140.8345798299
 20
664.9945658393
  0
VERTEX
  8
0
 62
7
  6
CONTINUOUS
 10
140.9640584737
 20
665.423725911
  0
VERTEX
  8
0
 62
7
  6
CONTINUOUS
 10
141.1172706857
 20
665.8654185034
  0
VERTEX
  8
0
 62
7
  6
CONTINUOUS
 10
141.2955161359
 20
666.3226858279
  0
VERTEX
  8
0
 62
7
  6
CONTINUOUS
 10
141.5002207421
 20
666.7957793492
  0
VERTEX
  8
0
 62
7
  6
CONTINUOUS
 10
141.7333516499
 20
667.2876848749
  0
VERTEX
  8
0
 62
7
  6
CONTINUOUS
 10
141.9926707359
 20
667.7932415878
  0
VERTEX
  8
0
 62
7
  6
CONTINUOUS
 10
142.2785357056
 20
668.3116263713
  0
VERTEX
  8
0
 62
7
  6
CONTINUOUS
 10
142.5833073904
 20
668.8328119303
  0
VERTEX
  8
0
 62
7
  6
CONTINUOUS
 10
142.901431571
 20
669.3477455364
  0
VERTEX
  8
0
 62
7
  6
CONTINUOUS
 10
143.2274251652
 20
669.8526803718
  0
VERTEX
  8
0
 62
7
  6
CONTINUOUS
 10
143.5561925852
 20
670.3419998964
  0
VERTEX
  8
0
 62
7
  6
CONTINUOUS
 10
143.8824323031
 20
670.8122605478
  0
VERTEX
  8
0
 62
7
  6
CONTINUOUS
 10
144.2008560081
 20
671.2582318697
  0
VERTEX
  8
0
 62
7
  6
CONTINUOUS
 10
144.5089394438
 20
671.6796580037
  0
VERTEX
  8
0
 62
7
  6
CONTINUOUS
 10
144.8034981442
 20
672.0743806202
  0
VERTEX
  8
0
 62
7
  6
CONTINUOUS
 10
145.0833205464
 20
672.4428766767
  0
VERTEX
  8
0
 62
7
  6
CONTINUOUS
 10
145.3469467793
 20
672.7848586137
  0
VERTEX
  8
0
 62
7
  6
CONTINUOUS
 10
145.5933359437
 20
673.1004616521
  0
VERTEX
  8
0
 62
7
  6
CONTINUOUS
 10
145.8214304712
 20
673.389403708
  0
SEQEND
  0
LINE
  8
0
 62
7
  6
CONTINUOUS
 10
146.6891220367
 20
-345.5356348171
 11
147.0018354488
 21
-345.1562188873
  0
LINE
  8
0
 62
7
  6
CONTINUOUS
 10
147.0018354488
 20
-345.1562188873
 11
147.1910701523
 21
-344.9283557801
  0
LINE
  8
0
 62
7
  6
CONTINUOUS
 10
147.1910701523
 20
-344.9283557801
 11
147.1988320173
 21
-344.9191740561
  0
LINE
  8
0
 62
7
  6
CONTINUOUS
 10
147.1988320173
 20
650.0808259439
 11
147.1910725706
 21
650.0899974589
  0
POLYLINE
  8
0
 62
7
  6
CONTINUOUS
 66
1
 70
0
  0
VERTEX
  8
0
 62
7
  6
CONTINUOUS
 10
147.1910725706
 20
650.0899974589
  0
VERTEX
  8
0
 62
7
  6
CONTINUOUS
 10
146.8099499291
 20
650.5502260726
  0
VERTEX
  8
0
 62
7
  6
CONTINUOUS
 10
146.6888957579
 20
650.6975626209
  0
SEQEND
  0
LINE
  8
0
 62
7
  6
CONTINUOUS
 10
147.1988320173
 20
650.0808259439
 11
239.1988320173
 21
650.0808259439
  0
LINE
  8
0
 62
7
  6
CONTINUOUS
 10
147.1988320173
 20
675.0808259439
 11
239.1988320173
 21
675.0808259439
  0
LINE
  8
0
 62
7
  6
CONTINUOUS
 10
117.1988608721
 20
762.5808259439
 11
147.1988031625
 21
762.5808259439
  0
ENDSEC
  0
EOF
