999
DXF file: K:\Client\125_Heirloom\001\00\Final_Data\Drawings\LADDER TOWEL WARMERS\wg825n_FRONT.dxf
999
Pro/ENGINEER 2017110 by Parametric Technology Corporation
  0
SECTION
  2
HEADER
  9
$EXTMAX
 10
420.0
 20
297.0
 30
0.0
  9
$EXTMIN
 10
0.0
 20
0.0
 30
0.0
  9
$LIMMIN
 10
0.0
 20
0.0
  9
$LIMMAX
 10
420.0
 20
297.0
  9
$VIEWCTR
 10
210.0
 20
148.5
  9
$VIEWSIZE
 40
297.0
  9
$CLAYER
  8
0
  9
$LTSCALE
 40
23.1
  9
$CELTYPE
  6
BYLAYER
  9
$DIMSCALE
 40
1.0
  9
$DIMASZ
 40
3.0
  9
$DIMEXO
 40
1.0
  9
$DIMDLI
 40
15.96
  9
$DIMEXE
 40
1.0
  9
$DIMCEN
 40
3.78
  9
$DIMLFAC
 40
1.0
  9
$DIMBLK
  1
_FILLED
  9
$DIMALT
 70
0
  9
$DIMALTF
 40
0.0393700787
  9
$DIMTXT
 40
3.0
  9
$AUNITS
 70
0
  9
$PDMODE
 70
3
  9
$PDSIZE
 40
5.0
  9
$TILEMODE
 70
1
  0
ENDSEC
  0
SECTION
  2
TABLES
  0
TABLE
  2
LTYPE
 70
6
  0
LTYPE
  2
BYBLOCK
 70
0
  3

 72
65
 73
0
 40
0.0
  0
LTYPE
  2
BYLAYER
 70
0
  3

 72
65
 73
0
 40
0.0
  0
LTYPE
  2
CONTINUOUS
 70
64
  3
Solid line
 72
65
 73
0
 40
0.0
  0
LTYPE
  2
CENTER
 70
64
  3
____ _ ____ _ ____ _ ____ _ ____ _ ____ _ ____
 72
65
 73
4
 40
0.6
 49
0.375
 49
-0.075
 49
0.075
 49
-0.075
  0
LTYPE
  2
HIDDEN
 70
64
  3
- - - - - - - - - - - - - - - - - - - -
 72
65
 73
2
 40
0.2
 49
0.1
 49
-0.1
  0
LTYPE
  2
PHANTOM
 70
64
  3
_____ _ _ _____ _ _ _____ _ _ _____
 72
65
 73
6
 40
0.8
 49
0.45
 49
-0.05
 49
0.1
 49
-0.05
 49
0.1
 49
-0.05
  0
LTYPE
  2
DOT
 70
64
  3
. . . . . . . . . . . . . . . . . . . .
 72
65
 73
2
 40
0.2
 49
0.1
 49
-0.1
  0
LTYPE
  2
DASHED
 70
64
  3
- - - - - - - - - - - - - - - - - - - -
 72
65
 73
2
 40
0.2
 49
0.1
 49
-0.1
  0
ENDTAB
  0
TABLE
  2
LAYER
 70
36
  0
LAYER
  2
0
 70
0
 62
7
  6
CONTINUOUS
  0
LAYER
  2
DEFAULT_1
 70
0
 62
7
  6
CENTER
  0
LAYER
  2
DEFAULT_2
 70
0
 62
8
  6
HIDDEN
  0
LAYER
  2
DEFAULT_3
 70
0
 62
7
  6
PHANTOM
  0
LAYER
  2
0000_BOM
 70
0
 62
7
  6
CONTINUOUS
  0
LAYER
  2
0000_REV_TABLE
 70
0
 62
7
  6
CONTINUOUS
  0
LAYER
  2
0000_STEVENS_NOTE
 70
0
 62
7
  6
CONTINUOUS
  0
LAYER
  2
01_DATUM_PLANES
 70
0
 62
7
  6
CONTINUOUS
  0
LAYER
  2
01_DEF_PLANES
 70
0
 62
7
  6
CONTINUOUS
  0
LAYER
  2
02_DATUM_COS
 70
0
 62
7
  6
CONTINUOUS
  0
LAYER
  2
99_SOLID
 70
0
 62
7
  6
CONTINUOUS
  0
LAYER
  2
CAD-MASTER_ZINC-PL
 70
0
 62
7
  6
CONTINUOUS
  0
LAYER
  2
CURVE
 70
0
 62
7
  6
CONTINUOUS
  0
LAYER
  2
SKEL
 70
0
 62
7
  6
CONTINUOUS
  0
LAYER
  2
SKETCH
 70
0
 62
7
  6
CONTINUOUS
  0
LAYER
  2
SURFACE
 70
0
 62
7
  6
CONTINUOUS
  0
ENDTAB
  0
TABLE
  2
STYLE
 70
1
  0
STYLE
  2
STANDARD
 70
0
 40
0.0
 41
0.75
 50
0.0
 71
0
 42
0.2
  3
txt
  4

  0
STYLE
  2
TEXTSTYLE_1
 70
0
 40
0.0
 41
0.8
 50
0.0
 71
0
 42
0.2
  3
gdt
  4

  0
ENDTAB
  0
ENDSEC
  0
SECTION
  2
BLOCKS
  0
ENDSEC
  0
SECTION
  2
ENTITIES
  0
POLYLINE
  8
0
 62
7
  6
CONTINUOUS
 66
1
 70
0
  0
VERTEX
  8
0
 62
7
  6
CONTINUOUS
 10
-85.724607958
 20
523.9740194371
  0
VERTEX
  8
0
 62
7
  6
CONTINUOUS
 10
-85.7306845535
 20
523.9658109078
  0
VERTEX
  8
0
 62
7
  6
CONTINUOUS
 10
-85.7489677524
 20
523.9407782823
  0
VERTEX
  8
0
 62
7
  6
CONTINUOUS
 10
-85.7795356457
 20
523.8990017721
  0
VERTEX
  8
0
 62
7
  6
CONTINUOUS
 10
-85.8224347787
 20
523.8402407429
  0
VERTEX
  8
0
 62
7
  6
CONTINUOUS
 10
-86.0256543065
 20
523.5598295152
  0
SEQEND
  0
POLYLINE
  8
0
 62
7
  6
CONTINUOUS
 66
1
 70
0
  0
VERTEX
  8
0
 62
7
  6
CONTINUOUS
 10
-85.7795215852
 20
-219.9509832464
  0
VERTEX
  8
0
 62
7
  6
CONTINUOUS
 10
-85.7489628482
 20
-219.9927461051
  0
VERTEX
  8
0
 62
7
  6
CONTINUOUS
 10
-85.7306835736
 20
-220.017772344
  0
VERTEX
  8
0
 62
7
  6
CONTINUOUS
 10
-85.724607958
 20
-220.0259805629
  0
SEQEND
  0
POLYLINE
  8
0
 62
7
  6
CONTINUOUS
 66
1
 70
0
  0
VERTEX
  8
0
 62
7
  6
CONTINUOUS
 10
-86.4741962076
 20
522.9276757327
  0
VERTEX
  8
0
 62
7
  6
CONTINUOUS
 10
-86.6183387657
 20
522.7201381787
  0
VERTEX
  8
0
 62
7
  6
CONTINUOUS
 10
-86.7756897534
 20
522.4909370275
  0
VERTEX
  8
0
 62
7
  6
CONTINUOUS
 10
-86.9455051846
 20
522.2402847712
  0
VERTEX
  8
0
 62
7
  6
CONTINUOUS
 10
-87.1272619701
 20
521.9677126283
  0
VERTEX
  8
0
 62
7
  6
CONTINUOUS
 10
-87.3196810532
 20
521.6741381331
  0
VERTEX
  8
0
 62
7
  6
CONTINUOUS
 10
-87.5213453609
 20
521.3600432929
  0
VERTEX
  8
0
 62
7
  6
CONTINUOUS
 10
-87.7308143161
 20
521.0262659068
  0
VERTEX
  8
0
 62
7
  6
CONTINUOUS
 10
-87.9464229992
 20
520.6734754386
  0
VERTEX
  8
0
 62
7
  6
CONTINUOUS
 10
-88.166385297
 20
520.3026589018
  0
VERTEX
  8
0
 62
7
  6
CONTINUOUS
 10
-88.3891092628
 20
519.9139142162
  0
VERTEX
  8
0
 62
7
  6
CONTINUOUS
 10
-88.6115323987
 20
519.510578127
  0
VERTEX
  8
0
 62
7
  6
CONTINUOUS
 10
-88.8305531042
 20
519.0949707457
  0
VERTEX
  8
0
 62
7
  6
CONTINUOUS
 10
-89.0435580278
 20
518.6702398921
  0
VERTEX
  8
0
 62
7
  6
CONTINUOUS
 10
-89.2475133185
 20
518.2390476442
  0
VERTEX
  8
0
 62
7
  6
CONTINUOUS
 10
-89.4401040392
 20
517.8051713384
  0
VERTEX
  8
0
 62
7
  6
CONTINUOUS
 10
-89.6183603259
 20
517.3724723071
  0
VERTEX
  8
0
 62
7
  6
CONTINUOUS
 10
-89.7813145972
 20
516.9433606396
  0
VERTEX
  8
0
 62
7
  6
CONTINUOUS
 10
-89.927073684
 20
516.5218743653
  0
VERTEX
  8
0
 62
7
  6
CONTINUOUS
 10
-90.0561727027
 20
516.1069909973
  0
VERTEX
  8
0
 62
7
  6
CONTINUOUS
 10
-90.1687310897
 20
515.6994085369
  0
VERTEX
  8
0
 62
7
  6
CONTINUOUS
 10
-90.2651193398
 20
515.2980035497
  0
VERTEX
  8
0
 62
7
  6
CONTINUOUS
 10
-90.3459312782
 20
514.9023250998
  0
VERTEX
  8
0
 62
7
  6
CONTINUOUS
 10
-90.411389532
 20
514.511053693
  0
VERTEX
  8
0
 62
7
  6
CONTINUOUS
 10
-90.4620993564
 20
514.1227549593
  0
VERTEX
  8
0
 62
7
  6
CONTINUOUS
 10
-90.4980429578
 20
513.7373225902
  0
VERTEX
  8
0
 62
7
  6
CONTINUOUS
 10
-90.5195308124
 20
513.3546949625
  0
VERTEX
  8
0
 62
7
  6
CONTINUOUS
 10
-90.5265689057
 20
512.9733036506
  0
VERTEX
  8
0
 62
7
  6
CONTINUOUS
 10
-90.5194844266
 20
512.591993319
  0
VERTEX
  8
0
 62
7
  6
CONTINUOUS
 10
-90.4979493428
 20
512.2094630742
  0
VERTEX
  8
0
 62
7
  6
CONTINUOUS
 10
-90.4619588287
 20
511.8240321006
  0
VERTEX
  8
0
 62
7
  6
CONTINUOUS
 10
-90.4111956534
 20
511.4356848292
  0
VERTEX
  8
0
 62
7
  6
CONTINUOUS
 10
-90.3456632475
 20
511.0442917503
  0
VERTEX
  8
0
 62
7
  6
CONTINUOUS
 10
-90.2647811838
 20
510.6485138691
  0
VERTEX
  8
0
 62
7
  6
CONTINUOUS
 10
-90.1683527964
 20
510.2471547728
  0
VERTEX
  8
0
 62
7
  6
CONTINUOUS
 10
-90.0557642252
 20
509.8396572058
  0
VERTEX
  8
0
 62
7
  6
CONTINUOUS
 10
-89.9266386325
 20
509.4248361369
  0
VERTEX
  8
0
 62
7
  6
CONTINUOUS
 10
-89.7808430842
 20
509.0033784796
  0
VERTEX
  8
0
 62
7
  6
CONTINUOUS
 10
-89.6178232619
 20
508.5742139901
  0
VERTEX
  8
0
 62
7
  6
CONTINUOUS
 10
-89.4394881414
 20
508.1414291093
  0
VERTEX
  8
0
 62
7
  6
CONTINUOUS
 10
-89.2467901681
 20
507.7074271456
  0
VERTEX
  8
0
 62
7
  6
CONTINUOUS
 10
-89.0427719893
 20
507.2761872528
  0
VERTEX
  8
0
 62
7
  6
CONTINUOUS
 10
-88.8298287546
 20
506.8516527589
  0
VERTEX
  8
0
 62
7
  6
CONTINUOUS
 10
-88.6109245794
 20
506.4363344493
  0
VERTEX
  8
0
 62
7
  6
CONTINUOUS
 10
-88.3886469494
 20
506.0332971258
  0
VERTEX
  8
0
 62
7
  6
CONTINUOUS
 10
-88.1660597104
 20
505.644822067
  0
VERTEX
  8
0
 62
7
  6
CONTINUOUS
 10
-87.9461789386
 20
505.274160352
  0
VERTEX
  8
0
 62
7
  6
CONTINUOUS
 10
-87.7306249429
 20
504.9214673821
  0
VERTEX
  8
0
 62
7
  6
CONTINUOUS
 10
-87.5211981259
 20
504.5877631423
  0
VERTEX
  8
0
 62
7
  6
CONTINUOUS
 10
-87.3195539869
 20
504.2737049617
  0
VERTEX
  8
0
 62
7
  6
CONTINUOUS
 10
-87.1271237199
 20
503.980119294
  0
VERTEX
  8
0
 62
7
  6
CONTINUOUS
 10
-86.9453469116
 20
503.7075187499
  0
VERTEX
  8
0
 62
7
  6
CONTINUOUS
 10
-86.7755168441
 20
503.4568490366
  0
VERTEX
  8
0
 62
7
  6
CONTINUOUS
 10
-86.6181567958
 20
503.2276373189
  0
VERTEX
  8
0
 62
7
  6
CONTINUOUS
 10
-86.4740099151
 20
503.0200982999
  0
VERTEX
  8
0
 62
7
  6
CONTINUOUS
 10
-86.2243031055
 20
502.66579229
  0
SEQEND
  0
LINE
  8
0
 62
7
  6
CONTINUOUS
 10
-86.2244360318
 20
523.2820562625
 11
-86.4741962076
 21
522.9276757327
  0
LINE
  8
0
 62
7
  6
CONTINUOUS
 10
-86.0256543065
 20
523.5598295152
 11
-86.2244360318
 21
523.2820562625
  0
LINE
  8
0
 62
7
  6
CONTINUOUS
 10
-85.724607958
 20
-260.5259805629
 11
-115.724607958
 21
-260.5259805629
  0
LINE
  8
0
 62
7
  6
CONTINUOUS
 10
454.275392042
 20
-260.5259805629
 11
484.275392042
 21
-260.5259805629
  0
LINE
  8
0
 62
7
  6
CONTINUOUS
 10
-85.9452433958
 20
-219.7231585489
 11
-85.7795215852
 21
-219.9509832464
  0
LINE
  8
0
 62
7
  6
CONTINUOUS
 10
-86.1186148394
 20
-219.4823200267
 11
-85.9452433958
 21
-219.7231585489
  0
POLYLINE
  8
0
 62
7
  6
CONTINUOUS
 66
1
 70
0
  0
VERTEX
  8
0
 62
7
  6
CONTINUOUS
 10
-86.4741962076
 20
425.9276757327
  0
VERTEX
  8
0
 62
7
  6
CONTINUOUS
 10
-86.6183387657
 20
425.7201381787
  0
VERTEX
  8
0
 62
7
  6
CONTINUOUS
 10
-86.7756897534
 20
425.4909370275
  0
VERTEX
  8
0
 62
7
  6
CONTINUOUS
 10
-86.9455051846
 20
425.2402847712
  0
VERTEX
  8
0
 62
7
  6
CONTINUOUS
 10
-87.1272619701
 20
424.9677126283
  0
VERTEX
  8
0
 62
7
  6
CONTINUOUS
 10
-87.3196810532
 20
424.6741381331
  0
VERTEX
  8
0
 62
7
  6
CONTINUOUS
 10
-87.5213453609
 20
424.3600432929
  0
VERTEX
  8
0
 62
7
  6
CONTINUOUS
 10
-87.7308143161
 20
424.0262659068
  0
VERTEX
  8
0
 62
7
  6
CONTINUOUS
 10
-87.9464229992
 20
423.6734754386
  0
VERTEX
  8
0
 62
7
  6
CONTINUOUS
 10
-88.166385297
 20
423.3026589018
  0
VERTEX
  8
0
 62
7
  6
CONTINUOUS
 10
-88.3891092628
 20
422.9139142162
  0
VERTEX
  8
0
 62
7
  6
CONTINUOUS
 10
-88.6115323987
 20
422.510578127
  0
VERTEX
  8
0
 62
7
  6
CONTINUOUS
 10
-88.8305531042
 20
422.0949707457
  0
VERTEX
  8
0
 62
7
  6
CONTINUOUS
 10
-89.0435580278
 20
421.6702398921
  0
VERTEX
  8
0
 62
7
  6
CONTINUOUS
 10
-89.2475133185
 20
421.2390476442
  0
VERTEX
  8
0
 62
7
  6
CONTINUOUS
 10
-89.4401040392
 20
420.8051713384
  0
VERTEX
  8
0
 62
7
  6
CONTINUOUS
 10
-89.6183603259
 20
420.3724723071
  0
VERTEX
  8
0
 62
7
  6
CONTINUOUS
 10
-89.7813145972
 20
419.9433606396
  0
VERTEX
  8
0
 62
7
  6
CONTINUOUS
 10
-89.927073684
 20
419.5218743653
  0
VERTEX
  8
0
 62
7
  6
CONTINUOUS
 10
-90.0561727027
 20
419.1069909973
  0
VERTEX
  8
0
 62
7
  6
CONTINUOUS
 10
-90.1687310897
 20
418.6994085369
  0
VERTEX
  8
0
 62
7
  6
CONTINUOUS
 10
-90.2651193398
 20
418.2980035497
  0
VERTEX
  8
0
 62
7
  6
CONTINUOUS
 10
-90.3459312782
 20
417.9023250998
  0
VERTEX
  8
0
 62
7
  6
CONTINUOUS
 10
-90.411389532
 20
417.511053693
  0
VERTEX
  8
0
 62
7
  6
CONTINUOUS
 10
-90.4620993564
 20
417.1227549593
  0
VERTEX
  8
0
 62
7
  6
CONTINUOUS
 10
-90.4980429578
 20
416.7373225902
  0
VERTEX
  8
0
 62
7
  6
CONTINUOUS
 10
-90.5195308124
 20
416.3546949625
  0
VERTEX
  8
0
 62
7
  6
CONTINUOUS
 10
-90.5265689057
 20
415.9733036506
  0
VERTEX
  8
0
 62
7
  6
CONTINUOUS
 10
-90.5194844266
 20
415.591993319
  0
VERTEX
  8
0
 62
7
  6
CONTINUOUS
 10
-90.4979493428
 20
415.2094630742
  0
VERTEX
  8
0
 62
7
  6
CONTINUOUS
 10
-90.4619588287
 20
414.8240321006
  0
VERTEX
  8
0
 62
7
  6
CONTINUOUS
 10
-90.4111956534
 20
414.4356848292
  0
VERTEX
  8
0
 62
7
  6
CONTINUOUS
 10
-90.3456632475
 20
414.0442917503
  0
VERTEX
  8
0
 62
7
  6
CONTINUOUS
 10
-90.2647811838
 20
413.6485138691
  0
VERTEX
  8
0
 62
7
  6
CONTINUOUS
 10
-90.1683527964
 20
413.2471547728
  0
VERTEX
  8
0
 62
7
  6
CONTINUOUS
 10
-90.0557642252
 20
412.8396572058
  0
VERTEX
  8
0
 62
7
  6
CONTINUOUS
 10
-89.9266386325
 20
412.4248361369
  0
VERTEX
  8
0
 62
7
  6
CONTINUOUS
 10
-89.7808430842
 20
412.0033784796
  0
VERTEX
  8
0
 62
7
  6
CONTINUOUS
 10
-89.6178232619
 20
411.5742139901
  0
VERTEX
  8
0
 62
7
  6
CONTINUOUS
 10
-89.4394881414
 20
411.1414291093
  0
VERTEX
  8
0
 62
7
  6
CONTINUOUS
 10
-89.2467901681
 20
410.7074271456
  0
VERTEX
  8
0
 62
7
  6
CONTINUOUS
 10
-89.0427719893
 20
410.2761872528
  0
VERTEX
  8
0
 62
7
  6
CONTINUOUS
 10
-88.8298287546
 20
409.8516527589
  0
VERTEX
  8
0
 62
7
  6
CONTINUOUS
 10
-88.6109245794
 20
409.4363344493
  0
VERTEX
  8
0
 62
7
  6
CONTINUOUS
 10
-88.3886469494
 20
409.0332971258
  0
VERTEX
  8
0
 62
7
  6
CONTINUOUS
 10
-88.1660597104
 20
408.644822067
  0
VERTEX
  8
0
 62
7
  6
CONTINUOUS
 10
-87.9461789386
 20
408.274160352
  0
VERTEX
  8
0
 62
7
  6
CONTINUOUS
 10
-87.7306249429
 20
407.9214673821
  0
VERTEX
  8
0
 62
7
  6
CONTINUOUS
 10
-87.5211981259
 20
407.5877631423
  0
VERTEX
  8
0
 62
7
  6
CONTINUOUS
 10
-87.3195539869
 20
407.2737049617
  0
VERTEX
  8
0
 62
7
  6
CONTINUOUS
 10
-87.1271237199
 20
406.980119294
  0
VERTEX
  8
0
 62
7
  6
CONTINUOUS
 10
-86.9453469116
 20
406.7075187499
  0
VERTEX
  8
0
 62
7
  6
CONTINUOUS
 10
-86.7755168441
 20
406.4568490366
  0
VERTEX
  8
0
 62
7
  6
CONTINUOUS
 10
-86.6181567958
 20
406.2276373189
  0
VERTEX
  8
0
 62
7
  6
CONTINUOUS
 10
-86.4740099151
 20
406.0200982999
  0
VERTEX
  8
0
 62
7
  6
CONTINUOUS
 10
-86.2243031055
 20
405.66579229
  0
SEQEND
  0
LINE
  8
0
 62
7
  6
CONTINUOUS
 10
-86.2244360318
 20
426.2820562625
 11
-86.4741962076
 21
425.9276757327
  0
LINE
  8
0
 62
7
  6
CONTINUOUS
 10
-86.0256543065
 20
426.5598295152
 11
-86.2244360318
 21
426.2820562625
  0
LINE
  8
0
 62
7
  6
CONTINUOUS
 10
-85.8224347787
 20
426.8402407429
 11
-86.0256543065
 21
426.5598295152
  0
LINE
  8
0
 62
7
  6
CONTINUOUS
 10
-85.7306845535
 20
426.9658109078
 11
-85.8224347787
 21
426.8402407429
  0
LINE
  8
0
 62
7
  6
CONTINUOUS
 10
-85.724607958
 20
426.9740194371
 11
-85.7306845535
 21
426.9658109078
  0
LINE
  8
0
 62
7
  6
CONTINUOUS
 10
-85.724607958
 20
-220.0259805629
 11
454.275392042
 21
-220.0259805629
  0
LINE
  8
0
 62
7
  6
CONTINUOUS
 10
-85.7306835736
 20
-123.017772344
 11
-85.724607958
 21
-123.0259805629
  0
LINE
  8
0
 62
7
  6
CONTINUOUS
 10
-85.8775995029
 20
-122.8164698073
 11
-85.7306835736
 21
-123.017772344
  0
LINE
  8
0
 62
7
  6
CONTINUOUS
 10
-86.0255847143
 20
-122.6118864178
 11
-85.8775995029
 21
-122.8164698073
  0
LINE
  8
0
 62
7
  6
CONTINUOUS
 10
-86.2243031055
 20
-122.33420771
 11
-86.0255847143
 21
-122.6118864178
  0
LINE
  8
0
 62
7
  6
CONTINUOUS
 10
454.275392042
 20
-198.0259805629
 11
-85.724607958
 21
-198.0259805629
  0
LINE
  8
0
 62
7
  6
CONTINUOUS
 10
-115.724607958
 20
564.4740194371
 11
-115.724607958
 21
-260.5259805629
  0
LINE
  8
0
 62
7
  6
CONTINUOUS
 10
-85.724607958
 20
564.4740194371
 11
-85.724607958
 21
523.9740194371
  0
LINE
  8
0
 62
7
  6
CONTINUOUS
 10
-85.724607958
 20
501.9740194371
 11
-85.724607958
 21
426.9740194371
  0
LINE
  8
0
 62
7
  6
CONTINUOUS
 10
-85.724607958
 20
404.9740194371
 11
-85.724607958
 21
259.9740194371
  0
LINE
  8
0
 62
7
  6
CONTINUOUS
 10
-85.724607958
 20
237.9740194371
 11
-85.724607958
 21
162.9740194371
  0
LINE
  8
0
 62
7
  6
CONTINUOUS
 10
-85.724607958
 20
140.9740194371
 11
-85.724607958
 21
65.9740194371
  0
LINE
  8
0
 62
7
  6
CONTINUOUS
 10
-85.724607958
 20
43.9740194371
 11
-85.724607958
 21
-101.0259805629
  0
LINE
  8
0
 62
7
  6
CONTINUOUS
 10
-85.724607958
 20
-123.0259805629
 11
-85.724607958
 21
-198.0259805629
  0
LINE
  8
0
 62
7
  6
CONTINUOUS
 10
-85.724607958
 20
-220.0259805629
 11
-85.724607958
 21
-260.5259805629
  0
POLYLINE
  8
0
 62
7
  6
CONTINUOUS
 66
1
 70
0
  0
VERTEX
  8
0
 62
7
  6
CONTINUOUS
 10
-86.4741962076
 20
258.9276757327
  0
VERTEX
  8
0
 62
7
  6
CONTINUOUS
 10
-86.6183387657
 20
258.7201381787
  0
VERTEX
  8
0
 62
7
  6
CONTINUOUS
 10
-86.7756897534
 20
258.4909370275
  0
VERTEX
  8
0
 62
7
  6
CONTINUOUS
 10
-86.9455051846
 20
258.2402847712
  0
VERTEX
  8
0
 62
7
  6
CONTINUOUS
 10
-87.1272619701
 20
257.9677126283
  0
VERTEX
  8
0
 62
7
  6
CONTINUOUS
 10
-87.3196810532
 20
257.6741381331
  0
VERTEX
  8
0
 62
7
  6
CONTINUOUS
 10
-87.5213453609
 20
257.3600432929
  0
VERTEX
  8
0
 62
7
  6
CONTINUOUS
 10
-87.7308143161
 20
257.0262659068
  0
VERTEX
  8
0
 62
7
  6
CONTINUOUS
 10
-87.9464229992
 20
256.6734754386
  0
VERTEX
  8
0
 62
7
  6
CONTINUOUS
 10
-88.166385297
 20
256.3026589018
  0
VERTEX
  8
0
 62
7
  6
CONTINUOUS
 10
-88.3891092628
 20
255.9139142162
  0
VERTEX
  8
0
 62
7
  6
CONTINUOUS
 10
-88.6115323987
 20
255.510578127
  0
VERTEX
  8
0
 62
7
  6
CONTINUOUS
 10
-88.8305531042
 20
255.0949707457
  0
VERTEX
  8
0
 62
7
  6
CONTINUOUS
 10
-89.0435580278
 20
254.6702398921
  0
VERTEX
  8
0
 62
7
  6
CONTINUOUS
 10
-89.2475133185
 20
254.2390476442
  0
VERTEX
  8
0
 62
7
  6
CONTINUOUS
 10
-89.4401040392
 20
253.8051713384
  0
VERTEX
  8
0
 62
7
  6
CONTINUOUS
 10
-89.6183603259
 20
253.3724723071
  0
VERTEX
  8
0
 62
7
  6
CONTINUOUS
 10
-89.7813145972
 20
252.9433606396
  0
VERTEX
  8
0
 62
7
  6
CONTINUOUS
 10
-89.927073684
 20
252.5218743653
  0
VERTEX
  8
0
 62
7
  6
CONTINUOUS
 10
-90.0561727027
 20
252.1069909973
  0
VERTEX
  8
0
 62
7
  6
CONTINUOUS
 10
-90.1687310897
 20
251.6994085369
  0
VERTEX
  8
0
 62
7
  6
CONTINUOUS
 10
-90.2651193398
 20
251.2980035497
  0
VERTEX
  8
0
 62
7
  6
CONTINUOUS
 10
-90.3459312782
 20
250.9023250998
  0
VERTEX
  8
0
 62
7
  6
CONTINUOUS
 10
-90.411389532
 20
250.511053693
  0
VERTEX
  8
0
 62
7
  6
CONTINUOUS
 10
-90.4620993564
 20
250.1227549593
  0
VERTEX
  8
0
 62
7
  6
CONTINUOUS
 10
-90.4980429578
 20
249.7373225902
  0
VERTEX
  8
0
 62
7
  6
CONTINUOUS
 10
-90.5195308124
 20
249.3546949625
  0
VERTEX
  8
0
 62
7
  6
CONTINUOUS
 10
-90.5265689057
 20
248.9733036506
  0
VERTEX
  8
0
 62
7
  6
CONTINUOUS
 10
-90.5194844266
 20
248.591993319
  0
VERTEX
  8
0
 62
7
  6
CONTINUOUS
 10
-90.4979493428
 20
248.2094630742
  0
VERTEX
  8
0
 62
7
  6
CONTINUOUS
 10
-90.4619588287
 20
247.8240321006
  0
VERTEX
  8
0
 62
7
  6
CONTINUOUS
 10
-90.4111956534
 20
247.4356848292
  0
VERTEX
  8
0
 62
7
  6
CONTINUOUS
 10
-90.3456632475
 20
247.0442917503
  0
VERTEX
  8
0
 62
7
  6
CONTINUOUS
 10
-90.2647811838
 20
246.6485138691
  0
VERTEX
  8
0
 62
7
  6
CONTINUOUS
 10
-90.1683527964
 20
246.2471547728
  0
VERTEX
  8
0
 62
7
  6
CONTINUOUS
 10
-90.0557642252
 20
245.8396572058
  0
VERTEX
  8
0
 62
7
  6
CONTINUOUS
 10
-89.9266386325
 20
245.4248361369
  0
VERTEX
  8
0
 62
7
  6
CONTINUOUS
 10
-89.7808430842
 20
245.0033784796
  0
VERTEX
  8
0
 62
7
  6
CONTINUOUS
 10
-89.6178232619
 20
244.5742139901
  0
VERTEX
  8
0
 62
7
  6
CONTINUOUS
 10
-89.4394881414
 20
244.1414291093
  0
VERTEX
  8
0
 62
7
  6
CONTINUOUS
 10
-89.2467901681
 20
243.7074271456
  0
VERTEX
  8
0
 62
7
  6
CONTINUOUS
 10
-89.0427719893
 20
243.2761872528
  0
VERTEX
  8
0
 62
7
  6
CONTINUOUS
 10
-88.8298287546
 20
242.8516527589
  0
VERTEX
  8
0
 62
7
  6
CONTINUOUS
 10
-88.6109245794
 20
242.4363344493
  0
VERTEX
  8
0
 62
7
  6
CONTINUOUS
 10
-88.3886469494
 20
242.0332971258
  0
VERTEX
  8
0
 62
7
  6
CONTINUOUS
 10
-88.1660597104
 20
241.644822067
  0
VERTEX
  8
0
 62
7
  6
CONTINUOUS
 10
-87.9461789386
 20
241.274160352
  0
VERTEX
  8
0
 62
7
  6
CONTINUOUS
 10
-87.7306249429
 20
240.9214673821
  0
VERTEX
  8
0
 62
7
  6
CONTINUOUS
 10
-87.5211981259
 20
240.5877631423
  0
VERTEX
  8
0
 62
7
  6
CONTINUOUS
 10
-87.3195539869
 20
240.2737049617
  0
VERTEX
  8
0
 62
7
  6
CONTINUOUS
 10
-87.1271237199
 20
239.980119294
  0
VERTEX
  8
0
 62
7
  6
CONTINUOUS
 10
-86.9453469116
 20
239.7075187499
  0
VERTEX
  8
0
 62
7
  6
CONTINUOUS
 10
-86.7755168441
 20
239.4568490366
  0
VERTEX
  8
0
 62
7
  6
CONTINUOUS
 10
-86.6181567958
 20
239.2276373189
  0
VERTEX
  8
0
 62
7
  6
CONTINUOUS
 10
-86.4740099151
 20
239.0200982999
  0
VERTEX
  8
0
 62
7
  6
CONTINUOUS
 10
-86.2243031055
 20
238.66579229
  0
SEQEND
  0
LINE
  8
0
 62
7
  6
CONTINUOUS
 10
-86.2244360318
 20
259.2820562625
 11
-86.4741962076
 21
258.9276757327
  0
LINE
  8
0
 62
7
  6
CONTINUOUS
 10
-86.0256543065
 20
259.5598295152
 11
-86.2244360318
 21
259.2820562625
  0
LINE
  8
0
 62
7
  6
CONTINUOUS
 10
-85.8224347787
 20
259.8402407429
 11
-86.0256543065
 21
259.5598295152
  0
LINE
  8
0
 62
7
  6
CONTINUOUS
 10
-85.7306845535
 20
259.9658109078
 11
-85.8224347787
 21
259.8402407429
  0
LINE
  8
0
 62
7
  6
CONTINUOUS
 10
-85.724607958
 20
259.9740194371
 11
-85.7306845535
 21
259.9658109078
  0
LINE
  8
0
 62
7
  6
CONTINUOUS
 10
-85.724607958
 20
-123.0259805629
 11
454.275392042
 21
-123.0259805629
  0
LINE
  8
0
 62
7
  6
CONTINUOUS
 10
-85.7306835736
 20
43.982227656
 11
-85.724607958
 21
43.9740194371
  0
LINE
  8
0
 62
7
  6
CONTINUOUS
 10
-85.8775995029
 20
44.1835301927
 11
-85.7306835736
 21
43.982227656
  0
LINE
  8
0
 62
7
  6
CONTINUOUS
 10
-86.0255847143
 20
44.3881135822
 11
-85.8775995029
 21
44.1835301927
  0
LINE
  8
0
 62
7
  6
CONTINUOUS
 10
-86.2243031055
 20
44.66579229
 11
-86.0255847143
 21
44.3881135822
  0
LINE
  8
0
 62
7
  6
CONTINUOUS
 10
454.275392042
 20
-101.0259805629
 11
-85.724607958
 21
-101.0259805629
  0
POLYLINE
  8
0
 62
7
  6
CONTINUOUS
 66
1
 70
0
  0
VERTEX
  8
0
 62
7
  6
CONTINUOUS
 10
-86.4742448576
 20
161.9276061936
  0
VERTEX
  8
0
 62
7
  6
CONTINUOUS
 10
-86.6183974026
 20
161.7200533092
  0
VERTEX
  8
0
 62
7
  6
CONTINUOUS
 10
-86.7757614554
 20
161.4908317446
  0
VERTEX
  8
0
 62
7
  6
CONTINUOUS
 10
-86.9455914951
 20
161.2401564253
  0
VERTEX
  8
0
 62
7
  6
CONTINUOUS
 10
-87.1273632976
 20
160.9675591836
  0
VERTEX
  8
0
 62
7
  6
CONTINUOUS
 10
-87.3197961565
 20
160.6739607837
  0
VERTEX
  8
0
 62
7
  6
CONTINUOUS
 10
-87.5214706707
 20
160.3598458244
  0
VERTEX
  8
0
 62
7
  6
CONTINUOUS
 10
-87.73094524
 20
160.0260546351
  0
VERTEX
  8
0
 62
7
  6
CONTINUOUS
 10
-87.946551684
 20
159.6732623449
  0
VERTEX
  8
0
 62
7
  6
CONTINUOUS
 10
-88.1665076991
 20
159.3024491538
  0
VERTEX
  8
0
 62
7
  6
CONTINUOUS
 10
-88.3892231569
 20
158.9137129515
  0
VERTEX
  8
0
 62
7
  6
CONTINUOUS
 10
-88.6116415798
 20
158.5103757982
  0
VERTEX
  8
0
 62
7
  6
CONTINUOUS
 10
-88.8306698918
 20
158.0947443763
  0
VERTEX
  8
0
 62
7
  6
CONTINUOUS
 10
-89.0436931926
 20
157.6699627091
  0
VERTEX
  8
0
 62
7
  6
CONTINUOUS
 10
-89.2476942419
 20
157.2386425569
  0
VERTEX
  8
0
 62
7
  6
CONTINUOUS
 10
-89.4403112194
 20
156.8046873914
  0
VERTEX
  8
0
 62
7
  6
CONTINUOUS
 10
-89.6185174842
 20
156.3720741519
  0
VERTEX
  8
0
 62
7
  6
CONTINUOUS
 10
-89.7813749684
 20
155.9431941959
  0
VERTEX
  8
0
 62
7
  6
CONTINUOUS
 10
-89.9269665913
 20
155.5222500814
  0
VERTEX
  8
0
 62
7
  6
CONTINUOUS
 10
-90.05593946
 20
155.1077851466
  0
VERTEX
  8
0
 62
7
  6
CONTINUOUS
 10
-90.1685421647
 20
154.7001903904
  0
VERTEX
  8
0
 62
7
  6
CONTINUOUS
 10
-90.2650922677
 20
154.298125389
  0
VERTEX
  8
0
 62
7
  6
CONTINUOUS
 10
-90.3462407654
 20
153.900466115
  0
VERTEX
  8
0
 62
7
  6
CONTINUOUS
 10
-90.4119996783
 20
153.5069543776
  0
VERTEX
  8
0
 62
7
  6
CONTINUOUS
 10
-90.4627311307
 20
153.116588157
  0
VERTEX
  8
0
 62
7
  6
CONTINUOUS
 10
-90.4985517834
 20
152.7304749137
  0
VERTEX
  8
0
 62
7
  6
CONTINUOUS
 10
-90.5197459613
 20
152.3506689569
  0
VERTEX
  8
0
 62
7
  6
CONTINUOUS
 10
-90.5265689074
 20
151.9733277202
  0
VERTEX
  8
0
 62
7
  6
CONTINUOUS
 10
-90.5197091566
 20
151.5961557116
  0
VERTEX
  8
0
 62
7
  6
CONTINUOUS
 10
-90.4984779137
 20
151.2165660164
  0
VERTEX
  8
0
 62
7
  6
CONTINUOUS
 10
-90.462624702
 20
150.8304959952
  0
VERTEX
  8
0
 62
7
  6
CONTINUOUS
 10
-90.4118499183
 20
150.4400773305
  0
VERTEX
  8
0
 62
7
  6
CONTINUOUS
 10
-90.3460139449
 20
150.0463780505
  0
VERTEX
  8
0
 62
7
  6
CONTINUOUS
 10
-90.2647839876
 20
149.6485264801
  0
VERTEX
  8
0
 62
7
  6
CONTINUOUS
 10
-90.1681717226
 20
149.2464089653
  0
VERTEX
  8
0
 62
7
  6
CONTINUOUS
 10
-90.0555180799
 20
148.8388194709
  0
VERTEX
  8
0
 62
7
  6
CONTINUOUS
 10
-89.9265118615
 20
148.4243983705
  0
VERTEX
  8
0
 62
7
  6
CONTINUOUS
 10
-89.7808845556
 20
148.0034927832
  0
VERTEX
  8
0
 62
7
  6
CONTINUOUS
 10
-89.6179700499
 20
147.5745838684
  0
VERTEX
  8
0
 62
7
  6
CONTINUOUS
 10
-89.4396940116
 20
147.1419098793
  0
VERTEX
  8
0
 62
7
  6
CONTINUOUS
 10
-89.2469711478
 20
146.7078329537
  0
VERTEX
  8
0
 62
7
  6
CONTINUOUS
 10
-89.0429062861
 20
146.2764625965
  0
VERTEX
  8
0
 62
7
  6
CONTINUOUS
 10
-88.8299438885
 20
145.8518759862
  0
VERTEX
  8
0
 62
7
  6
CONTINUOUS
 10
-88.6110313246
 20
145.4365322397
  0
VERTEX
  8
0
 62
7
  6
CONTINUOUS
 10
-88.3887582851
 20
145.0334938161
  0
VERTEX
  8
0
 62
7
  6
CONTINUOUS
 10
-88.1661798152
 20
144.645027868
  0
VERTEX
  8
0
 62
7
  6
CONTINUOUS
 10
-87.946306026
 20
144.2743707462
  0
VERTEX
  8
0
 62
7
  6
CONTINUOUS
 10
-87.7307550403
 20
143.9216773152
  0
VERTEX
  8
0
 62
7
  6
CONTINUOUS
 10
-87.5213231645
 20
143.5879601736
  0
VERTEX
  8
0
 62
7
  6
CONTINUOUS
 10
-87.3196691943
 20
143.2738824692
  0
VERTEX
  8
0
 62
7
  6
CONTINUOUS
 10
-87.1272252726
 20
142.9802730868
  0
VERTEX
  8
0
 62
7
  6
CONTINUOUS
 10
-86.945433437
 20
142.7076474133
  0
VERTEX
  8
0
 62
7
  6
CONTINUOUS
 10
-86.7755886784
 20
142.4569545204
  0
VERTEX
  8
0
 62
7
  6
CONTINUOUS
 10
-86.6182154677
 20
142.227722238
  0
VERTEX
  8
0
 62
7
  6
CONTINUOUS
 10
-86.4740585426
 20
142.0201678081
  0
VERTEX
  8
0
 62
7
  6
CONTINUOUS
 10
-86.2243358361
 20
141.665838273
  0
SEQEND
  0
LINE
  8
0
 62
7
  6
CONTINUOUS
 10
-86.2244687851
 20
162.2820102423
 11
-86.4742448576
 21
161.9276061936
  0
LINE
  8
0
 62
7
  6
CONTINUOUS
 10
-86.0256742243
 20
162.559801846
 11
-86.2244687851
 21
162.2820102423
  0
LINE
  8
0
 62
7
  6
CONTINUOUS
 10
-85.8224410611
 20
162.840232127
 11
-86.0256742243
 21
162.559801846
  0
LINE
  8
0
 62
7
  6
CONTINUOUS
 10
-85.7306849168
 20
162.9658104562
 11
-85.8224410611
 21
162.840232127
  0
LINE
  8
0
 62
7
  6
CONTINUOUS
 10
-85.724607958
 20
162.9740194371
 11
-85.7306849168
 21
162.9658104562
  0
LINE
  8
0
 62
7
  6
CONTINUOUS
 10
-85.7306839362
 20
140.9822281052
 11
-85.724607958
 21
140.9740194371
  0
LINE
  8
0
 62
7
  6
CONTINUOUS
 10
-85.8776094947
 20
141.18354395
 11
-85.7306839362
 21
140.9822281052
  0
LINE
  8
0
 62
7
  6
CONTINUOUS
 10
-86.0256046521
 20
141.3881412785
 11
-85.8776094947
 21
141.18354395
  0
LINE
  8
0
 62
7
  6
CONTINUOUS
 10
-86.2243358361
 20
141.665838273
 11
-86.0256046521
 21
141.3881412785
  0
POLYLINE
  8
0
 62
7
  6
CONTINUOUS
 66
1
 70
0
  0
VERTEX
  8
0
 62
7
  6
CONTINUOUS
 10
-86.4741962076
 20
64.9276757327
  0
VERTEX
  8
0
 62
7
  6
CONTINUOUS
 10
-86.6183387657
 20
64.7201381787
  0
VERTEX
  8
0
 62
7
  6
CONTINUOUS
 10
-86.7756897534
 20
64.4909370275
  0
VERTEX
  8
0
 62
7
  6
CONTINUOUS
 10
-86.9455051846
 20
64.2402847712
  0
VERTEX
  8
0
 62
7
  6
CONTINUOUS
 10
-87.1272619701
 20
63.9677126283
  0
VERTEX
  8
0
 62
7
  6
CONTINUOUS
 10
-87.3196810532
 20
63.6741381331
  0
VERTEX
  8
0
 62
7
  6
CONTINUOUS
 10
-87.5213453609
 20
63.3600432929
  0
VERTEX
  8
0
 62
7
  6
CONTINUOUS
 10
-87.7308143161
 20
63.0262659068
  0
VERTEX
  8
0
 62
7
  6
CONTINUOUS
 10
-87.9464229992
 20
62.6734754386
  0
VERTEX
  8
0
 62
7
  6
CONTINUOUS
 10
-88.166385297
 20
62.3026589018
  0
VERTEX
  8
0
 62
7
  6
CONTINUOUS
 10
-88.3891092628
 20
61.9139142162
  0
VERTEX
  8
0
 62
7
  6
CONTINUOUS
 10
-88.6115323987
 20
61.510578127
  0
VERTEX
  8
0
 62
7
  6
CONTINUOUS
 10
-88.8305531042
 20
61.0949707457
  0
VERTEX
  8
0
 62
7
  6
CONTINUOUS
 10
-89.0435580278
 20
60.6702398921
  0
VERTEX
  8
0
 62
7
  6
CONTINUOUS
 10
-89.2475133185
 20
60.2390476442
  0
VERTEX
  8
0
 62
7
  6
CONTINUOUS
 10
-89.4401040392
 20
59.8051713384
  0
VERTEX
  8
0
 62
7
  6
CONTINUOUS
 10
-89.6183603259
 20
59.3724723071
  0
VERTEX
  8
0
 62
7
  6
CONTINUOUS
 10
-89.7813145972
 20
58.9433606396
  0
VERTEX
  8
0
 62
7
  6
CONTINUOUS
 10
-89.927073684
 20
58.5218743653
  0
VERTEX
  8
0
 62
7
  6
CONTINUOUS
 10
-90.0561727027
 20
58.1069909973
  0
VERTEX
  8
0
 62
7
  6
CONTINUOUS
 10
-90.1687310897
 20
57.6994085369
  0
VERTEX
  8
0
 62
7
  6
CONTINUOUS
 10
-90.2651193398
 20
57.2980035497
  0
VERTEX
  8
0
 62
7
  6
CONTINUOUS
 10
-90.3459312782
 20
56.9023250998
  0
VERTEX
  8
0
 62
7
  6
CONTINUOUS
 10
-90.411389532
 20
56.511053693
  0
VERTEX
  8
0
 62
7
  6
CONTINUOUS
 10
-90.4620993564
 20
56.1227549593
  0
VERTEX
  8
0
 62
7
  6
CONTINUOUS
 10
-90.4980429578
 20
55.7373225902
  0
VERTEX
  8
0
 62
7
  6
CONTINUOUS
 10
-90.5195308124
 20
55.3546949625
  0
VERTEX
  8
0
 62
7
  6
CONTINUOUS
 10
-90.5265689057
 20
54.9733036506
  0
VERTEX
  8
0
 62
7
  6
CONTINUOUS
 10
-90.5194844266
 20
54.591993319
  0
VERTEX
  8
0
 62
7
  6
CONTINUOUS
 10
-90.4979493428
 20
54.2094630742
  0
VERTEX
  8
0
 62
7
  6
CONTINUOUS
 10
-90.4619588287
 20
53.8240321006
  0
VERTEX
  8
0
 62
7
  6
CONTINUOUS
 10
-90.4111956534
 20
53.4356848292
  0
VERTEX
  8
0
 62
7
  6
CONTINUOUS
 10
-90.3456632475
 20
53.0442917503
  0
VERTEX
  8
0
 62
7
  6
CONTINUOUS
 10
-90.2647811838
 20
52.6485138691
  0
VERTEX
  8
0
 62
7
  6
CONTINUOUS
 10
-90.1683527964
 20
52.2471547728
  0
VERTEX
  8
0
 62
7
  6
CONTINUOUS
 10
-90.0557642252
 20
51.8396572058
  0
VERTEX
  8
0
 62
7
  6
CONTINUOUS
 10
-89.9266386325
 20
51.4248361369
  0
VERTEX
  8
0
 62
7
  6
CONTINUOUS
 10
-89.7808430842
 20
51.0033784796
  0
VERTEX
  8
0
 62
7
  6
CONTINUOUS
 10
-89.6178232619
 20
50.5742139901
  0
VERTEX
  8
0
 62
7
  6
CONTINUOUS
 10
-89.4394881414
 20
50.1414291093
  0
VERTEX
  8
0
 62
7
  6
CONTINUOUS
 10
-89.2467901681
 20
49.7074271456
  0
VERTEX
  8
0
 62
7
  6
CONTINUOUS
 10
-89.0427719893
 20
49.2761872528
  0
VERTEX
  8
0
 62
7
  6
CONTINUOUS
 10
-88.8298287546
 20
48.8516527589
  0
VERTEX
  8
0
 62
7
  6
CONTINUOUS
 10
-88.6109245794
 20
48.4363344493
  0
VERTEX
  8
0
 62
7
  6
CONTINUOUS
 10
-88.3886469494
 20
48.0332971258
  0
VERTEX
  8
0
 62
7
  6
CONTINUOUS
 10
-88.1660597104
 20
47.644822067
  0
VERTEX
  8
0
 62
7
  6
CONTINUOUS
 10
-87.9461789386
 20
47.274160352
  0
VERTEX
  8
0
 62
7
  6
CONTINUOUS
 10
-87.7306249429
 20
46.9214673821
  0
VERTEX
  8
0
 62
7
  6
CONTINUOUS
 10
-87.5211981259
 20
46.5877631423
  0
VERTEX
  8
0
 62
7
  6
CONTINUOUS
 10
-87.3195539869
 20
46.2737049617
  0
VERTEX
  8
0
 62
7
  6
CONTINUOUS
 10
-87.1271237199
 20
45.980119294
  0
VERTEX
  8
0
 62
7
  6
CONTINUOUS
 10
-86.9453469116
 20
45.7075187499
  0
VERTEX
  8
0
 62
7
  6
CONTINUOUS
 10
-86.7755168441
 20
45.4568490366
  0
VERTEX
  8
0
 62
7
  6
CONTINUOUS
 10
-86.6181567958
 20
45.2276373189
  0
VERTEX
  8
0
 62
7
  6
CONTINUOUS
 10
-86.4740099151
 20
45.0200982999
  0
VERTEX
  8
0
 62
7
  6
CONTINUOUS
 10
-86.2243031055
 20
44.66579229
  0
SEQEND
  0
LINE
  8
0
 62
7
  6
CONTINUOUS
 10
-86.2244360318
 20
65.2820562625
 11
-86.4741962076
 21
64.9276757327
  0
LINE
  8
0
 62
7
  6
CONTINUOUS
 10
-86.0256543065
 20
65.5598295152
 11
-86.2244360318
 21
65.2820562625
  0
LINE
  8
0
 62
7
  6
CONTINUOUS
 10
-85.8224347787
 20
65.8402407429
 11
-86.0256543065
 21
65.5598295152
  0
LINE
  8
0
 62
7
  6
CONTINUOUS
 10
-85.7306845535
 20
65.9658109078
 11
-85.8224347787
 21
65.8402407429
  0
LINE
  8
0
 62
7
  6
CONTINUOUS
 10
-85.724607958
 20
65.9740194371
 11
-85.7306845535
 21
65.9658109078
  0
LINE
  8
0
 62
7
  6
CONTINUOUS
 10
-85.7306835736
 20
237.982227656
 11
-85.724607958
 21
237.9740194371
  0
LINE
  8
0
 62
7
  6
CONTINUOUS
 10
-85.8775995029
 20
238.1835301927
 11
-85.7306835736
 21
237.982227656
  0
LINE
  8
0
 62
7
  6
CONTINUOUS
 10
-86.0255847143
 20
238.3881135822
 11
-85.8775995029
 21
238.1835301927
  0
LINE
  8
0
 62
7
  6
CONTINUOUS
 10
-86.2243031055
 20
238.66579229
 11
-86.0255847143
 21
238.3881135822
  0
LINE
  8
0
 62
7
  6
CONTINUOUS
 10
-85.724607958
 20
43.9740194371
 11
454.275392042
 21
43.9740194371
  0
POLYLINE
  8
0
 62
7
  6
CONTINUOUS
 66
1
 70
0
  0
VERTEX
  8
0
 62
7
  6
CONTINUOUS
 10
-86.4741962076
 20
-102.0723242673
  0
VERTEX
  8
0
 62
7
  6
CONTINUOUS
 10
-86.6183387657
 20
-102.2798618213
  0
VERTEX
  8
0
 62
7
  6
CONTINUOUS
 10
-86.7756897534
 20
-102.5090629725
  0
VERTEX
  8
0
 62
7
  6
CONTINUOUS
 10
-86.9455051846
 20
-102.7597152288
  0
VERTEX
  8
0
 62
7
  6
CONTINUOUS
 10
-87.1272619701
 20
-103.0322873717
  0
VERTEX
  8
0
 62
7
  6
CONTINUOUS
 10
-87.3196810532
 20
-103.3258618669
  0
VERTEX
  8
0
 62
7
  6
CONTINUOUS
 10
-87.5213453609
 20
-103.6399567071
  0
VERTEX
  8
0
 62
7
  6
CONTINUOUS
 10
-87.7308143161
 20
-103.9737340932
  0
VERTEX
  8
0
 62
7
  6
CONTINUOUS
 10
-87.9464229992
 20
-104.3265245614
  0
VERTEX
  8
0
 62
7
  6
CONTINUOUS
 10
-88.166385297
 20
-104.6973410982
  0
VERTEX
  8
0
 62
7
  6
CONTINUOUS
 10
-88.3891092628
 20
-105.0860857838
  0
VERTEX
  8
0
 62
7
  6
CONTINUOUS
 10
-88.6115323987
 20
-105.489421873
  0
VERTEX
  8
0
 62
7
  6
CONTINUOUS
 10
-88.8305531042
 20
-105.9050292543
  0
VERTEX
  8
0
 62
7
  6
CONTINUOUS
 10
-89.0435580278
 20
-106.3297601079
  0
VERTEX
  8
0
 62
7
  6
CONTINUOUS
 10
-89.2475133185
 20
-106.7609523558
  0
VERTEX
  8
0
 62
7
  6
CONTINUOUS
 10
-89.4401040392
 20
-107.1948286616
  0
VERTEX
  8
0
 62
7
  6
CONTINUOUS
 10
-89.6183603259
 20
-107.6275276929
  0
VERTEX
  8
0
 62
7
  6
CONTINUOUS
 10
-89.7813145972
 20
-108.0566393604
  0
VERTEX
  8
0
 62
7
  6
CONTINUOUS
 10
-89.927073684
 20
-108.4781256347
  0
VERTEX
  8
0
 62
7
  6
CONTINUOUS
 10
-90.0561727027
 20
-108.8930090027
  0
VERTEX
  8
0
 62
7
  6
CONTINUOUS
 10
-90.1687310897
 20
-109.3005914631
  0
VERTEX
  8
0
 62
7
  6
CONTINUOUS
 10
-90.2651193398
 20
-109.7019964503
  0
VERTEX
  8
0
 62
7
  6
CONTINUOUS
 10
-90.3459312782
 20
-110.0976749002
  0
VERTEX
  8
0
 62
7
  6
CONTINUOUS
 10
-90.411389532
 20
-110.488946307
  0
VERTEX
  8
0
 62
7
  6
CONTINUOUS
 10
-90.4620993564
 20
-110.8772450407
  0
VERTEX
  8
0
 62
7
  6
CONTINUOUS
 10
-90.4980429578
 20
-111.2626774098
  0
VERTEX
  8
0
 62
7
  6
CONTINUOUS
 10
-90.5195308124
 20
-111.6453050375
  0
VERTEX
  8
0
 62
7
  6
CONTINUOUS
 10
-90.5265689057
 20
-112.0266963494
  0
VERTEX
  8
0
 62
7
  6
CONTINUOUS
 10
-90.5194844266
 20
-112.408006681
  0
VERTEX
  8
0
 62
7
  6
CONTINUOUS
 10
-90.4979493428
 20
-112.7905369258
  0
VERTEX
  8
0
 62
7
  6
CONTINUOUS
 10
-90.4619588287
 20
-113.1759678994
  0
VERTEX
  8
0
 62
7
  6
CONTINUOUS
 10
-90.4111956534
 20
-113.5643151708
  0
VERTEX
  8
0
 62
7
  6
CONTINUOUS
 10
-90.3456632475
 20
-113.9557082497
  0
VERTEX
  8
0
 62
7
  6
CONTINUOUS
 10
-90.2647811838
 20
-114.3514861309
  0
VERTEX
  8
0
 62
7
  6
CONTINUOUS
 10
-90.1683527964
 20
-114.7528452272
  0
VERTEX
  8
0
 62
7
  6
CONTINUOUS
 10
-90.0557642252
 20
-115.1603427942
  0
VERTEX
  8
0
 62
7
  6
CONTINUOUS
 10
-89.9266386325
 20
-115.5751638631
  0
VERTEX
  8
0
 62
7
  6
CONTINUOUS
 10
-89.7808430842
 20
-115.9966215204
  0
VERTEX
  8
0
 62
7
  6
CONTINUOUS
 10
-89.6178232619
 20
-116.4257860099
  0
VERTEX
  8
0
 62
7
  6
CONTINUOUS
 10
-89.4394881414
 20
-116.8585708907
  0
VERTEX
  8
0
 62
7
  6
CONTINUOUS
 10
-89.2467901681
 20
-117.2925728544
  0
VERTEX
  8
0
 62
7
  6
CONTINUOUS
 10
-89.0427719893
 20
-117.7238127472
  0
VERTEX
  8
0
 62
7
  6
CONTINUOUS
 10
-88.8298287546
 20
-118.1483472411
  0
VERTEX
  8
0
 62
7
  6
CONTINUOUS
 10
-88.6109245794
 20
-118.5636655507
  0
VERTEX
  8
0
 62
7
  6
CONTINUOUS
 10
-88.3886469494
 20
-118.9667028742
  0
VERTEX
  8
0
 62
7
  6
CONTINUOUS
 10
-88.1660597104
 20
-119.355177933
  0
VERTEX
  8
0
 62
7
  6
CONTINUOUS
 10
-87.9461789386
 20
-119.725839648
  0
VERTEX
  8
0
 62
7
  6
CONTINUOUS
 10
-87.7306249429
 20
-120.0785326179
  0
VERTEX
  8
0
 62
7
  6
CONTINUOUS
 10
-87.5211981259
 20
-120.4122368577
  0
VERTEX
  8
0
 62
7
  6
CONTINUOUS
 10
-87.3195539869
 20
-120.7262950383
  0
VERTEX
  8
0
 62
7
  6
CONTINUOUS
 10
-87.1271237199
 20
-121.019880706
  0
VERTEX
  8
0
 62
7
  6
CONTINUOUS
 10
-86.9453469116
 20
-121.2924812501
  0
VERTEX
  8
0
 62
7
  6
CONTINUOUS
 10
-86.7755168441
 20
-121.5431509634
  0
VERTEX
  8
0
 62
7
  6
CONTINUOUS
 10
-86.6181567958
 20
-121.7723626811
  0
VERTEX
  8
0
 62
7
  6
CONTINUOUS
 10
-86.4740099151
 20
-121.9799017001
  0
VERTEX
  8
0
 62
7
  6
CONTINUOUS
 10
-86.2243031055
 20
-122.33420771
  0
SEQEND
  0
LINE
  8
0
 62
7
  6
CONTINUOUS
 10
-86.2244360318
 20
-101.7179437375
 11
-86.4741962076
 21
-102.0723242673
  0
LINE
  8
0
 62
7
  6
CONTINUOUS
 10
-86.0256543065
 20
-101.4401704848
 11
-86.2244360318
 21
-101.7179437375
  0
LINE
  8
0
 62
7
  6
CONTINUOUS
 10
-85.8224347787
 20
-101.1597592571
 11
-86.0256543065
 21
-101.4401704848
  0
LINE
  8
0
 62
7
  6
CONTINUOUS
 10
-85.7306845535
 20
-101.0341890922
 11
-85.8224347787
 21
-101.1597592571
  0
LINE
  8
0
 62
7
  6
CONTINUOUS
 10
-85.724607958
 20
-101.0259805629
 11
-85.7306845535
 21
-101.0341890922
  0
LINE
  8
0
 62
7
  6
CONTINUOUS
 10
454.275392042
 20
65.9740194371
 11
-85.724607958
 21
65.9740194371
  0
LINE
  8
0
 62
7
  6
CONTINUOUS
 10
-85.7306835736
 20
404.982227656
 11
-85.724607958
 21
404.9740194371
  0
LINE
  8
0
 62
7
  6
CONTINUOUS
 10
-85.8775995029
 20
405.1835301927
 11
-85.7306835736
 21
404.982227656
  0
LINE
  8
0
 62
7
  6
CONTINUOUS
 10
-86.0255847143
 20
405.3881135822
 11
-85.8775995029
 21
405.1835301927
  0
LINE
  8
0
 62
7
  6
CONTINUOUS
 10
-86.2243031055
 20
405.66579229
 11
-86.0255847143
 21
405.3881135822
  0
POLYLINE
  8
0
 62
7
  6
CONTINUOUS
 66
1
 70
0
  0
VERTEX
  8
0
 62
7
  6
CONTINUOUS
 10
-86.4741962076
 20
-199.0723242673
  0
VERTEX
  8
0
 62
7
  6
CONTINUOUS
 10
-86.6183387657
 20
-199.2798618213
  0
VERTEX
  8
0
 62
7
  6
CONTINUOUS
 10
-86.7756897534
 20
-199.5090629725
  0
VERTEX
  8
0
 62
7
  6
CONTINUOUS
 10
-86.9455051846
 20
-199.7597152288
  0
VERTEX
  8
0
 62
7
  6
CONTINUOUS
 10
-87.1272619701
 20
-200.0322873717
  0
VERTEX
  8
0
 62
7
  6
CONTINUOUS
 10
-87.3196810532
 20
-200.3258618669
  0
VERTEX
  8
0
 62
7
  6
CONTINUOUS
 10
-87.5213453609
 20
-200.6399567071
  0
VERTEX
  8
0
 62
7
  6
CONTINUOUS
 10
-87.7308143161
 20
-200.9737340932
  0
VERTEX
  8
0
 62
7
  6
CONTINUOUS
 10
-87.9464229992
 20
-201.3265245614
  0
VERTEX
  8
0
 62
7
  6
CONTINUOUS
 10
-88.166385297
 20
-201.6973410982
  0
VERTEX
  8
0
 62
7
  6
CONTINUOUS
 10
-88.3891092628
 20
-202.0860857838
  0
VERTEX
  8
0
 62
7
  6
CONTINUOUS
 10
-88.6115323987
 20
-202.489421873
  0
VERTEX
  8
0
 62
7
  6
CONTINUOUS
 10
-88.8305531042
 20
-202.9050292543
  0
VERTEX
  8
0
 62
7
  6
CONTINUOUS
 10
-89.0435580278
 20
-203.3297601079
  0
VERTEX
  8
0
 62
7
  6
CONTINUOUS
 10
-89.2475133185
 20
-203.7609523558
  0
VERTEX
  8
0
 62
7
  6
CONTINUOUS
 10
-89.4401040392
 20
-204.1948286616
  0
VERTEX
  8
0
 62
7
  6
CONTINUOUS
 10
-89.6183603259
 20
-204.6275276929
  0
VERTEX
  8
0
 62
7
  6
CONTINUOUS
 10
-89.7813145972
 20
-205.0566393604
  0
VERTEX
  8
0
 62
7
  6
CONTINUOUS
 10
-89.927073684
 20
-205.4781256347
  0
VERTEX
  8
0
 62
7
  6
CONTINUOUS
 10
-90.0561727027
 20
-205.8930090027
  0
VERTEX
  8
0
 62
7
  6
CONTINUOUS
 10
-90.1687310897
 20
-206.3005914631
  0
VERTEX
  8
0
 62
7
  6
CONTINUOUS
 10
-90.2651193398
 20
-206.7019964503
  0
VERTEX
  8
0
 62
7
  6
CONTINUOUS
 10
-90.3459312782
 20
-207.0976749002
  0
VERTEX
  8
0
 62
7
  6
CONTINUOUS
 10
-90.411389532
 20
-207.488946307
  0
VERTEX
  8
0
 62
7
  6
CONTINUOUS
 10
-90.4620993564
 20
-207.8772450407
  0
VERTEX
  8
0
 62
7
  6
CONTINUOUS
 10
-90.4980429578
 20
-208.2626774098
  0
VERTEX
  8
0
 62
7
  6
CONTINUOUS
 10
-90.5195308124
 20
-208.6453050375
  0
VERTEX
  8
0
 62
7
  6
CONTINUOUS
 10
-90.5265689057
 20
-209.0266963494
  0
VERTEX
  8
0
 62
7
  6
CONTINUOUS
 10
-90.5194844266
 20
-209.408006681
  0
VERTEX
  8
0
 62
7
  6
CONTINUOUS
 10
-90.4979493428
 20
-209.7905369258
  0
VERTEX
  8
0
 62
7
  6
CONTINUOUS
 10
-90.4619588287
 20
-210.1759678994
  0
VERTEX
  8
0
 62
7
  6
CONTINUOUS
 10
-90.4111956534
 20
-210.5643151708
  0
VERTEX
  8
0
 62
7
  6
CONTINUOUS
 10
-90.3456632475
 20
-210.9557082497
  0
VERTEX
  8
0
 62
7
  6
CONTINUOUS
 10
-90.2647811838
 20
-211.3514861309
  0
VERTEX
  8
0
 62
7
  6
CONTINUOUS
 10
-90.1683527964
 20
-211.7528452272
  0
VERTEX
  8
0
 62
7
  6
CONTINUOUS
 10
-90.0557642252
 20
-212.1603427942
  0
VERTEX
  8
0
 62
7
  6
CONTINUOUS
 10
-89.9266386325
 20
-212.5751638631
  0
VERTEX
  8
0
 62
7
  6
CONTINUOUS
 10
-89.7808430842
 20
-212.9966215204
  0
VERTEX
  8
0
 62
7
  6
CONTINUOUS
 10
-89.6178232619
 20
-213.4257860099
  0
VERTEX
  8
0
 62
7
  6
CONTINUOUS
 10
-89.4394881414
 20
-213.8585708907
  0
VERTEX
  8
0
 62
7
  6
CONTINUOUS
 10
-89.2467901681
 20
-214.2925728544
  0
VERTEX
  8
0
 62
7
  6
CONTINUOUS
 10
-89.0427719893
 20
-214.7238127472
  0
VERTEX
  8
0
 62
7
  6
CONTINUOUS
 10
-88.8298287546
 20
-215.1483472411
  0
VERTEX
  8
0
 62
7
  6
CONTINUOUS
 10
-88.6109245794
 20
-215.5636655507
  0
VERTEX
  8
0
 62
7
  6
CONTINUOUS
 10
-88.3886469494
 20
-215.9667028742
  0
VERTEX
  8
0
 62
7
  6
CONTINUOUS
 10
-88.1660597104
 20
-216.355177933
  0
VERTEX
  8
0
 62
7
  6
CONTINUOUS
 10
-87.9461789386
 20
-216.725839648
  0
VERTEX
  8
0
 62
7
  6
CONTINUOUS
 10
-87.7306249429
 20
-217.0785326179
  0
VERTEX
  8
0
 62
7
  6
CONTINUOUS
 10
-87.5211981259
 20
-217.4122368577
  0
VERTEX
  8
0
 62
7
  6
CONTINUOUS
 10
-87.3195539869
 20
-217.7262950383
  0
VERTEX
  8
0
 62
7
  6
CONTINUOUS
 10
-87.1271237199
 20
-218.019880706
  0
VERTEX
  8
0
 62
7
  6
CONTINUOUS
 10
-86.9453469116
 20
-218.2924812501
  0
VERTEX
  8
0
 62
7
  6
CONTINUOUS
 10
-86.7755168441
 20
-218.5431509634
  0
VERTEX
  8
0
 62
7
  6
CONTINUOUS
 10
-86.6181567958
 20
-218.7723626811
  0
VERTEX
  8
0
 62
7
  6
CONTINUOUS
 10
-86.4740099151
 20
-218.9799017001
  0
VERTEX
  8
0
 62
7
  6
CONTINUOUS
 10
-86.3427464187
 20
-219.1668849277
  0
VERTEX
  8
0
 62
7
  6
CONTINUOUS
 10
-86.1186148394
 20
-219.4823200267
  0
SEQEND
  0
LINE
  8
0
 62
7
  6
CONTINUOUS
 10
-86.2244360318
 20
-198.7179437375
 11
-86.4741962076
 21
-199.0723242673
  0
LINE
  8
0
 62
7
  6
CONTINUOUS
 10
-86.0256543065
 20
-198.4401704848
 11
-86.2244360318
 21
-198.7179437375
  0
LINE
  8
0
 62
7
  6
CONTINUOUS
 10
-85.8224347787
 20
-198.1597592571
 11
-86.0256543065
 21
-198.4401704848
  0
LINE
  8
0
 62
7
  6
CONTINUOUS
 10
-85.7306845535
 20
-198.0341890922
 11
-85.8224347787
 21
-198.1597592571
  0
LINE
  8
0
 62
7
  6
CONTINUOUS
 10
-85.724607958
 20
-198.0259805629
 11
-85.7306845535
 21
-198.0341890922
  0
LINE
  8
0
 62
7
  6
CONTINUOUS
 10
-85.724607958
 20
140.9740194371
 11
454.275392042
 21
140.9740194371
  0
LINE
  8
0
 62
7
  6
CONTINUOUS
 10
-85.7306835736
 20
501.982227656
 11
-85.724607958
 21
501.9740194371
  0
LINE
  8
0
 62
7
  6
CONTINUOUS
 10
-85.8775995029
 20
502.1835301927
 11
-85.7306835736
 21
501.982227656
  0
LINE
  8
0
 62
7
  6
CONTINUOUS
 10
-86.0255847143
 20
502.3881135822
 11
-85.8775995029
 21
502.1835301927
  0
LINE
  8
0
 62
7
  6
CONTINUOUS
 10
-86.2243031055
 20
502.66579229
 11
-86.0255847143
 21
502.3881135822
  0
LINE
  8
0
 62
7
  6
CONTINUOUS
 10
455.024793999
 20
503.0200982999
 11
454.7750871894
 21
502.66579229
  0
LINE
  8
0
 62
7
  6
CONTINUOUS
 10
454.7750871894
 20
502.66579229
 11
454.5763687982
 21
502.3881135822
  0
LINE
  8
0
 62
7
  6
CONTINUOUS
 10
454.5763687982
 20
502.3881135822
 11
454.3731913737
 21
502.1077604324
  0
LINE
  8
0
 62
7
  6
CONTINUOUS
 10
454.3731913737
 20
502.1077604324
 11
454.2814676575
 21
501.982227656
  0
LINE
  8
0
 62
7
  6
CONTINUOUS
 10
454.2814676575
 20
501.982227656
 11
454.275392042
 21
501.9740194371
  0
LINE
  8
0
 62
7
  6
CONTINUOUS
 10
454.275392042
 20
162.9740194371
 11
-85.724607958
 21
162.9740194371
  0
LINE
  8
0
 62
7
  6
CONTINUOUS
 10
454.275392042
 20
-198.0259805629
 11
454.2814686374
 21
-198.0341890922
  0
LINE
  8
0
 62
7
  6
CONTINUOUS
 10
454.2814686374
 20
-198.0341890922
 11
454.4284236702
 21
-198.2355457228
  0
LINE
  8
0
 62
7
  6
CONTINUOUS
 10
454.4284236702
 20
-198.2355457228
 11
454.5764383904
 21
-198.4401704848
  0
LINE
  8
0
 62
7
  6
CONTINUOUS
 10
454.5764383904
 20
-198.4401704848
 11
454.7752201157
 21
-198.7179437375
  0
POLYLINE
  8
0
 62
7
  6
CONTINUOUS
 66
1
 70
0
  0
VERTEX
  8
0
 62
7
  6
CONTINUOUS
 10
454.7752201157
 20
-198.7179437375
  0
VERTEX
  8
0
 62
7
  6
CONTINUOUS
 10
455.0249802915
 20
-199.0723242673
  0
VERTEX
  8
0
 62
7
  6
CONTINUOUS
 10
455.1691228496
 20
-199.2798618213
  0
VERTEX
  8
0
 62
7
  6
CONTINUOUS
 10
455.3264738373
 20
-199.5090629725
  0
VERTEX
  8
0
 62
7
  6
CONTINUOUS
 10
455.4962892685
 20
-199.7597152288
  0
VERTEX
  8
0
 62
7
  6
CONTINUOUS
 10
455.678046054
 20
-200.0322873717
  0
VERTEX
  8
0
 62
7
  6
CONTINUOUS
 10
455.8704651371
 20
-200.3258618669
  0
VERTEX
  8
0
 62
7
  6
CONTINUOUS
 10
456.0721294449
 20
-200.6399567071
  0
VERTEX
  8
0
 62
7
  6
CONTINUOUS
 10
456.2815984
 20
-200.9737340932
  0
VERTEX
  8
0
 62
7
  6
CONTINUOUS
 10
456.4972070831
 20
-201.3265245614
  0
VERTEX
  8
0
 62
7
  6
CONTINUOUS
 10
456.7171693809
 20
-201.6973410982
  0
VERTEX
  8
0
 62
7
  6
CONTINUOUS
 10
456.9398933467
 20
-202.0860857838
  0
VERTEX
  8
0
 62
7
  6
CONTINUOUS
 10
457.1623164826
 20
-202.489421873
  0
VERTEX
  8
0
 62
7
  6
CONTINUOUS
 10
457.3813371881
 20
-202.9050292543
  0
VERTEX
  8
0
 62
7
  6
CONTINUOUS
 10
457.5943421117
 20
-203.3297601079
  0
VERTEX
  8
0
 62
7
  6
CONTINUOUS
 10
457.7982974024
 20
-203.7609523558
  0
VERTEX
  8
0
 62
7
  6
CONTINUOUS
 10
457.9908881231
 20
-204.1948286616
  0
VERTEX
  8
0
 62
7
  6
CONTINUOUS
 10
458.1691444098
 20
-204.6275276929
  0
VERTEX
  8
0
 62
7
  6
CONTINUOUS
 10
458.3320986811
 20
-205.0566393604
  0
VERTEX
  8
0
 62
7
  6
CONTINUOUS
 10
458.4778577679
 20
-205.4781256347
  0
VERTEX
  8
0
 62
7
  6
CONTINUOUS
 10
458.6069567866
 20
-205.8930090027
  0
VERTEX
  8
0
 62
7
  6
CONTINUOUS
 10
458.7195151736
 20
-206.3005914631
  0
VERTEX
  8
0
 62
7
  6
CONTINUOUS
 10
458.8159034237
 20
-206.7019964503
  0
VERTEX
  8
0
 62
7
  6
CONTINUOUS
 10
458.8967153621
 20
-207.0976749002
  0
VERTEX
  8
0
 62
7
  6
CONTINUOUS
 10
458.9621736159
 20
-207.488946307
  0
VERTEX
  8
0
 62
7
  6
CONTINUOUS
 10
459.0128834403
 20
-207.8772450407
  0
VERTEX
  8
0
 62
7
  6
CONTINUOUS
 10
459.0488270417
 20
-208.2626774098
  0
VERTEX
  8
0
 62
7
  6
CONTINUOUS
 10
459.0703148963
 20
-208.6453050375
  0
VERTEX
  8
0
 62
7
  6
CONTINUOUS
 10
459.0773529896
 20
-209.0266963494
  0
VERTEX
  8
0
 62
7
  6
CONTINUOUS
 10
459.0702685105
 20
-209.408006681
  0
VERTEX
  8
0
 62
7
  6
CONTINUOUS
 10
459.0487334267
 20
-209.7905369258
  0
VERTEX
  8
0
 62
7
  6
CONTINUOUS
 10
459.0127429126
 20
-210.1759678994
  0
VERTEX
  8
0
 62
7
  6
CONTINUOUS
 10
458.9619797373
 20
-210.5643151708
  0
VERTEX
  8
0
 62
7
  6
CONTINUOUS
 10
458.8964473314
 20
-210.9557082497
  0
VERTEX
  8
0
 62
7
  6
CONTINUOUS
 10
458.8155652677
 20
-211.3514861309
  0
VERTEX
  8
0
 62
7
  6
CONTINUOUS
 10
458.7191368803
 20
-211.7528452272
  0
VERTEX
  8
0
 62
7
  6
CONTINUOUS
 10
458.6065483091
 20
-212.1603427942
  0
VERTEX
  8
0
 62
7
  6
CONTINUOUS
 10
458.4774227164
 20
-212.5751638631
  0
VERTEX
  8
0
 62
7
  6
CONTINUOUS
 10
458.3316271681
 20
-212.9966215204
  0
VERTEX
  8
0
 62
7
  6
CONTINUOUS
 10
458.1686073458
 20
-213.4257860099
  0
VERTEX
  8
0
 62
7
  6
CONTINUOUS
 10
457.9902722253
 20
-213.8585708907
  0
VERTEX
  8
0
 62
7
  6
CONTINUOUS
 10
457.797574252
 20
-214.2925728544
  0
VERTEX
  8
0
 62
7
  6
CONTINUOUS
 10
457.5935560732
 20
-214.7238127472
  0
VERTEX
  8
0
 62
7
  6
CONTINUOUS
 10
457.3806128386
 20
-215.1483472411
  0
VERTEX
  8
0
 62
7
  6
CONTINUOUS
 10
457.1617086633
 20
-215.5636655507
  0
VERTEX
  8
0
 62
7
  6
CONTINUOUS
 10
456.9394310333
 20
-215.9667028742
  0
VERTEX
  8
0
 62
7
  6
CONTINUOUS
 10
456.7168437943
 20
-216.355177933
  0
VERTEX
  8
0
 62
7
  6
CONTINUOUS
 10
456.4969630225
 20
-216.725839648
  0
VERTEX
  8
0
 62
7
  6
CONTINUOUS
 10
456.2814090268
 20
-217.0785326179
  0
VERTEX
  8
0
 62
7
  6
CONTINUOUS
 10
456.0719822098
 20
-217.4122368577
  0
VERTEX
  8
0
 62
7
  6
CONTINUOUS
 10
455.8703380708
 20
-217.7262950383
  0
VERTEX
  8
0
 62
7
  6
CONTINUOUS
 10
455.6779078038
 20
-218.019880706
  0
VERTEX
  8
0
 62
7
  6
CONTINUOUS
 10
455.4961309955
 20
-218.2924812501
  0
VERTEX
  8
0
 62
7
  6
CONTINUOUS
 10
455.326300928
 20
-218.5431509634
  0
VERTEX
  8
0
 62
7
  6
CONTINUOUS
 10
455.1689408797
 20
-218.7723626811
  0
VERTEX
  8
0
 62
7
  6
CONTINUOUS
 10
455.024793999
 20
-218.9799017001
  0
SEQEND
  0
LINE
  8
0
 62
7
  6
CONTINUOUS
 10
454.6693989233
 20
405.5176799733
 11
454.4960274797
 21
405.2768414511
  0
POLYLINE
  8
0
 62
7
  6
CONTINUOUS
 66
1
 70
0
  0
VERTEX
  8
0
 62
7
  6
CONTINUOUS
 10
454.4960274797
 20
405.2768414511
  0
VERTEX
  8
0
 62
7
  6
CONTINUOUS
 10
454.3303056691
 20
405.0490167536
  0
VERTEX
  8
0
 62
7
  6
CONTINUOUS
 10
454.2814676575
 20
404.982227656
  0
SEQEND
  0
LINE
  8
0
 62
7
  6
CONTINUOUS
 10
454.2814676575
 20
404.982227656
 11
454.275392042
 21
404.9740194371
  0
LINE
  8
0
 62
7
  6
CONTINUOUS
 10
454.275392042
 20
-101.0259805629
 11
454.2814686374
 21
-101.0341890922
  0
LINE
  8
0
 62
7
  6
CONTINUOUS
 10
454.2814686374
 20
-101.0341890922
 11
454.4284236702
 21
-101.2355457228
  0
POLYLINE
  8
0
 62
7
  6
CONTINUOUS
 66
1
 70
0
  0
VERTEX
  8
0
 62
7
  6
CONTINUOUS
 10
454.4284236702
 20
-101.2355457228
  0
VERTEX
  8
0
 62
7
  6
CONTINUOUS
 10
454.5764383904
 20
-101.4401704848
  0
VERTEX
  8
0
 62
7
  6
CONTINUOUS
 10
454.6694905631
 20
-101.5697691071
  0
SEQEND
  0
POLYLINE
  8
0
 62
7
  6
CONTINUOUS
 66
1
 70
0
  0
VERTEX
  8
0
 62
7
  6
CONTINUOUS
 10
455.024793999
 20
406.0200982999
  0
VERTEX
  8
0
 62
7
  6
CONTINUOUS
 10
454.7750871894
 20
405.66579229
  0
VERTEX
  8
0
 62
7
  6
CONTINUOUS
 10
454.6693989233
 20
405.5176799733
  0
SEQEND
  0
LINE
  8
0
 62
7
  6
CONTINUOUS
 10
-85.724607958
 20
237.9740194371
 11
454.275392042
 21
237.9740194371
  0
POLYLINE
  8
0
 62
7
  6
CONTINUOUS
 66
1
 70
0
  0
VERTEX
  8
0
 62
7
  6
CONTINUOUS
 10
454.6694905631
 20
-101.5697691071
  0
VERTEX
  8
0
 62
7
  6
CONTINUOUS
 10
454.8937052484
 20
-101.8853240247
  0
VERTEX
  8
0
 62
7
  6
CONTINUOUS
 10
455.0249802915
 20
-102.0723242673
  0
VERTEX
  8
0
 62
7
  6
CONTINUOUS
 10
455.1691228496
 20
-102.2798618213
  0
VERTEX
  8
0
 62
7
  6
CONTINUOUS
 10
455.3264738373
 20
-102.5090629725
  0
VERTEX
  8
0
 62
7
  6
CONTINUOUS
 10
455.4962892685
 20
-102.7597152288
  0
VERTEX
  8
0
 62
7
  6
CONTINUOUS
 10
455.678046054
 20
-103.0322873717
  0
VERTEX
  8
0
 62
7
  6
CONTINUOUS
 10
455.8704651371
 20
-103.3258618669
  0
VERTEX
  8
0
 62
7
  6
CONTINUOUS
 10
456.0721294449
 20
-103.6399567071
  0
VERTEX
  8
0
 62
7
  6
CONTINUOUS
 10
456.2815984
 20
-103.9737340932
  0
VERTEX
  8
0
 62
7
  6
CONTINUOUS
 10
456.4972070831
 20
-104.3265245614
  0
VERTEX
  8
0
 62
7
  6
CONTINUOUS
 10
456.7171693809
 20
-104.6973410982
  0
VERTEX
  8
0
 62
7
  6
CONTINUOUS
 10
456.9398933467
 20
-105.0860857838
  0
VERTEX
  8
0
 62
7
  6
CONTINUOUS
 10
457.1623164826
 20
-105.489421873
  0
VERTEX
  8
0
 62
7
  6
CONTINUOUS
 10
457.3813371881
 20
-105.9050292543
  0
VERTEX
  8
0
 62
7
  6
CONTINUOUS
 10
457.5943421117
 20
-106.3297601079
  0
VERTEX
  8
0
 62
7
  6
CONTINUOUS
 10
457.7982974024
 20
-106.7609523558
  0
VERTEX
  8
0
 62
7
  6
CONTINUOUS
 10
457.9908881231
 20
-107.1948286616
  0
VERTEX
  8
0
 62
7
  6
CONTINUOUS
 10
458.1691444098
 20
-107.6275276929
  0
VERTEX
  8
0
 62
7
  6
CONTINUOUS
 10
458.3320986811
 20
-108.0566393604
  0
VERTEX
  8
0
 62
7
  6
CONTINUOUS
 10
458.4778577679
 20
-108.4781256347
  0
VERTEX
  8
0
 62
7
  6
CONTINUOUS
 10
458.6069567866
 20
-108.8930090027
  0
VERTEX
  8
0
 62
7
  6
CONTINUOUS
 10
458.7195151736
 20
-109.3005914631
  0
VERTEX
  8
0
 62
7
  6
CONTINUOUS
 10
458.8159034237
 20
-109.7019964503
  0
VERTEX
  8
0
 62
7
  6
CONTINUOUS
 10
458.8967153621
 20
-110.0976749002
  0
VERTEX
  8
0
 62
7
  6
CONTINUOUS
 10
458.9621736159
 20
-110.488946307
  0
VERTEX
  8
0
 62
7
  6
CONTINUOUS
 10
459.0128834403
 20
-110.8772450407
  0
VERTEX
  8
0
 62
7
  6
CONTINUOUS
 10
459.0488270417
 20
-111.2626774098
  0
VERTEX
  8
0
 62
7
  6
CONTINUOUS
 10
459.0703148963
 20
-111.6453050375
  0
VERTEX
  8
0
 62
7
  6
CONTINUOUS
 10
459.0773529896
 20
-112.0266963494
  0
VERTEX
  8
0
 62
7
  6
CONTINUOUS
 10
459.0702685105
 20
-112.408006681
  0
VERTEX
  8
0
 62
7
  6
CONTINUOUS
 10
459.0487334267
 20
-112.7905369258
  0
VERTEX
  8
0
 62
7
  6
CONTINUOUS
 10
459.0127429126
 20
-113.1759678994
  0
VERTEX
  8
0
 62
7
  6
CONTINUOUS
 10
458.9619797373
 20
-113.5643151708
  0
VERTEX
  8
0
 62
7
  6
CONTINUOUS
 10
458.8964473314
 20
-113.9557082497
  0
VERTEX
  8
0
 62
7
  6
CONTINUOUS
 10
458.8155652677
 20
-114.3514861309
  0
VERTEX
  8
0
 62
7
  6
CONTINUOUS
 10
458.7191368803
 20
-114.7528452272
  0
VERTEX
  8
0
 62
7
  6
CONTINUOUS
 10
458.6065483091
 20
-115.1603427942
  0
VERTEX
  8
0
 62
7
  6
CONTINUOUS
 10
458.4774227164
 20
-115.5751638631
  0
VERTEX
  8
0
 62
7
  6
CONTINUOUS
 10
458.3316271681
 20
-115.9966215204
  0
VERTEX
  8
0
 62
7
  6
CONTINUOUS
 10
458.1686073458
 20
-116.4257860099
  0
VERTEX
  8
0
 62
7
  6
CONTINUOUS
 10
457.9902722253
 20
-116.8585708907
  0
VERTEX
  8
0
 62
7
  6
CONTINUOUS
 10
457.797574252
 20
-117.2925728544
  0
VERTEX
  8
0
 62
7
  6
CONTINUOUS
 10
457.5935560732
 20
-117.7238127472
  0
VERTEX
  8
0
 62
7
  6
CONTINUOUS
 10
457.3806128386
 20
-118.1483472411
  0
VERTEX
  8
0
 62
7
  6
CONTINUOUS
 10
457.1617086633
 20
-118.5636655507
  0
VERTEX
  8
0
 62
7
  6
CONTINUOUS
 10
456.9394310333
 20
-118.9667028742
  0
VERTEX
  8
0
 62
7
  6
CONTINUOUS
 10
456.7168437943
 20
-119.355177933
  0
VERTEX
  8
0
 62
7
  6
CONTINUOUS
 10
456.4969630225
 20
-119.725839648
  0
VERTEX
  8
0
 62
7
  6
CONTINUOUS
 10
456.2814090268
 20
-120.0785326179
  0
VERTEX
  8
0
 62
7
  6
CONTINUOUS
 10
456.0719822098
 20
-120.4122368577
  0
VERTEX
  8
0
 62
7
  6
CONTINUOUS
 10
455.8703380708
 20
-120.7262950383
  0
VERTEX
  8
0
 62
7
  6
CONTINUOUS
 10
455.6779078038
 20
-121.019880706
  0
VERTEX
  8
0
 62
7
  6
CONTINUOUS
 10
455.4961309955
 20
-121.2924812501
  0
VERTEX
  8
0
 62
7
  6
CONTINUOUS
 10
455.326300928
 20
-121.5431509634
  0
VERTEX
  8
0
 62
7
  6
CONTINUOUS
 10
455.1689408797
 20
-121.7723626811
  0
VERTEX
  8
0
 62
7
  6
CONTINUOUS
 10
455.024793999
 20
-121.9799017001
  0
SEQEND
  0
LINE
  8
0
 62
7
  6
CONTINUOUS
 10
454.275392042
 20
259.9740194371
 11
-85.724607958
 21
259.9740194371
  0
LINE
  8
0
 62
7
  6
CONTINUOUS
 10
455.024793999
 20
239.0200982999
 11
454.7750871894
 21
238.66579229
  0
LINE
  8
0
 62
7
  6
CONTINUOUS
 10
454.7750871894
 20
238.66579229
 11
454.5763687982
 21
238.3881135822
  0
LINE
  8
0
 62
7
  6
CONTINUOUS
 10
454.5763687982
 20
238.3881135822
 11
454.3731913737
 21
238.1077604324
  0
LINE
  8
0
 62
7
  6
CONTINUOUS
 10
454.3731913737
 20
238.1077604324
 11
454.2814676575
 21
237.982227656
  0
LINE
  8
0
 62
7
  6
CONTINUOUS
 10
454.2814676575
 20
237.982227656
 11
454.275392042
 21
237.9740194371
  0
LINE
  8
0
 62
7
  6
CONTINUOUS
 10
454.275392042
 20
65.9740194371
 11
454.2814686374
 21
65.9658109078
  0
LINE
  8
0
 62
7
  6
CONTINUOUS
 10
454.2814686374
 20
65.9658109078
 11
454.4284236702
 21
65.7644542772
  0
LINE
  8
0
 62
7
  6
CONTINUOUS
 10
454.4284236702
 20
65.7644542772
 11
454.5764383904
 21
65.5598295152
  0
LINE
  8
0
 62
7
  6
CONTINUOUS
 10
454.5764383904
 20
65.5598295152
 11
454.7752201157
 21
65.2820562625
  0
POLYLINE
  8
0
 62
7
  6
CONTINUOUS
 66
1
 70
0
  0
VERTEX
  8
0
 62
7
  6
CONTINUOUS
 10
454.7752201157
 20
65.2820562625
  0
VERTEX
  8
0
 62
7
  6
CONTINUOUS
 10
455.0249802915
 20
64.9276757327
  0
VERTEX
  8
0
 62
7
  6
CONTINUOUS
 10
455.1691228496
 20
64.7201381787
  0
VERTEX
  8
0
 62
7
  6
CONTINUOUS
 10
455.3264738373
 20
64.4909370275
  0
VERTEX
  8
0
 62
7
  6
CONTINUOUS
 10
455.4962892685
 20
64.2402847712
  0
VERTEX
  8
0
 62
7
  6
CONTINUOUS
 10
455.678046054
 20
63.9677126283
  0
VERTEX
  8
0
 62
7
  6
CONTINUOUS
 10
455.8704651371
 20
63.6741381331
  0
VERTEX
  8
0
 62
7
  6
CONTINUOUS
 10
456.0721294449
 20
63.3600432929
  0
VERTEX
  8
0
 62
7
  6
CONTINUOUS
 10
456.2815984
 20
63.0262659068
  0
VERTEX
  8
0
 62
7
  6
CONTINUOUS
 10
456.4972070831
 20
62.6734754386
  0
VERTEX
  8
0
 62
7
  6
CONTINUOUS
 10
456.7171693809
 20
62.3026589018
  0
VERTEX
  8
0
 62
7
  6
CONTINUOUS
 10
456.9398933467
 20
61.9139142162
  0
VERTEX
  8
0
 62
7
  6
CONTINUOUS
 10
457.1623164826
 20
61.510578127
  0
VERTEX
  8
0
 62
7
  6
CONTINUOUS
 10
457.3813371881
 20
61.0949707457
  0
VERTEX
  8
0
 62
7
  6
CONTINUOUS
 10
457.5943421117
 20
60.6702398921
  0
VERTEX
  8
0
 62
7
  6
CONTINUOUS
 10
457.7982974024
 20
60.2390476442
  0
VERTEX
  8
0
 62
7
  6
CONTINUOUS
 10
457.9908881231
 20
59.8051713384
  0
VERTEX
  8
0
 62
7
  6
CONTINUOUS
 10
458.1691444098
 20
59.3724723071
  0
VERTEX
  8
0
 62
7
  6
CONTINUOUS
 10
458.3320986811
 20
58.9433606396
  0
VERTEX
  8
0
 62
7
  6
CONTINUOUS
 10
458.4778577679
 20
58.5218743653
  0
VERTEX
  8
0
 62
7
  6
CONTINUOUS
 10
458.6069567866
 20
58.1069909973
  0
VERTEX
  8
0
 62
7
  6
CONTINUOUS
 10
458.7195151736
 20
57.6994085369
  0
VERTEX
  8
0
 62
7
  6
CONTINUOUS
 10
458.8159034237
 20
57.2980035497
  0
VERTEX
  8
0
 62
7
  6
CONTINUOUS
 10
458.8967153621
 20
56.9023250998
  0
VERTEX
  8
0
 62
7
  6
CONTINUOUS
 10
458.9621736159
 20
56.511053693
  0
VERTEX
  8
0
 62
7
  6
CONTINUOUS
 10
459.0128834403
 20
56.1227549593
  0
VERTEX
  8
0
 62
7
  6
CONTINUOUS
 10
459.0488270417
 20
55.7373225902
  0
VERTEX
  8
0
 62
7
  6
CONTINUOUS
 10
459.0703148963
 20
55.3546949625
  0
VERTEX
  8
0
 62
7
  6
CONTINUOUS
 10
459.0773529896
 20
54.9733036506
  0
VERTEX
  8
0
 62
7
  6
CONTINUOUS
 10
459.0702685105
 20
54.591993319
  0
VERTEX
  8
0
 62
7
  6
CONTINUOUS
 10
459.0487334267
 20
54.2094630742
  0
VERTEX
  8
0
 62
7
  6
CONTINUOUS
 10
459.0127429126
 20
53.8240321006
  0
VERTEX
  8
0
 62
7
  6
CONTINUOUS
 10
458.9619797373
 20
53.4356848292
  0
VERTEX
  8
0
 62
7
  6
CONTINUOUS
 10
458.8964473314
 20
53.0442917503
  0
VERTEX
  8
0
 62
7
  6
CONTINUOUS
 10
458.8155652677
 20
52.6485138691
  0
VERTEX
  8
0
 62
7
  6
CONTINUOUS
 10
458.7191368803
 20
52.2471547728
  0
VERTEX
  8
0
 62
7
  6
CONTINUOUS
 10
458.6065483091
 20
51.8396572058
  0
VERTEX
  8
0
 62
7
  6
CONTINUOUS
 10
458.4774227164
 20
51.4248361369
  0
VERTEX
  8
0
 62
7
  6
CONTINUOUS
 10
458.3316271681
 20
51.0033784796
  0
VERTEX
  8
0
 62
7
  6
CONTINUOUS
 10
458.1686073458
 20
50.5742139901
  0
VERTEX
  8
0
 62
7
  6
CONTINUOUS
 10
457.9902722253
 20
50.1414291093
  0
VERTEX
  8
0
 62
7
  6
CONTINUOUS
 10
457.797574252
 20
49.7074271456
  0
VERTEX
  8
0
 62
7
  6
CONTINUOUS
 10
457.5935560732
 20
49.2761872528
  0
VERTEX
  8
0
 62
7
  6
CONTINUOUS
 10
457.3806128386
 20
48.8516527589
  0
VERTEX
  8
0
 62
7
  6
CONTINUOUS
 10
457.1617086633
 20
48.4363344493
  0
VERTEX
  8
0
 62
7
  6
CONTINUOUS
 10
456.9394310333
 20
48.0332971258
  0
VERTEX
  8
0
 62
7
  6
CONTINUOUS
 10
456.7168437943
 20
47.644822067
  0
VERTEX
  8
0
 62
7
  6
CONTINUOUS
 10
456.4969630225
 20
47.274160352
  0
VERTEX
  8
0
 62
7
  6
CONTINUOUS
 10
456.2814090268
 20
46.9214673821
  0
VERTEX
  8
0
 62
7
  6
CONTINUOUS
 10
456.0719822098
 20
46.5877631423
  0
VERTEX
  8
0
 62
7
  6
CONTINUOUS
 10
455.8703380708
 20
46.2737049617
  0
VERTEX
  8
0
 62
7
  6
CONTINUOUS
 10
455.6779078038
 20
45.980119294
  0
VERTEX
  8
0
 62
7
  6
CONTINUOUS
 10
455.4961309955
 20
45.7075187499
  0
VERTEX
  8
0
 62
7
  6
CONTINUOUS
 10
455.326300928
 20
45.4568490366
  0
VERTEX
  8
0
 62
7
  6
CONTINUOUS
 10
455.1689408797
 20
45.2276373189
  0
VERTEX
  8
0
 62
7
  6
CONTINUOUS
 10
455.024793999
 20
45.0200982999
  0
SEQEND
  0
LINE
  8
0
 62
7
  6
CONTINUOUS
 10
455.0248426265
 20
142.0201678081
 11
454.77511992
 21
141.665838273
  0
LINE
  8
0
 62
7
  6
CONTINUOUS
 10
454.77511992
 20
141.665838273
 11
454.576388736
 21
141.3881412785
  0
LINE
  8
0
 62
7
  6
CONTINUOUS
 10
454.576388736
 20
141.3881412785
 11
454.3731976626
 21
141.1077690571
  0
LINE
  8
0
 62
7
  6
CONTINUOUS
 10
454.3731976626
 20
141.1077690571
 11
454.2814680201
 21
140.9822281052
  0
LINE
  8
0
 62
7
  6
CONTINUOUS
 10
454.2814680201
 20
140.9822281052
 11
454.275392042
 21
140.9740194371
  0
LINE
  8
0
 62
7
  6
CONTINUOUS
 10
454.275392042
 20
162.9740194371
 11
454.2814690007
 21
162.9658104562
  0
LINE
  8
0
 62
7
  6
CONTINUOUS
 10
454.2814690007
 20
162.9658104562
 11
454.4284336471
 21
162.7644405417
  0
LINE
  8
0
 62
7
  6
CONTINUOUS
 10
454.4284336471
 20
162.7644405417
 11
454.5764583082
 21
162.559801846
  0
LINE
  8
0
 62
7
  6
CONTINUOUS
 10
454.5764583082
 20
162.559801846
 11
454.775252869
 21
162.2820102423
  0
POLYLINE
  8
0
 62
7
  6
CONTINUOUS
 66
1
 70
0
  0
VERTEX
  8
0
 62
7
  6
CONTINUOUS
 10
454.775252869
 20
162.2820102423
  0
VERTEX
  8
0
 62
7
  6
CONTINUOUS
 10
455.0250289415
 20
161.9276061936
  0
VERTEX
  8
0
 62
7
  6
CONTINUOUS
 10
455.1691814865
 20
161.7200533092
  0
VERTEX
  8
0
 62
7
  6
CONTINUOUS
 10
455.3265455393
 20
161.4908317446
  0
VERTEX
  8
0
 62
7
  6
CONTINUOUS
 10
455.496375579
 20
161.2401564253
  0
VERTEX
  8
0
 62
7
  6
CONTINUOUS
 10
455.6781473815
 20
160.9675591836
  0
VERTEX
  8
0
 62
7
  6
CONTINUOUS
 10
455.8705802404
 20
160.6739607837
  0
VERTEX
  8
0
 62
7
  6
CONTINUOUS
 10
456.0722547546
 20
160.3598458244
  0
VERTEX
  8
0
 62
7
  6
CONTINUOUS
 10
456.2817293239
 20
160.0260546351
  0
VERTEX
  8
0
 62
7
  6
CONTINUOUS
 10
456.4973357679
 20
159.6732623449
  0
VERTEX
  8
0
 62
7
  6
CONTINUOUS
 10
456.717291783
 20
159.3024491538
  0
VERTEX
  8
0
 62
7
  6
CONTINUOUS
 10
456.9400072408
 20
158.9137129515
  0
VERTEX
  8
0
 62
7
  6
CONTINUOUS
 10
457.1624256638
 20
158.5103757982
  0
VERTEX
  8
0
 62
7
  6
CONTINUOUS
 10
457.3814539757
 20
158.0947443763
  0
VERTEX
  8
0
 62
7
  6
CONTINUOUS
 10
457.5944772765
 20
157.6699627091
  0
VERTEX
  8
0
 62
7
  6
CONTINUOUS
 10
457.7984783258
 20
157.2386425569
  0
VERTEX
  8
0
 62
7
  6
CONTINUOUS
 10
457.9910953033
 20
156.8046873914
  0
VERTEX
  8
0
 62
7
  6
CONTINUOUS
 10
458.1693015681
 20
156.3720741519
  0
VERTEX
  8
0
 62
7
  6
CONTINUOUS
 10
458.3321590523
 20
155.9431941959
  0
VERTEX
  8
0
 62
7
  6
CONTINUOUS
 10
458.4777506752
 20
155.5222500814
  0
VERTEX
  8
0
 62
7
  6
CONTINUOUS
 10
458.6067235439
 20
155.1077851466
  0
VERTEX
  8
0
 62
7
  6
CONTINUOUS
 10
458.7193262486
 20
154.7001903904
  0
VERTEX
  8
0
 62
7
  6
CONTINUOUS
 10
458.8158763516
 20
154.298125389
  0
VERTEX
  8
0
 62
7
  6
CONTINUOUS
 10
458.8970248493
 20
153.900466115
  0
VERTEX
  8
0
 62
7
  6
CONTINUOUS
 10
458.9627837622
 20
153.5069543776
  0
VERTEX
  8
0
 62
7
  6
CONTINUOUS
 10
459.0135152146
 20
153.116588157
  0
VERTEX
  8
0
 62
7
  6
CONTINUOUS
 10
459.0493358673
 20
152.7304749137
  0
VERTEX
  8
0
 62
7
  6
CONTINUOUS
 10
459.0705300452
 20
152.3506689569
  0
VERTEX
  8
0
 62
7
  6
CONTINUOUS
 10
459.0773529913
 20
151.9733277202
  0
VERTEX
  8
0
 62
7
  6
CONTINUOUS
 10
459.0704932405
 20
151.5961557116
  0
VERTEX
  8
0
 62
7
  6
CONTINUOUS
 10
459.0492619976
 20
151.2165660164
  0
VERTEX
  8
0
 62
7
  6
CONTINUOUS
 10
459.0134087859
 20
150.8304959952
  0
VERTEX
  8
0
 62
7
  6
CONTINUOUS
 10
458.9626340022
 20
150.4400773305
  0
VERTEX
  8
0
 62
7
  6
CONTINUOUS
 10
458.8967980288
 20
150.0463780505
  0
VERTEX
  8
0
 62
7
  6
CONTINUOUS
 10
458.8155680715
 20
149.6485264801
  0
VERTEX
  8
0
 62
7
  6
CONTINUOUS
 10
458.7189558065
 20
149.2464089653
  0
VERTEX
  8
0
 62
7
  6
CONTINUOUS
 10
458.6063021638
 20
148.8388194709
  0
VERTEX
  8
0
 62
7
  6
CONTINUOUS
 10
458.4772959454
 20
148.4243983705
  0
VERTEX
  8
0
 62
7
  6
CONTINUOUS
 10
458.3316686395
 20
148.0034927832
  0
VERTEX
  8
0
 62
7
  6
CONTINUOUS
 10
458.1687541338
 20
147.5745838684
  0
VERTEX
  8
0
 62
7
  6
CONTINUOUS
 10
457.9904780955
 20
147.1419098793
  0
VERTEX
  8
0
 62
7
  6
CONTINUOUS
 10
457.7977552317
 20
146.7078329537
  0
VERTEX
  8
0
 62
7
  6
CONTINUOUS
 10
457.5936903701
 20
146.2764625965
  0
VERTEX
  8
0
 62
7
  6
CONTINUOUS
 10
457.3807279724
 20
145.8518759862
  0
VERTEX
  8
0
 62
7
  6
CONTINUOUS
 10
457.1618154085
 20
145.4365322397
  0
VERTEX
  8
0
 62
7
  6
CONTINUOUS
 10
456.939542369
 20
145.0334938161
  0
VERTEX
  8
0
 62
7
  6
CONTINUOUS
 10
456.7169638991
 20
144.645027868
  0
VERTEX
  8
0
 62
7
  6
CONTINUOUS
 10
456.49709011
 20
144.2743707462
  0
VERTEX
  8
0
 62
7
  6
CONTINUOUS
 10
456.2815391242
 20
143.9216773152
  0
VERTEX
  8
0
 62
7
  6
CONTINUOUS
 10
456.0721072484
 20
143.5879601736
  0
VERTEX
  8
0
 62
7
  6
CONTINUOUS
 10
455.8704532782
 20
143.2738824692
  0
VERTEX
  8
0
 62
7
  6
CONTINUOUS
 10
455.6780093565
 20
142.9802730868
  0
VERTEX
  8
0
 62
7
  6
CONTINUOUS
 10
455.4962175209
 20
142.7076474133
  0
VERTEX
  8
0
 62
7
  6
CONTINUOUS
 10
455.3263727623
 20
142.4569545204
  0
VERTEX
  8
0
 62
7
  6
CONTINUOUS
 10
455.1689995516
 20
142.227722238
  0
VERTEX
  8
0
 62
7
  6
CONTINUOUS
 10
455.0248426265
 20
142.0201678081
  0
SEQEND
  0
LINE
  8
0
 62
7
  6
CONTINUOUS
 10
454.275392042
 20
564.4740194371
 11
454.275392042
 21
523.9740194371
  0
LINE
  8
0
 62
7
  6
CONTINUOUS
 10
454.275392042
 20
501.9740194371
 11
454.275392042
 21
426.9740194371
  0
LINE
  8
0
 62
7
  6
CONTINUOUS
 10
454.275392042
 20
404.9740194371
 11
454.275392042
 21
259.9740194371
  0
LINE
  8
0
 62
7
  6
CONTINUOUS
 10
454.275392042
 20
237.9740194371
 11
454.275392042
 21
162.9740194371
  0
LINE
  8
0
 62
7
  6
CONTINUOUS
 10
454.275392042
 20
140.9740194371
 11
454.275392042
 21
65.9740194371
  0
LINE
  8
0
 62
7
  6
CONTINUOUS
 10
454.275392042
 20
43.9740194371
 11
454.275392042
 21
-101.0259805629
  0
LINE
  8
0
 62
7
  6
CONTINUOUS
 10
454.275392042
 20
-123.0259805629
 11
454.275392042
 21
-198.0259805629
  0
LINE
  8
0
 62
7
  6
CONTINUOUS
 10
454.275392042
 20
-220.0259805629
 11
454.275392042
 21
-260.5259805629
  0
LINE
  8
0
 62
7
  6
CONTINUOUS
 10
-85.724607958
 20
404.9740194371
 11
454.275392042
 21
404.9740194371
  0
LINE
  8
0
 62
7
  6
CONTINUOUS
 10
454.275392042
 20
426.9740194371
 11
-85.724607958
 21
426.9740194371
  0
LINE
  8
0
 62
7
  6
CONTINUOUS
 10
484.275392042
 20
564.4740194371
 11
484.275392042
 21
-260.5259805629
  0
LINE
  8
0
 62
7
  6
CONTINUOUS
 10
455.024793999
 20
45.0200982999
 11
454.7750871894
 21
44.66579229
  0
LINE
  8
0
 62
7
  6
CONTINUOUS
 10
454.7750871894
 20
44.66579229
 11
454.5763687982
 21
44.3881135822
  0
LINE
  8
0
 62
7
  6
CONTINUOUS
 10
454.5763687982
 20
44.3881135822
 11
454.3731913737
 21
44.1077604324
  0
LINE
  8
0
 62
7
  6
CONTINUOUS
 10
454.3731913737
 20
44.1077604324
 11
454.2814676575
 21
43.982227656
  0
LINE
  8
0
 62
7
  6
CONTINUOUS
 10
454.2814676575
 20
43.982227656
 11
454.275392042
 21
43.9740194371
  0
LINE
  8
0
 62
7
  6
CONTINUOUS
 10
454.275392042
 20
259.9740194371
 11
454.2814686374
 21
259.9658109078
  0
LINE
  8
0
 62
7
  6
CONTINUOUS
 10
454.2814686374
 20
259.9658109078
 11
454.4284236702
 21
259.7644542772
  0
LINE
  8
0
 62
7
  6
CONTINUOUS
 10
454.4284236702
 20
259.7644542772
 11
454.5764383904
 21
259.5598295152
  0
LINE
  8
0
 62
7
  6
CONTINUOUS
 10
454.5764383904
 20
259.5598295152
 11
454.7752201157
 21
259.2820562625
  0
POLYLINE
  8
0
 62
7
  6
CONTINUOUS
 66
1
 70
0
  0
VERTEX
  8
0
 62
7
  6
CONTINUOUS
 10
454.7752201157
 20
259.2820562625
  0
VERTEX
  8
0
 62
7
  6
CONTINUOUS
 10
455.0249802915
 20
258.9276757327
  0
VERTEX
  8
0
 62
7
  6
CONTINUOUS
 10
455.1691228496
 20
258.7201381787
  0
VERTEX
  8
0
 62
7
  6
CONTINUOUS
 10
455.3264738373
 20
258.4909370275
  0
VERTEX
  8
0
 62
7
  6
CONTINUOUS
 10
455.4962892685
 20
258.2402847712
  0
VERTEX
  8
0
 62
7
  6
CONTINUOUS
 10
455.678046054
 20
257.9677126283
  0
VERTEX
  8
0
 62
7
  6
CONTINUOUS
 10
455.8704651371
 20
257.6741381331
  0
VERTEX
  8
0
 62
7
  6
CONTINUOUS
 10
456.0721294449
 20
257.3600432929
  0
VERTEX
  8
0
 62
7
  6
CONTINUOUS
 10
456.2815984
 20
257.0262659068
  0
VERTEX
  8
0
 62
7
  6
CONTINUOUS
 10
456.4972070831
 20
256.6734754386
  0
VERTEX
  8
0
 62
7
  6
CONTINUOUS
 10
456.7171693809
 20
256.3026589018
  0
VERTEX
  8
0
 62
7
  6
CONTINUOUS
 10
456.9398933467
 20
255.9139142162
  0
VERTEX
  8
0
 62
7
  6
CONTINUOUS
 10
457.1623164826
 20
255.510578127
  0
VERTEX
  8
0
 62
7
  6
CONTINUOUS
 10
457.3813371881
 20
255.0949707457
  0
VERTEX
  8
0
 62
7
  6
CONTINUOUS
 10
457.5943421117
 20
254.6702398921
  0
VERTEX
  8
0
 62
7
  6
CONTINUOUS
 10
457.7982974024
 20
254.2390476442
  0
VERTEX
  8
0
 62
7
  6
CONTINUOUS
 10
457.9908881231
 20
253.8051713384
  0
VERTEX
  8
0
 62
7
  6
CONTINUOUS
 10
458.1691444098
 20
253.3724723071
  0
VERTEX
  8
0
 62
7
  6
CONTINUOUS
 10
458.3320986811
 20
252.9433606396
  0
VERTEX
  8
0
 62
7
  6
CONTINUOUS
 10
458.4778577679
 20
252.5218743653
  0
VERTEX
  8
0
 62
7
  6
CONTINUOUS
 10
458.6069567866
 20
252.1069909973
  0
VERTEX
  8
0
 62
7
  6
CONTINUOUS
 10
458.7195151736
 20
251.6994085369
  0
VERTEX
  8
0
 62
7
  6
CONTINUOUS
 10
458.8159034237
 20
251.2980035497
  0
VERTEX
  8
0
 62
7
  6
CONTINUOUS
 10
458.8967153621
 20
250.9023250998
  0
VERTEX
  8
0
 62
7
  6
CONTINUOUS
 10
458.9621736159
 20
250.511053693
  0
VERTEX
  8
0
 62
7
  6
CONTINUOUS
 10
459.0128834403
 20
250.1227549593
  0
VERTEX
  8
0
 62
7
  6
CONTINUOUS
 10
459.0488270417
 20
249.7373225902
  0
VERTEX
  8
0
 62
7
  6
CONTINUOUS
 10
459.0703148963
 20
249.3546949625
  0
VERTEX
  8
0
 62
7
  6
CONTINUOUS
 10
459.0773529896
 20
248.9733036506
  0
VERTEX
  8
0
 62
7
  6
CONTINUOUS
 10
459.0702685105
 20
248.591993319
  0
VERTEX
  8
0
 62
7
  6
CONTINUOUS
 10
459.0487334267
 20
248.2094630742
  0
VERTEX
  8
0
 62
7
  6
CONTINUOUS
 10
459.0127429126
 20
247.8240321006
  0
VERTEX
  8
0
 62
7
  6
CONTINUOUS
 10
458.9619797373
 20
247.4356848292
  0
VERTEX
  8
0
 62
7
  6
CONTINUOUS
 10
458.8964473314
 20
247.0442917503
  0
VERTEX
  8
0
 62
7
  6
CONTINUOUS
 10
458.8155652677
 20
246.6485138691
  0
VERTEX
  8
0
 62
7
  6
CONTINUOUS
 10
458.7191368803
 20
246.2471547728
  0
VERTEX
  8
0
 62
7
  6
CONTINUOUS
 10
458.6065483091
 20
245.8396572058
  0
VERTEX
  8
0
 62
7
  6
CONTINUOUS
 10
458.4774227164
 20
245.4248361369
  0
VERTEX
  8
0
 62
7
  6
CONTINUOUS
 10
458.3316271681
 20
245.0033784796
  0
VERTEX
  8
0
 62
7
  6
CONTINUOUS
 10
458.1686073458
 20
244.5742139901
  0
VERTEX
  8
0
 62
7
  6
CONTINUOUS
 10
457.9902722253
 20
244.1414291093
  0
VERTEX
  8
0
 62
7
  6
CONTINUOUS
 10
457.797574252
 20
243.7074271456
  0
VERTEX
  8
0
 62
7
  6
CONTINUOUS
 10
457.5935560732
 20
243.2761872528
  0
VERTEX
  8
0
 62
7
  6
CONTINUOUS
 10
457.3806128386
 20
242.8516527589
  0
VERTEX
  8
0
 62
7
  6
CONTINUOUS
 10
457.1617086633
 20
242.4363344493
  0
VERTEX
  8
0
 62
7
  6
CONTINUOUS
 10
456.9394310333
 20
242.0332971258
  0
VERTEX
  8
0
 62
7
  6
CONTINUOUS
 10
456.7168437943
 20
241.644822067
  0
VERTEX
  8
0
 62
7
  6
CONTINUOUS
 10
456.4969630225
 20
241.274160352
  0
VERTEX
  8
0
 62
7
  6
CONTINUOUS
 10
456.2814090268
 20
240.9214673821
  0
VERTEX
  8
0
 62
7
  6
CONTINUOUS
 10
456.0719822098
 20
240.5877631423
  0
VERTEX
  8
0
 62
7
  6
CONTINUOUS
 10
455.8703380708
 20
240.2737049617
  0
VERTEX
  8
0
 62
7
  6
CONTINUOUS
 10
455.6779078038
 20
239.980119294
  0
VERTEX
  8
0
 62
7
  6
CONTINUOUS
 10
455.4961309955
 20
239.7075187499
  0
VERTEX
  8
0
 62
7
  6
CONTINUOUS
 10
455.326300928
 20
239.4568490366
  0
VERTEX
  8
0
 62
7
  6
CONTINUOUS
 10
455.1689408797
 20
239.2276373189
  0
VERTEX
  8
0
 62
7
  6
CONTINUOUS
 10
455.024793999
 20
239.0200982999
  0
SEQEND
  0
LINE
  8
0
 62
7
  6
CONTINUOUS
 10
-85.724607958
 20
501.9740194371
 11
454.275392042
 21
501.9740194371
  0
LINE
  8
0
 62
7
  6
CONTINUOUS
 10
454.275392042
 20
523.9740194371
 11
-85.724607958
 21
523.9740194371
  0
LINE
  8
0
 62
7
  6
CONTINUOUS
 10
455.024793999
 20
-121.9799017001
 11
454.7750871894
 21
-122.33420771
  0
LINE
  8
0
 62
7
  6
CONTINUOUS
 10
454.7750871894
 20
-122.33420771
 11
454.5763687982
 21
-122.6118864178
  0
LINE
  8
0
 62
7
  6
CONTINUOUS
 10
454.5763687982
 20
-122.6118864178
 11
454.3731913737
 21
-122.8922395676
  0
LINE
  8
0
 62
7
  6
CONTINUOUS
 10
454.3731913737
 20
-122.8922395676
 11
454.2814676575
 21
-123.017772344
  0
LINE
  8
0
 62
7
  6
CONTINUOUS
 10
454.2814676575
 20
-123.017772344
 11
454.275392042
 21
-123.0259805629
  0
LINE
  8
0
 62
7
  6
CONTINUOUS
 10
-85.724607958
 20
564.4740194371
 11
-115.724607958
 21
564.4740194371
  0
LINE
  8
0
 62
7
  6
CONTINUOUS
 10
454.275392042
 20
564.4740194371
 11
484.275392042
 21
564.4740194371
  0
LINE
  8
0
 62
7
  6
CONTINUOUS
 10
454.275392042
 20
426.9740194371
 11
454.2814686374
 21
426.9658109078
  0
LINE
  8
0
 62
7
  6
CONTINUOUS
 10
454.2814686374
 20
426.9658109078
 11
454.4284236702
 21
426.7644542772
  0
LINE
  8
0
 62
7
  6
CONTINUOUS
 10
454.4284236702
 20
426.7644542772
 11
454.5764383904
 21
426.5598295152
  0
LINE
  8
0
 62
7
  6
CONTINUOUS
 10
454.5764383904
 20
426.5598295152
 11
454.7752201157
 21
426.2820562625
  0
POLYLINE
  8
0
 62
7
  6
CONTINUOUS
 66
1
 70
0
  0
VERTEX
  8
0
 62
7
  6
CONTINUOUS
 10
454.7752201157
 20
426.2820562625
  0
VERTEX
  8
0
 62
7
  6
CONTINUOUS
 10
455.0249802915
 20
425.9276757327
  0
VERTEX
  8
0
 62
7
  6
CONTINUOUS
 10
455.1691228496
 20
425.7201381787
  0
VERTEX
  8
0
 62
7
  6
CONTINUOUS
 10
455.3264738373
 20
425.4909370275
  0
VERTEX
  8
0
 62
7
  6
CONTINUOUS
 10
455.4962892685
 20
425.2402847712
  0
VERTEX
  8
0
 62
7
  6
CONTINUOUS
 10
455.678046054
 20
424.9677126283
  0
VERTEX
  8
0
 62
7
  6
CONTINUOUS
 10
455.8704651371
 20
424.6741381331
  0
VERTEX
  8
0
 62
7
  6
CONTINUOUS
 10
456.0721294449
 20
424.3600432929
  0
VERTEX
  8
0
 62
7
  6
CONTINUOUS
 10
456.2815984
 20
424.0262659068
  0
VERTEX
  8
0
 62
7
  6
CONTINUOUS
 10
456.4972070831
 20
423.6734754386
  0
VERTEX
  8
0
 62
7
  6
CONTINUOUS
 10
456.7171693809
 20
423.3026589018
  0
VERTEX
  8
0
 62
7
  6
CONTINUOUS
 10
456.9398933467
 20
422.9139142162
  0
VERTEX
  8
0
 62
7
  6
CONTINUOUS
 10
457.1623164826
 20
422.510578127
  0
VERTEX
  8
0
 62
7
  6
CONTINUOUS
 10
457.3813371881
 20
422.0949707457
  0
VERTEX
  8
0
 62
7
  6
CONTINUOUS
 10
457.5943421117
 20
421.6702398921
  0
VERTEX
  8
0
 62
7
  6
CONTINUOUS
 10
457.7982974024
 20
421.2390476442
  0
VERTEX
  8
0
 62
7
  6
CONTINUOUS
 10
457.9908881231
 20
420.8051713384
  0
VERTEX
  8
0
 62
7
  6
CONTINUOUS
 10
458.1691444098
 20
420.3724723071
  0
VERTEX
  8
0
 62
7
  6
CONTINUOUS
 10
458.3320986811
 20
419.9433606396
  0
VERTEX
  8
0
 62
7
  6
CONTINUOUS
 10
458.4778577679
 20
419.5218743653
  0
VERTEX
  8
0
 62
7
  6
CONTINUOUS
 10
458.6069567866
 20
419.1069909973
  0
VERTEX
  8
0
 62
7
  6
CONTINUOUS
 10
458.7195151736
 20
418.6994085369
  0
VERTEX
  8
0
 62
7
  6
CONTINUOUS
 10
458.8159034237
 20
418.2980035497
  0
VERTEX
  8
0
 62
7
  6
CONTINUOUS
 10
458.8967153621
 20
417.9023250998
  0
VERTEX
  8
0
 62
7
  6
CONTINUOUS
 10
458.9621736159
 20
417.511053693
  0
VERTEX
  8
0
 62
7
  6
CONTINUOUS
 10
459.0128834403
 20
417.1227549593
  0
VERTEX
  8
0
 62
7
  6
CONTINUOUS
 10
459.0488270417
 20
416.7373225902
  0
VERTEX
  8
0
 62
7
  6
CONTINUOUS
 10
459.0703148963
 20
416.3546949625
  0
VERTEX
  8
0
 62
7
  6
CONTINUOUS
 10
459.0773529896
 20
415.9733036506
  0
VERTEX
  8
0
 62
7
  6
CONTINUOUS
 10
459.0702685105
 20
415.591993319
  0
VERTEX
  8
0
 62
7
  6
CONTINUOUS
 10
459.0487334267
 20
415.2094630742
  0
VERTEX
  8
0
 62
7
  6
CONTINUOUS
 10
459.0127429126
 20
414.8240321006
  0
VERTEX
  8
0
 62
7
  6
CONTINUOUS
 10
458.9619797373
 20
414.4356848292
  0
VERTEX
  8
0
 62
7
  6
CONTINUOUS
 10
458.8964473314
 20
414.0442917503
  0
VERTEX
  8
0
 62
7
  6
CONTINUOUS
 10
458.8155652677
 20
413.6485138691
  0
VERTEX
  8
0
 62
7
  6
CONTINUOUS
 10
458.7191368803
 20
413.2471547728
  0
VERTEX
  8
0
 62
7
  6
CONTINUOUS
 10
458.6065483091
 20
412.8396572058
  0
VERTEX
  8
0
 62
7
  6
CONTINUOUS
 10
458.4774227164
 20
412.4248361369
  0
VERTEX
  8
0
 62
7
  6
CONTINUOUS
 10
458.3316271681
 20
412.0033784796
  0
VERTEX
  8
0
 62
7
  6
CONTINUOUS
 10
458.1686073458
 20
411.5742139901
  0
VERTEX
  8
0
 62
7
  6
CONTINUOUS
 10
457.9902722253
 20
411.1414291093
  0
VERTEX
  8
0
 62
7
  6
CONTINUOUS
 10
457.797574252
 20
410.7074271456
  0
VERTEX
  8
0
 62
7
  6
CONTINUOUS
 10
457.5935560732
 20
410.2761872528
  0
VERTEX
  8
0
 62
7
  6
CONTINUOUS
 10
457.3806128386
 20
409.8516527589
  0
VERTEX
  8
0
 62
7
  6
CONTINUOUS
 10
457.1617086633
 20
409.4363344493
  0
VERTEX
  8
0
 62
7
  6
CONTINUOUS
 10
456.9394310333
 20
409.0332971258
  0
VERTEX
  8
0
 62
7
  6
CONTINUOUS
 10
456.7168437943
 20
408.644822067
  0
VERTEX
  8
0
 62
7
  6
CONTINUOUS
 10
456.4969630225
 20
408.274160352
  0
VERTEX
  8
0
 62
7
  6
CONTINUOUS
 10
456.2814090268
 20
407.9214673821
  0
VERTEX
  8
0
 62
7
  6
CONTINUOUS
 10
456.0719822098
 20
407.5877631423
  0
VERTEX
  8
0
 62
7
  6
CONTINUOUS
 10
455.8703380708
 20
407.2737049617
  0
VERTEX
  8
0
 62
7
  6
CONTINUOUS
 10
455.6779078038
 20
406.980119294
  0
VERTEX
  8
0
 62
7
  6
CONTINUOUS
 10
455.4961309955
 20
406.7075187499
  0
VERTEX
  8
0
 62
7
  6
CONTINUOUS
 10
455.326300928
 20
406.4568490366
  0
VERTEX
  8
0
 62
7
  6
CONTINUOUS
 10
455.1689408797
 20
406.2276373189
  0
VERTEX
  8
0
 62
7
  6
CONTINUOUS
 10
455.024793999
 20
406.0200982999
  0
SEQEND
  0
LINE
  8
0
 62
7
  6
CONTINUOUS
 10
455.024793999
 20
-218.9799017001
 11
454.7750871894
 21
-219.33420771
  0
LINE
  8
0
 62
7
  6
CONTINUOUS
 10
454.7750871894
 20
-219.33420771
 11
454.5763687982
 21
-219.6118864178
  0
LINE
  8
0
 62
7
  6
CONTINUOUS
 10
454.5763687982
 20
-219.6118864178
 11
454.3731913737
 21
-219.8922395676
  0
LINE
  8
0
 62
7
  6
CONTINUOUS
 10
454.3731913737
 20
-219.8922395676
 11
454.2814676575
 21
-220.017772344
  0
LINE
  8
0
 62
7
  6
CONTINUOUS
 10
454.2814676575
 20
-220.017772344
 11
454.275392042
 21
-220.0259805629
  0
LINE
  8
0
 62
7
  6
CONTINUOUS
 10
454.275392042
 20
523.9740194371
 11
454.2814686374
 21
523.9658109078
  0
LINE
  8
0
 62
7
  6
CONTINUOUS
 10
454.2814686374
 20
523.9658109078
 11
454.4284236702
 21
523.7644542772
  0
LINE
  8
0
 62
7
  6
CONTINUOUS
 10
454.4284236702
 20
523.7644542772
 11
454.5764383904
 21
523.5598295152
  0
LINE
  8
0
 62
7
  6
CONTINUOUS
 10
454.5764383904
 20
523.5598295152
 11
454.7752201157
 21
523.2820562625
  0
POLYLINE
  8
0
 62
7
  6
CONTINUOUS
 66
1
 70
0
  0
VERTEX
  8
0
 62
7
  6
CONTINUOUS
 10
454.7752201157
 20
523.2820562625
  0
VERTEX
  8
0
 62
7
  6
CONTINUOUS
 10
455.0249802915
 20
522.9276757327
  0
VERTEX
  8
0
 62
7
  6
CONTINUOUS
 10
455.1691228496
 20
522.7201381787
  0
VERTEX
  8
0
 62
7
  6
CONTINUOUS
 10
455.3264738373
 20
522.4909370275
  0
VERTEX
  8
0
 62
7
  6
CONTINUOUS
 10
455.4962892685
 20
522.2402847712
  0
VERTEX
  8
0
 62
7
  6
CONTINUOUS
 10
455.678046054
 20
521.9677126283
  0
VERTEX
  8
0
 62
7
  6
CONTINUOUS
 10
455.8704651371
 20
521.6741381331
  0
VERTEX
  8
0
 62
7
  6
CONTINUOUS
 10
456.0721294449
 20
521.3600432929
  0
VERTEX
  8
0
 62
7
  6
CONTINUOUS
 10
456.2815984
 20
521.0262659068
  0
VERTEX
  8
0
 62
7
  6
CONTINUOUS
 10
456.4972070831
 20
520.6734754386
  0
VERTEX
  8
0
 62
7
  6
CONTINUOUS
 10
456.7171693809
 20
520.3026589018
  0
VERTEX
  8
0
 62
7
  6
CONTINUOUS
 10
456.9398933467
 20
519.9139142162
  0
VERTEX
  8
0
 62
7
  6
CONTINUOUS
 10
457.1623164826
 20
519.510578127
  0
VERTEX
  8
0
 62
7
  6
CONTINUOUS
 10
457.3813371881
 20
519.0949707457
  0
VERTEX
  8
0
 62
7
  6
CONTINUOUS
 10
457.5943421117
 20
518.6702398921
  0
VERTEX
  8
0
 62
7
  6
CONTINUOUS
 10
457.7982974024
 20
518.2390476442
  0
VERTEX
  8
0
 62
7
  6
CONTINUOUS
 10
457.9908881231
 20
517.8051713384
  0
VERTEX
  8
0
 62
7
  6
CONTINUOUS
 10
458.1691444098
 20
517.3724723071
  0
VERTEX
  8
0
 62
7
  6
CONTINUOUS
 10
458.3320986811
 20
516.9433606396
  0
VERTEX
  8
0
 62
7
  6
CONTINUOUS
 10
458.4778577679
 20
516.5218743653
  0
VERTEX
  8
0
 62
7
  6
CONTINUOUS
 10
458.6069567866
 20
516.1069909973
  0
VERTEX
  8
0
 62
7
  6
CONTINUOUS
 10
458.7195151736
 20
515.6994085369
  0
VERTEX
  8
0
 62
7
  6
CONTINUOUS
 10
458.8159034237
 20
515.2980035497
  0
VERTEX
  8
0
 62
7
  6
CONTINUOUS
 10
458.8967153621
 20
514.9023250998
  0
VERTEX
  8
0
 62
7
  6
CONTINUOUS
 10
458.9621736159
 20
514.511053693
  0
VERTEX
  8
0
 62
7
  6
CONTINUOUS
 10
459.0128834403
 20
514.1227549593
  0
VERTEX
  8
0
 62
7
  6
CONTINUOUS
 10
459.0488270417
 20
513.7373225902
  0
VERTEX
  8
0
 62
7
  6
CONTINUOUS
 10
459.0703148963
 20
513.3546949625
  0
VERTEX
  8
0
 62
7
  6
CONTINUOUS
 10
459.0773529896
 20
512.9733036506
  0
VERTEX
  8
0
 62
7
  6
CONTINUOUS
 10
459.0702685105
 20
512.591993319
  0
VERTEX
  8
0
 62
7
  6
CONTINUOUS
 10
459.0487334267
 20
512.2094630742
  0
VERTEX
  8
0
 62
7
  6
CONTINUOUS
 10
459.0127429126
 20
511.8240321006
  0
VERTEX
  8
0
 62
7
  6
CONTINUOUS
 10
458.9619797373
 20
511.4356848292
  0
VERTEX
  8
0
 62
7
  6
CONTINUOUS
 10
458.8964473314
 20
511.0442917503
  0
VERTEX
  8
0
 62
7
  6
CONTINUOUS
 10
458.8155652677
 20
510.6485138691
  0
VERTEX
  8
0
 62
7
  6
CONTINUOUS
 10
458.7191368803
 20
510.2471547728
  0
VERTEX
  8
0
 62
7
  6
CONTINUOUS
 10
458.6065483091
 20
509.8396572058
  0
VERTEX
  8
0
 62
7
  6
CONTINUOUS
 10
458.4774227164
 20
509.4248361369
  0
VERTEX
  8
0
 62
7
  6
CONTINUOUS
 10
458.3316271681
 20
509.0033784796
  0
VERTEX
  8
0
 62
7
  6
CONTINUOUS
 10
458.1686073458
 20
508.5742139901
  0
VERTEX
  8
0
 62
7
  6
CONTINUOUS
 10
457.9902722253
 20
508.1414291093
  0
VERTEX
  8
0
 62
7
  6
CONTINUOUS
 10
457.797574252
 20
507.7074271456
  0
VERTEX
  8
0
 62
7
  6
CONTINUOUS
 10
457.5935560732
 20
507.2761872528
  0
VERTEX
  8
0
 62
7
  6
CONTINUOUS
 10
457.3806128386
 20
506.8516527589
  0
VERTEX
  8
0
 62
7
  6
CONTINUOUS
 10
457.1617086633
 20
506.4363344493
  0
VERTEX
  8
0
 62
7
  6
CONTINUOUS
 10
456.9394310333
 20
506.0332971258
  0
VERTEX
  8
0
 62
7
  6
CONTINUOUS
 10
456.7168437943
 20
505.644822067
  0
VERTEX
  8
0
 62
7
  6
CONTINUOUS
 10
456.4969630225
 20
505.274160352
  0
VERTEX
  8
0
 62
7
  6
CONTINUOUS
 10
456.2814090268
 20
504.9214673821
  0
VERTEX
  8
0
 62
7
  6
CONTINUOUS
 10
456.0719822098
 20
504.5877631423
  0
VERTEX
  8
0
 62
7
  6
CONTINUOUS
 10
455.8703380708
 20
504.2737049617
  0
VERTEX
  8
0
 62
7
  6
CONTINUOUS
 10
455.6779078038
 20
503.980119294
  0
VERTEX
  8
0
 62
7
  6
CONTINUOUS
 10
455.4961309955
 20
503.7075187499
  0
VERTEX
  8
0
 62
7
  6
CONTINUOUS
 10
455.326300928
 20
503.4568490366
  0
VERTEX
  8
0
 62
7
  6
CONTINUOUS
 10
455.1689408797
 20
503.2276373189
  0
VERTEX
  8
0
 62
7
  6
CONTINUOUS
 10
455.024793999
 20
503.0200982999
  0
SEQEND
  0
ENDSEC
  0
EOF
