999
DXF file: K:\Client\125_Heirloom\001\00\Final_Data\Drawings\LADDER TOWEL WARMERS\wg825n_SIDE.dxf
999
Pro/ENGINEER 2017110 by Parametric Technology Corporation
  0
SECTION
  2
HEADER
  9
$EXTMAX
 10
420.0
 20
297.0
 30
0.0
  9
$EXTMIN
 10
0.0
 20
0.0
 30
0.0
  9
$LIMMIN
 10
0.0
 20
0.0
  9
$LIMMAX
 10
420.0
 20
297.0
  9
$VIEWCTR
 10
210.0
 20
148.5
  9
$VIEWSIZE
 40
297.0
  9
$CLAYER
  8
0
  9
$LTSCALE
 40
23.1
  9
$CELTYPE
  6
BYLAYER
  9
$DIMSCALE
 40
1.0
  9
$DIMASZ
 40
3.0
  9
$DIMEXO
 40
1.0
  9
$DIMDLI
 40
15.96
  9
$DIMEXE
 40
1.0
  9
$DIMCEN
 40
3.78
  9
$DIMLFAC
 40
1.0
  9
$DIMBLK
  1
_FILLED
  9
$DIMALT
 70
0
  9
$DIMALTF
 40
0.0393700787
  9
$DIMTXT
 40
3.0
  9
$AUNITS
 70
0
  9
$PDMODE
 70
3
  9
$PDSIZE
 40
5.0
  9
$TILEMODE
 70
1
  0
ENDSEC
  0
SECTION
  2
TABLES
  0
TABLE
  2
LTYPE
 70
6
  0
LTYPE
  2
BYBLOCK
 70
0
  3

 72
65
 73
0
 40
0.0
  0
LTYPE
  2
BYLAYER
 70
0
  3

 72
65
 73
0
 40
0.0
  0
LTYPE
  2
CONTINUOUS
 70
64
  3
Solid line
 72
65
 73
0
 40
0.0
  0
LTYPE
  2
CENTER
 70
64
  3
____ _ ____ _ ____ _ ____ _ ____ _ ____ _ ____
 72
65
 73
4
 40
0.6
 49
0.375
 49
-0.075
 49
0.075
 49
-0.075
  0
LTYPE
  2
HIDDEN
 70
64
  3
- - - - - - - - - - - - - - - - - - - -
 72
65
 73
2
 40
0.2
 49
0.1
 49
-0.1
  0
LTYPE
  2
PHANTOM
 70
64
  3
_____ _ _ _____ _ _ _____ _ _ _____
 72
65
 73
6
 40
0.8
 49
0.45
 49
-0.05
 49
0.1
 49
-0.05
 49
0.1
 49
-0.05
  0
LTYPE
  2
DOT
 70
64
  3
. . . . . . . . . . . . . . . . . . . .
 72
65
 73
2
 40
0.2
 49
0.1
 49
-0.1
  0
LTYPE
  2
DASHED
 70
64
  3
- - - - - - - - - - - - - - - - - - - -
 72
65
 73
2
 40
0.2
 49
0.1
 49
-0.1
  0
ENDTAB
  0
TABLE
  2
LAYER
 70
36
  0
LAYER
  2
0
 70
0
 62
7
  6
CONTINUOUS
  0
LAYER
  2
DEFAULT_1
 70
0
 62
7
  6
CENTER
  0
LAYER
  2
DEFAULT_2
 70
0
 62
8
  6
HIDDEN
  0
LAYER
  2
DEFAULT_3
 70
0
 62
7
  6
PHANTOM
  0
LAYER
  2
0000_BOM
 70
0
 62
7
  6
CONTINUOUS
  0
LAYER
  2
0000_REV_TABLE
 70
0
 62
7
  6
CONTINUOUS
  0
LAYER
  2
0000_STEVENS_NOTE
 70
0
 62
7
  6
CONTINUOUS
  0
LAYER
  2
01_DATUM_PLANES
 70
0
 62
7
  6
CONTINUOUS
  0
LAYER
  2
01_DEF_PLANES
 70
0
 62
7
  6
CONTINUOUS
  0
LAYER
  2
02_DATUM_COS
 70
0
 62
7
  6
CONTINUOUS
  0
LAYER
  2
99_SOLID
 70
0
 62
7
  6
CONTINUOUS
  0
LAYER
  2
CAD-MASTER_ZINC-PL
 70
0
 62
7
  6
CONTINUOUS
  0
LAYER
  2
CURVE
 70
0
 62
7
  6
CONTINUOUS
  0
LAYER
  2
SKEL
 70
0
 62
7
  6
CONTINUOUS
  0
LAYER
  2
SKETCH
 70
0
 62
7
  6
CONTINUOUS
  0
LAYER
  2
SURFACE
 70
0
 62
7
  6
CONTINUOUS
  0
ENDTAB
  0
TABLE
  2
STYLE
 70
1
  0
STYLE
  2
STANDARD
 70
0
 40
0.0
 41
0.75
 50
0.0
 71
0
 42
0.2
  3
txt
  4

  0
STYLE
  2
TEXTSTYLE_1
 70
0
 40
0.0
 41
0.8
 50
0.0
 71
0
 42
0.2
  3
gdt
  4

  0
ENDTAB
  0
ENDSEC
  0
SECTION
  2
BLOCKS
  0
ENDSEC
  0
SECTION
  2
ENTITIES
  0
LINE
  8
0
 62
7
  6
CONTINUOUS
 10
117.2073269735
 20
-259.9191740561
 11
147.2073269735
 21
-259.9191740561
  0
LINE
  8
0
 62
7
  6
CONTINUOUS
 10
147.2073269735
 20
-172.4191740561
 11
239.2073269735
 21
-172.4191740561
  0
LINE
  8
0
 62
7
  6
CONTINUOUS
 10
147.2073269735
 20
-147.4191740561
 11
239.2073269735
 21
-147.4191740561
  0
LINE
  8
0
 62
7
  6
CONTINUOUS
 10
145.6236412503
 20
475.6282273107
 11
146.0289290331
 21
476.1391601383
  0
LINE
  8
0
 62
7
  6
CONTINUOUS
 10
146.0289290331
 20
476.1391601383
 11
146.371048924
 21
476.5639499068
  0
LINE
  8
0
 62
7
  6
CONTINUOUS
 10
146.371048924
 20
476.5639499068
 11
146.651654795
 21
476.9082948737
  0
LINE
  8
0
 62
7
  6
CONTINUOUS
 10
146.651654795
 20
476.9082948737
 11
147.0373799908
 21
477.3764061098
  0
LINE
  8
0
 62
7
  6
CONTINUOUS
 10
147.0373799908
 20
477.3764061098
 11
147.2005702728
 21
477.5727707335
  0
LINE
  8
0
 62
7
  6
CONTINUOUS
 10
147.2005702728
 20
477.5727707335
 11
147.2073269735
 21
477.5808259439
  0
LINE
  8
0
 62
7
  6
CONTINUOUS
 10
147.2073269735
 20
-172.4191740561
 11
147.2005820111
 21
-172.411138144
  0
LINE
  8
0
 62
7
  6
CONTINUOUS
 10
147.2005820111
 20
-172.411138144
 11
146.8733136542
 21
-172.0163680935
  0
LINE
  8
0
 62
7
  6
CONTINUOUS
 10
146.8733136542
 20
-172.0163680935
 11
146.5190207723
 21
-171.5842749726
  0
LINE
  8
0
 62
7
  6
CONTINUOUS
 10
146.5190207723
 20
-171.5842749726
 11
146.2081982335
 21
-171.2007695124
  0
POLYLINE
  8
0
 62
7
  6
CONTINUOUS
 66
1
 70
0
  0
VERTEX
  8
0
 62
7
  6
CONTINUOUS
 10
146.2081982335
 20
-171.2007695124
  0
VERTEX
  8
0
 62
7
  6
CONTINUOUS
 10
145.8345041571
 20
-170.7335144425
  0
VERTEX
  8
0
 62
7
  6
CONTINUOUS
 10
145.6240388551
 20
-170.4670810813
  0
VERTEX
  8
0
 62
7
  6
CONTINUOUS
 10
145.3981019387
 20
-170.1781478929
  0
VERTEX
  8
0
 62
7
  6
CONTINUOUS
 10
145.1570121974
 20
-169.8662872188
  0
VERTEX
  8
0
 62
7
  6
CONTINUOUS
 10
144.9012296134
 20
-169.5308942055
  0
VERTEX
  8
0
 62
7
  6
CONTINUOUS
 10
144.6308613765
 20
-169.1708491549
  0
VERTEX
  8
0
 62
7
  6
CONTINUOUS
 10
144.3478832589
 20
-168.7872689428
  0
VERTEX
  8
0
 62
7
  6
CONTINUOUS
 10
144.0534753879
 20
-168.379547241
  0
VERTEX
  8
0
 62
7
  6
CONTINUOUS
 10
143.7516770491
 20
-167.9517339636
  0
VERTEX
  8
0
 62
7
  6
CONTINUOUS
 10
143.44636923
 20
-167.5061665761
  0
VERTEX
  8
0
 62
7
  6
CONTINUOUS
 10
143.1417343342
 20
-167.0473760966
  0
VERTEX
  8
0
 62
7
  6
CONTINUOUS
 10
142.8429245964
 20
-166.5798208989
  0
VERTEX
  8
0
 62
7
  6
CONTINUOUS
 10
142.5527372075
 20
-166.1060563817
  0
VERTEX
  8
0
 62
7
  6
CONTINUOUS
 10
142.274650955
 20
-165.6286073887
  0
VERTEX
  8
0
 62
7
  6
CONTINUOUS
 10
142.0120563483
 20
-165.1520239597
  0
VERTEX
  8
0
 62
7
  6
CONTINUOUS
 10
141.768568648
 20
-164.6795816932
  0
VERTEX
  8
0
 62
7
  6
CONTINUOUS
 10
141.5468512023
 20
-164.2176287576
  0
VERTEX
  8
0
 62
7
  6
CONTINUOUS
 10
141.3514531209
 20
-163.7748812747
  0
VERTEX
  8
0
 62
7
  6
CONTINUOUS
 10
141.1797009115
 20
-163.3475109829
  0
VERTEX
  8
0
 62
7
  6
CONTINUOUS
 10
141.030412728
 20
-162.9357769633
  0
VERTEX
  8
0
 62
7
  6
CONTINUOUS
 10
140.9020653673
 20
-162.5361333103
  0
VERTEX
  8
0
 62
7
  6
CONTINUOUS
 10
140.7924946938
 20
-162.145596741
  0
VERTEX
  8
0
 62
7
  6
CONTINUOUS
 10
140.7013678106
 20
-161.7627384687
  0
VERTEX
  8
0
 62
7
  6
CONTINUOUS
 10
140.6274623745
 20
-161.3851778766
  0
VERTEX
  8
0
 62
7
  6
CONTINUOUS
 10
140.5706988799
 20
-161.012787171
  0
VERTEX
  8
0
 62
7
  6
CONTINUOUS
 10
140.5305487636
 20
-160.6451108458
  0
VERTEX
  8
0
 62
7
  6
CONTINUOUS
 10
140.5067690144
 20
-160.2807514205
  0
VERTEX
  8
0
 62
7
  6
CONTINUOUS
 10
140.4987706016
 20
-159.9190135212
  0
VERTEX
  8
0
 62
7
  6
CONTINUOUS
 10
140.5067804055
 20
-159.5573353214
  0
VERTEX
  8
0
 62
7
  6
CONTINUOUS
 10
140.530546265
 20
-159.1931993195
  0
VERTEX
  8
0
 62
7
  6
CONTINUOUS
 10
140.5706706085
 20
-158.8257771668
  0
VERTEX
  8
0
 62
7
  6
CONTINUOUS
 10
140.6273960573
 20
-158.4535456291
  0
VERTEX
  8
0
 62
7
  6
CONTINUOUS
 10
140.7012675019
 20
-158.076071861
  0
VERTEX
  8
0
 62
7
  6
CONTINUOUS
 10
140.7923850447
 20
-157.6931849607
  0
VERTEX
  8
0
 62
7
  6
CONTINUOUS
 10
140.9019567011
 20
-157.3025758635
  0
VERTEX
  8
0
 62
7
  6
CONTINUOUS
 10
141.0303132915
 20
-156.9028670577
  0
VERTEX
  8
0
 62
7
  6
CONTINUOUS
 10
141.1796031529
 20
-156.4910929835
  0
VERTEX
  8
0
 62
7
  6
CONTINUOUS
 10
141.3513205096
 20
-156.0637731204
  0
VERTEX
  8
0
 62
7
  6
CONTINUOUS
 10
141.5466875982
 20
-155.621074839
  0
VERTEX
  8
0
 62
7
  6
CONTINUOUS
 10
141.768415533
 20
-155.1590775958
  0
VERTEX
  8
0
 62
7
  6
CONTINUOUS
 10
142.0119280149
 20
-154.6865646133
  0
VERTEX
  8
0
 62
7
  6
CONTINUOUS
 10
142.2745603292
 20
-154.2099053151
  0
VERTEX
  8
0
 62
7
  6
CONTINUOUS
 10
142.5526601677
 20
-153.7324205536
  0
VERTEX
  8
0
 62
7
  6
CONTINUOUS
 10
142.842801531
 20
-153.2587233403
  0
VERTEX
  8
0
 62
7
  6
CONTINUOUS
 10
143.1415162065
 20
-152.7913066202
  0
VERTEX
  8
0
 62
7
  6
CONTINUOUS
 10
143.4459805147
 20
-152.3327500535
  0
VERTEX
  8
0
 62
7
  6
CONTINUOUS
 10
143.7511257402
 20
-151.8874065067
  0
VERTEX
  8
0
 62
7
  6
CONTINUOUS
 10
144.0528353443
 20
-151.4596965311
  0
VERTEX
  8
0
 62
7
  6
CONTINUOUS
 10
144.347213039
 20
-151.0519967327
  0
VERTEX
  8
0
 62
7
  6
CONTINUOUS
 10
144.6302403672
 20
-150.6683369798
  0
VERTEX
  8
0
 62
7
  6
CONTINUOUS
 10
144.9006813174
 20
-150.3081780358
  0
VERTEX
  8
0
 62
7
  6
CONTINUOUS
 10
145.1565159966
 20
-149.972706521
  0
VERTEX
  8
0
 62
7
  6
CONTINUOUS
 10
145.397655122
 20
-149.6607747333
  0
VERTEX
  8
0
 62
7
  6
CONTINUOUS
 10
145.6236412503
 20
-149.3717726893
  0
SEQEND
  0
LINE
  8
0
 62
7
  6
CONTINUOUS
 10
117.2073269735
 20
-259.9191740561
 11
117.2073269735
 21
565.0808259439
  0
LINE
  8
0
 62
7
  6
CONTINUOUS
 10
147.2073269735
 20
-259.9191740561
 11
147.2073269735
 21
-172.4191740561
  0
LINE
  8
0
 62
7
  6
CONTINUOUS
 10
147.2073269735
 20
-147.4191740561
 11
147.2073269735
 21
452.5808259439
  0
LINE
  8
0
 62
7
  6
CONTINUOUS
 10
147.2073269735
 20
477.5808259439
 11
147.2073269735
 21
565.0808259439
  0
LINE
  8
0
 62
7
  6
CONTINUOUS
 10
239.2073269735
 20
-172.4191740561
 11
239.2073269735
 21
-147.4191740561
  0
LINE
  8
0
 62
7
  6
CONTINUOUS
 10
239.2073269735
 20
452.5808259439
 11
239.2073269735
 21
477.5808259439
  0
LINE
  8
0
 62
7
  6
CONTINUOUS
 10
145.6236412503
 20
-149.3717726893
 11
146.0289290331
 21
-148.8608398617
  0
LINE
  8
0
 62
7
  6
CONTINUOUS
 10
146.0289290331
 20
-148.8608398617
 11
146.371048924
 21
-148.4360500932
  0
LINE
  8
0
 62
7
  6
CONTINUOUS
 10
146.371048924
 20
-148.4360500932
 11
146.651654795
 21
-148.0917051263
  0
LINE
  8
0
 62
7
  6
CONTINUOUS
 10
146.651654795
 20
-148.0917051263
 11
147.0373799908
 21
-147.6235938902
  0
LINE
  8
0
 62
7
  6
CONTINUOUS
 10
147.0373799908
 20
-147.6235938902
 11
147.2005702728
 21
-147.4272292665
  0
LINE
  8
0
 62
7
  6
CONTINUOUS
 10
147.2005702728
 20
-147.4272292665
 11
147.2073269735
 21
-147.4191740561
  0
LINE
  8
0
 62
7
  6
CONTINUOUS
 10
147.2073269735
 20
452.5808259439
 11
147.2005820111
 21
452.588861856
  0
LINE
  8
0
 62
7
  6
CONTINUOUS
 10
147.2005820111
 20
452.588861856
 11
146.8733136542
 21
452.9836319065
  0
LINE
  8
0
 62
7
  6
CONTINUOUS
 10
146.8733136542
 20
452.9836319065
 11
146.5190207723
 21
453.4157250274
  0
LINE
  8
0
 62
7
  6
CONTINUOUS
 10
146.5190207723
 20
453.4157250274
 11
146.2081982335
 21
453.7992304876
  0
POLYLINE
  8
0
 62
7
  6
CONTINUOUS
 66
1
 70
0
  0
VERTEX
  8
0
 62
7
  6
CONTINUOUS
 10
146.2081982335
 20
453.7992304876
  0
VERTEX
  8
0
 62
7
  6
CONTINUOUS
 10
145.8345041571
 20
454.2664855575
  0
VERTEX
  8
0
 62
7
  6
CONTINUOUS
 10
145.6240388551
 20
454.5329189187
  0
VERTEX
  8
0
 62
7
  6
CONTINUOUS
 10
145.3981019387
 20
454.8218521071
  0
VERTEX
  8
0
 62
7
  6
CONTINUOUS
 10
145.1570121974
 20
455.1337127812
  0
VERTEX
  8
0
 62
7
  6
CONTINUOUS
 10
144.9012296134
 20
455.4691057945
  0
VERTEX
  8
0
 62
7
  6
CONTINUOUS
 10
144.6308613765
 20
455.8291508451
  0
VERTEX
  8
0
 62
7
  6
CONTINUOUS
 10
144.3478832589
 20
456.2127310572
  0
VERTEX
  8
0
 62
7
  6
CONTINUOUS
 10
144.0534753879
 20
456.620452759
  0
VERTEX
  8
0
 62
7
  6
CONTINUOUS
 10
143.7516770491
 20
457.0482660364
  0
VERTEX
  8
0
 62
7
  6
CONTINUOUS
 10
143.44636923
 20
457.4938334239
  0
VERTEX
  8
0
 62
7
  6
CONTINUOUS
 10
143.1417343342
 20
457.9526239034
  0
VERTEX
  8
0
 62
7
  6
CONTINUOUS
 10
142.8429245964
 20
458.4201791011
  0
VERTEX
  8
0
 62
7
  6
CONTINUOUS
 10
142.5527372075
 20
458.8939436183
  0
VERTEX
  8
0
 62
7
  6
CONTINUOUS
 10
142.274650955
 20
459.3713926113
  0
VERTEX
  8
0
 62
7
  6
CONTINUOUS
 10
142.0120563483
 20
459.8479760403
  0
VERTEX
  8
0
 62
7
  6
CONTINUOUS
 10
141.768568648
 20
460.3204183068
  0
VERTEX
  8
0
 62
7
  6
CONTINUOUS
 10
141.5468512023
 20
460.7823712424
  0
VERTEX
  8
0
 62
7
  6
CONTINUOUS
 10
141.3514531209
 20
461.2251187253
  0
VERTEX
  8
0
 62
7
  6
CONTINUOUS
 10
141.1797009115
 20
461.6524890171
  0
VERTEX
  8
0
 62
7
  6
CONTINUOUS
 10
141.030412728
 20
462.0642230367
  0
VERTEX
  8
0
 62
7
  6
CONTINUOUS
 10
140.9020653673
 20
462.4638666897
  0
VERTEX
  8
0
 62
7
  6
CONTINUOUS
 10
140.7924946938
 20
462.854403259
  0
VERTEX
  8
0
 62
7
  6
CONTINUOUS
 10
140.7013678106
 20
463.2372615313
  0
VERTEX
  8
0
 62
7
  6
CONTINUOUS
 10
140.6274623745
 20
463.6148221234
  0
VERTEX
  8
0
 62
7
  6
CONTINUOUS
 10
140.5706988799
 20
463.987212829
  0
VERTEX
  8
0
 62
7
  6
CONTINUOUS
 10
140.5305487636
 20
464.3548891542
  0
VERTEX
  8
0
 62
7
  6
CONTINUOUS
 10
140.5067690144
 20
464.7192485795
  0
VERTEX
  8
0
 62
7
  6
CONTINUOUS
 10
140.4987706016
 20
465.0809864788
  0
VERTEX
  8
0
 62
7
  6
CONTINUOUS
 10
140.5067804055
 20
465.4426646786
  0
VERTEX
  8
0
 62
7
  6
CONTINUOUS
 10
140.530546265
 20
465.8068006805
  0
VERTEX
  8
0
 62
7
  6
CONTINUOUS
 10
140.5706706085
 20
466.1742228332
  0
VERTEX
  8
0
 62
7
  6
CONTINUOUS
 10
140.6273960573
 20
466.5464543709
  0
VERTEX
  8
0
 62
7
  6
CONTINUOUS
 10
140.7012675019
 20
466.923928139
  0
VERTEX
  8
0
 62
7
  6
CONTINUOUS
 10
140.7923850447
 20
467.3068150393
  0
VERTEX
  8
0
 62
7
  6
CONTINUOUS
 10
140.9019567011
 20
467.6974241365
  0
VERTEX
  8
0
 62
7
  6
CONTINUOUS
 10
141.0303132915
 20
468.0971329423
  0
VERTEX
  8
0
 62
7
  6
CONTINUOUS
 10
141.1796031529
 20
468.5089070165
  0
VERTEX
  8
0
 62
7
  6
CONTINUOUS
 10
141.3513205096
 20
468.9362268796
  0
VERTEX
  8
0
 62
7
  6
CONTINUOUS
 10
141.5466875982
 20
469.378925161
  0
VERTEX
  8
0
 62
7
  6
CONTINUOUS
 10
141.768415533
 20
469.8409224042
  0
VERTEX
  8
0
 62
7
  6
CONTINUOUS
 10
142.0119280149
 20
470.3134353867
  0
VERTEX
  8
0
 62
7
  6
CONTINUOUS
 10
142.2745603292
 20
470.7900946849
  0
VERTEX
  8
0
 62
7
  6
CONTINUOUS
 10
142.5526601677
 20
471.2675794464
  0
VERTEX
  8
0
 62
7
  6
CONTINUOUS
 10
142.842801531
 20
471.7412766597
  0
VERTEX
  8
0
 62
7
  6
CONTINUOUS
 10
143.1415162065
 20
472.2086933798
  0
VERTEX
  8
0
 62
7
  6
CONTINUOUS
 10
143.4459805147
 20
472.6672499465
  0
VERTEX
  8
0
 62
7
  6
CONTINUOUS
 10
143.7511257402
 20
473.1125934933
  0
VERTEX
  8
0
 62
7
  6
CONTINUOUS
 10
144.0528353443
 20
473.5403034689
  0
VERTEX
  8
0
 62
7
  6
CONTINUOUS
 10
144.347213039
 20
473.9480032673
  0
VERTEX
  8
0
 62
7
  6
CONTINUOUS
 10
144.6302403672
 20
474.3316630202
  0
VERTEX
  8
0
 62
7
  6
CONTINUOUS
 10
144.9006813174
 20
474.6918219642
  0
VERTEX
  8
0
 62
7
  6
CONTINUOUS
 10
145.1565159966
 20
475.027293479
  0
VERTEX
  8
0
 62
7
  6
CONTINUOUS
 10
145.397655122
 20
475.3392252667
  0
VERTEX
  8
0
 62
7
  6
CONTINUOUS
 10
145.6236412503
 20
475.6282273107
  0
SEQEND
  0
LINE
  8
0
 62
7
  6
CONTINUOUS
 10
147.2073269735
 20
452.5808259439
 11
239.2073269735
 21
452.5808259439
  0
LINE
  8
0
 62
7
  6
CONTINUOUS
 10
147.2073269735
 20
477.5808259439
 11
239.2073269735
 21
477.5808259439
  0
LINE
  8
0
 62
7
  6
CONTINUOUS
 10
117.2073269735
 20
565.0808259439
 11
147.2073269735
 21
565.0808259439
  0
ENDSEC
  0
EOF
