999
DXF file: K:\Client\125_Heirloom\001\00\Final_Data\Drawings\LADDER TOWEL WARMERS\wg825sn_1.dxf
999
Pro/ENGINEER 2017110 by Parametric Technology Corporation
  0
SECTION
  2
HEADER
  9
$EXTMAX
 10
420.0
 20
297.0
 30
0.0
  9
$EXTMIN
 10
0.0
 20
0.0
 30
0.0
  9
$LIMMIN
 10
0.0
 20
0.0
  9
$LIMMAX
 10
420.0
 20
297.0
  9
$VIEWCTR
 10
210.0
 20
148.5
  9
$VIEWSIZE
 40
297.0
  9
$CLAYER
  8
0
  9
$LTSCALE
 40
23.1
  9
$CELTYPE
  6
BYLAYER
  9
$DIMSCALE
 40
1.0
  9
$DIMASZ
 40
3.0
  9
$DIMEXO
 40
1.0
  9
$DIMDLI
 40
15.96
  9
$DIMEXE
 40
1.0
  9
$DIMCEN
 40
3.78
  9
$DIMLFAC
 40
1.0
  9
$DIMBLK
  1
_FILLED
  9
$DIMALT
 70
0
  9
$DIMALTF
 40
0.0393700787
  9
$DIMTXT
 40
3.0
  9
$AUNITS
 70
0
  9
$PDMODE
 70
3
  9
$PDSIZE
 40
5.0
  9
$TILEMODE
 70
1
  0
ENDSEC
  0
SECTION
  2
TABLES
  0
TABLE
  2
LTYPE
 70
6
  0
LTYPE
  2
BYBLOCK
 70
0
  3

 72
65
 73
0
 40
0.0
  0
LTYPE
  2
BYLAYER
 70
0
  3

 72
65
 73
0
 40
0.0
  0
LTYPE
  2
CONTINUOUS
 70
64
  3
Solid line
 72
65
 73
0
 40
0.0
  0
LTYPE
  2
CENTER
 70
64
  3
____ _ ____ _ ____ _ ____ _ ____ _ ____ _ ____
 72
65
 73
4
 40
0.6
 49
0.375
 49
-0.075
 49
0.075
 49
-0.075
  0
LTYPE
  2
HIDDEN
 70
64
  3
- - - - - - - - - - - - - - - - - - - -
 72
65
 73
2
 40
0.2
 49
0.1
 49
-0.1
  0
LTYPE
  2
PHANTOM
 70
64
  3
_____ _ _ _____ _ _ _____ _ _ _____
 72
65
 73
6
 40
0.8
 49
0.45
 49
-0.05
 49
0.1
 49
-0.05
 49
0.1
 49
-0.05
  0
LTYPE
  2
DOT
 70
64
  3
. . . . . . . . . . . . . . . . . . . .
 72
65
 73
2
 40
0.2
 49
0.1
 49
-0.1
  0
LTYPE
  2
DASHED
 70
64
  3
- - - - - - - - - - - - - - - - - - - -
 72
65
 73
2
 40
0.2
 49
0.1
 49
-0.1
  0
ENDTAB
  0
TABLE
  2
LAYER
 70
36
  0
LAYER
  2
0
 70
0
 62
7
  6
CONTINUOUS
  0
LAYER
  2
DEFAULT_1
 70
0
 62
7
  6
CENTER
  0
LAYER
  2
DEFAULT_2
 70
0
 62
8
  6
HIDDEN
  0
LAYER
  2
DEFAULT_3
 70
0
 62
7
  6
PHANTOM
  0
LAYER
  2
0000_BOM
 70
0
 62
7
  6
CONTINUOUS
  0
LAYER
  2
0000_REV_TABLE
 70
0
 62
7
  6
CONTINUOUS
  0
LAYER
  2
0000_STEVENS_NOTE
 70
0
 62
7
  6
CONTINUOUS
  0
LAYER
  2
01_DATUM_PLANES
 70
0
 62
7
  6
CONTINUOUS
  0
LAYER
  2
01_DEF_PLANES
 70
0
 62
7
  6
CONTINUOUS
  0
LAYER
  2
02_DATUM_COS
 70
0
 62
7
  6
CONTINUOUS
  0
LAYER
  2
99_SOLID
 70
0
 62
7
  6
CONTINUOUS
  0
LAYER
  2
CAD-MASTER_ZINC-PL
 70
0
 62
7
  6
CONTINUOUS
  0
LAYER
  2
CURVE
 70
0
 62
7
  6
CONTINUOUS
  0
LAYER
  2
SKEL
 70
0
 62
7
  6
CONTINUOUS
  0
LAYER
  2
SKETCH
 70
0
 62
7
  6
CONTINUOUS
  0
LAYER
  2
SURFACE
 70
0
 62
7
  6
CONTINUOUS
  0
ENDTAB
  0
TABLE
  2
STYLE
 70
1
  0
STYLE
  2
STANDARD
 70
0
 40
0.0
 41
0.75
 50
0.0
 71
0
 42
0.2
  3
txt
  4

  0
STYLE
  2
TEXTSTYLE_1
 70
0
 40
0.0
 41
0.8
 50
0.0
 71
0
 42
0.2
  3
gdt
  4

  0
ENDTAB
  0
ENDSEC
  0
SECTION
  2
BLOCKS
  0
ENDSEC
  0
SECTION
  2
ENTITIES
  0
LINE
  8
0
 62
7
  6
CONTINUOUS
 10
-10.724607958
 20
-260.5259805629
 11
-40.724607958
 21
-260.5259805629
  0
LINE
  8
0
 62
7
  6
CONTINUOUS
 10
379.275392042
 20
-260.5259805629
 11
409.275392042
 21
-260.5259805629
  0
POLYLINE
  8
0
 62
7
  6
CONTINUOUS
 66
1
 70
0
  0
VERTEX
  8
0
 62
7
  6
CONTINUOUS
 10
-11.4741988262
 20
522.9276720564
  0
VERTEX
  8
0
 62
7
  6
CONTINUOUS
 10
-11.6183421429
 20
522.7201332907
  0
VERTEX
  8
0
 62
7
  6
CONTINUOUS
 10
-11.7756945522
 20
522.4909300346
  0
VERTEX
  8
0
 62
7
  6
CONTINUOUS
 10
-11.9455122479
 20
522.2402742679
  0
VERTEX
  8
0
 62
7
  6
CONTINUOUS
 10
-12.1272730289
 20
521.9676957371
  0
VERTEX
  8
0
 62
7
  6
CONTINUOUS
 10
-12.3196964955
 20
521.67411434
  0
VERTEX
  8
0
 62
7
  6
CONTINUOUS
 10
-12.521364364
 20
521.3600131957
  0
VERTEX
  8
0
 62
7
  6
CONTINUOUS
 10
-12.7308350889
 20
521.0262323861
  0
VERTEX
  8
0
 62
7
  6
CONTINUOUS
 10
-12.9464416632
 20
520.6734445559
  0
VERTEX
  8
0
 62
7
  6
CONTINUOUS
 10
-13.1663991669
 20
520.3026351345
  0
VERTEX
  8
0
 62
7
  6
CONTINUOUS
 10
-13.3891159217
 20
519.9139026644
  0
VERTEX
  8
0
 62
7
  6
CONTINUOUS
 10
-13.6115311443
 20
519.5105804515
  0
VERTEX
  8
0
 62
7
  6
CONTINUOUS
 10
-13.8305454068
 20
519.0949858998
  0
VERTEX
  8
0
 62
7
  6
CONTINUOUS
 10
-14.043545658
 20
518.6702652584
  0
VERTEX
  8
0
 62
7
  6
CONTINUOUS
 10
-14.2474995023
 20
518.2390776982
  0
VERTEX
  8
0
 62
7
  6
CONTINUOUS
 10
-14.4400909732
 20
517.8052018577
  0
VERTEX
  8
0
 62
7
  6
CONTINUOUS
 10
-14.6183499097
 20
517.3724982313
  0
VERTEX
  8
0
 62
7
  6
CONTINUOUS
 10
-14.781307422
 20
516.9433804211
  0
VERTEX
  8
0
 62
7
  6
CONTINUOUS
 10
-14.927068574
 20
516.5218898394
  0
VERTEX
  8
0
 62
7
  6
CONTINUOUS
 10
-15.0561690162
 20
516.1070035507
  0
VERTEX
  8
0
 62
7
  6
CONTINUOUS
 10
-15.1687279709
 20
515.699420866
  0
VERTEX
  8
0
 62
7
  6
CONTINUOUS
 10
-15.2651164715
 20
515.2980164587
  0
VERTEX
  8
0
 62
7
  6
CONTINUOUS
 10
-15.3459289434
 20
514.9023375305
  0
VERTEX
  8
0
 62
7
  6
CONTINUOUS
 10
-15.4113877266
 20
514.5110658066
  0
VERTEX
  8
0
 62
7
  6
CONTINUOUS
 10
-15.4620979428
 20
514.1227676355
  0
VERTEX
  8
0
 62
7
  6
CONTINUOUS
 10
-15.4980419309
 20
513.7373363492
  0
VERTEX
  8
0
 62
7
  6
CONTINUOUS
 10
-15.5195302735
 20
513.3547105804
  0
VERTEX
  8
0
 62
7
  6
CONTINUOUS
 10
-15.5265689069
 20
512.9733207755
  0
VERTEX
  8
0
 62
7
  6
CONTINUOUS
 10
-15.5194849889
 20
512.5920099046
  0
VERTEX
  8
0
 62
7
  6
CONTINUOUS
 10
-15.4979505356
 20
512.2094790286
  0
VERTEX
  8
0
 62
7
  6
CONTINUOUS
 10
-15.4619607332
 20
511.8240489982
  0
VERTEX
  8
0
 62
7
  6
CONTINUOUS
 10
-15.4111984255
 20
511.4357034139
  0
VERTEX
  8
0
 62
7
  6
CONTINUOUS
 10
-15.3456672811
 20
511.0443130698
  0
VERTEX
  8
0
 62
7
  6
CONTINUOUS
 10
-15.2647863791
 20
510.6485372367
  0
VERTEX
  8
0
 62
7
  6
CONTINUOUS
 10
-15.1683586883
 20
510.2471775999
  0
VERTEX
  8
0
 62
7
  6
CONTINUOUS
 10
-15.055770249
 20
509.8396777101
  0
VERTEX
  8
0
 62
7
  6
CONTINUOUS
 10
-14.9266438495
 20
509.4248521945
  0
VERTEX
  8
0
 62
7
  6
CONTINUOUS
 10
-14.7808470855
 20
509.0033895077
  0
VERTEX
  8
0
 62
7
  6
CONTINUOUS
 10
-14.6178255101
 20
508.5742199932
  0
VERTEX
  8
0
 62
7
  6
CONTINUOUS
 10
-14.439489641
 20
508.1414326113
  0
VERTEX
  8
0
 62
7
  6
CONTINUOUS
 10
-14.2467937963
 20
507.7074347868
  0
VERTEX
  8
0
 62
7
  6
CONTINUOUS
 10
-14.0427789233
 20
507.276201469
  0
VERTEX
  8
0
 62
7
  6
CONTINUOUS
 10
-13.8298391257
 20
506.8516728931
  0
VERTEX
  8
0
 62
7
  6
CONTINUOUS
 10
-13.6109387068
 20
506.4363606262
  0
VERTEX
  8
0
 62
7
  6
CONTINUOUS
 10
-13.3886653365
 20
506.0333296872
  0
VERTEX
  8
0
 62
7
  6
CONTINUOUS
 10
-13.1660818222
 20
505.6448599556
  0
VERTEX
  8
0
 62
7
  6
CONTINUOUS
 10
-12.9462038287
 20
505.2742015113
  0
VERTEX
  8
0
 62
7
  6
CONTINUOUS
 10
-12.7306505924
 20
504.9215087715
  0
VERTEX
  8
0
 62
7
  6
CONTINUOUS
 10
-12.5212209213
 20
504.5877992263
  0
VERTEX
  8
0
 62
7
  6
CONTINUOUS
 10
-12.3195726627
 20
504.2737337366
  0
VERTEX
  8
0
 62
7
  6
CONTINUOUS
 10
-12.1271382023
 20
503.9801413163
  0
VERTEX
  8
0
 62
7
  6
CONTINUOUS
 10
-11.9453578373
 20
503.7075349964
  0
VERTEX
  8
0
 62
7
  6
CONTINUOUS
 10
-11.7755258869
 20
503.4568622335
  0
VERTEX
  8
0
 62
7
  6
CONTINUOUS
 10
-11.6181647041
 20
503.227648765
  0
VERTEX
  8
0
 62
7
  6
CONTINUOUS
 10
-11.4740172865
 20
503.0201087252
  0
VERTEX
  8
0
 62
7
  6
CONTINUOUS
 10
-11.2243076652
 20
502.6657988317
  0
SEQEND
  0
LINE
  8
0
 62
7
  6
CONTINUOUS
 10
-11.224437046
 20
523.2820547888
 11
-11.4741988262
 21
522.9276720564
  0
LINE
  8
0
 62
7
  6
CONTINUOUS
 10
-11.0256540218
 20
523.5598299116
 11
-11.224437046
 21
523.2820547888
  0
LINE
  8
0
 62
7
  6
CONTINUOUS
 10
-10.8224342998
 20
523.8402413997
 11
-11.0256540218
 21
523.5598299116
  0
LINE
  8
0
 62
7
  6
CONTINUOUS
 10
-10.7306843899
 20
523.9658113137
 11
-10.8224342998
 21
523.8402413997
  0
LINE
  8
0
 62
7
  6
CONTINUOUS
 10
-10.724607958
 20
523.9740194371
 11
-10.7306843899
 21
523.9658113137
  0
LINE
  8
0
 62
7
  6
CONTINUOUS
 10
-10.724607958
 20
-220.0259805629
 11
379.275392042
 21
-220.0259805629
  0
LINE
  8
0
 62
7
  6
CONTINUOUS
 10
-10.7306834372
 20
-220.0177727396
 11
-10.724607958
 21
-220.0259805629
  0
LINE
  8
0
 62
7
  6
CONTINUOUS
 10
-10.8776000459
 20
-219.8164691308
 11
-10.7306834372
 21
-220.0177727396
  0
LINE
  8
0
 62
7
  6
CONTINUOUS
 10
-11.0255862826
 20
-219.6118842491
 11
-10.8776000459
 21
-219.8164691308
  0
LINE
  8
0
 62
7
  6
CONTINUOUS
 10
-11.2243076652
 20
-219.3342011683
 11
-11.0255862826
 21
-219.6118842491
  0
LINE
  8
0
 62
7
  6
CONTINUOUS
 10
379.275392042
 20
-198.0259805629
 11
-10.724607958
 21
-198.0259805629
  0
POLYLINE
  8
0
 62
7
  6
CONTINUOUS
 66
1
 70
0
  0
VERTEX
  8
0
 62
7
  6
CONTINUOUS
 10
-11.4741988262
 20
425.9276720564
  0
VERTEX
  8
0
 62
7
  6
CONTINUOUS
 10
-11.6183421429
 20
425.7201332907
  0
VERTEX
  8
0
 62
7
  6
CONTINUOUS
 10
-11.7756945522
 20
425.4909300346
  0
VERTEX
  8
0
 62
7
  6
CONTINUOUS
 10
-11.9455122479
 20
425.2402742679
  0
VERTEX
  8
0
 62
7
  6
CONTINUOUS
 10
-12.1272730289
 20
424.9676957371
  0
VERTEX
  8
0
 62
7
  6
CONTINUOUS
 10
-12.3196964955
 20
424.67411434
  0
VERTEX
  8
0
 62
7
  6
CONTINUOUS
 10
-12.521364364
 20
424.3600131957
  0
VERTEX
  8
0
 62
7
  6
CONTINUOUS
 10
-12.7308350889
 20
424.0262323861
  0
VERTEX
  8
0
 62
7
  6
CONTINUOUS
 10
-12.9464416632
 20
423.6734445559
  0
VERTEX
  8
0
 62
7
  6
CONTINUOUS
 10
-13.1663991669
 20
423.3026351345
  0
VERTEX
  8
0
 62
7
  6
CONTINUOUS
 10
-13.3891159217
 20
422.9139026644
  0
VERTEX
  8
0
 62
7
  6
CONTINUOUS
 10
-13.6115311443
 20
422.5105804515
  0
VERTEX
  8
0
 62
7
  6
CONTINUOUS
 10
-13.8305454068
 20
422.0949858998
  0
VERTEX
  8
0
 62
7
  6
CONTINUOUS
 10
-14.043545658
 20
421.6702652584
  0
VERTEX
  8
0
 62
7
  6
CONTINUOUS
 10
-14.2474995023
 20
421.2390776982
  0
VERTEX
  8
0
 62
7
  6
CONTINUOUS
 10
-14.4400909732
 20
420.8052018577
  0
VERTEX
  8
0
 62
7
  6
CONTINUOUS
 10
-14.6183499097
 20
420.3724982313
  0
VERTEX
  8
0
 62
7
  6
CONTINUOUS
 10
-14.781307422
 20
419.9433804211
  0
VERTEX
  8
0
 62
7
  6
CONTINUOUS
 10
-14.927068574
 20
419.5218898394
  0
VERTEX
  8
0
 62
7
  6
CONTINUOUS
 10
-15.0561690162
 20
419.1070035507
  0
VERTEX
  8
0
 62
7
  6
CONTINUOUS
 10
-15.1687279709
 20
418.699420866
  0
VERTEX
  8
0
 62
7
  6
CONTINUOUS
 10
-15.2651164715
 20
418.2980164587
  0
VERTEX
  8
0
 62
7
  6
CONTINUOUS
 10
-15.3459289434
 20
417.9023375305
  0
VERTEX
  8
0
 62
7
  6
CONTINUOUS
 10
-15.4113877266
 20
417.5110658066
  0
VERTEX
  8
0
 62
7
  6
CONTINUOUS
 10
-15.4620979428
 20
417.1227676355
  0
VERTEX
  8
0
 62
7
  6
CONTINUOUS
 10
-15.4980419309
 20
416.7373363492
  0
VERTEX
  8
0
 62
7
  6
CONTINUOUS
 10
-15.5195302735
 20
416.3547105804
  0
VERTEX
  8
0
 62
7
  6
CONTINUOUS
 10
-15.5265689069
 20
415.9733207755
  0
VERTEX
  8
0
 62
7
  6
CONTINUOUS
 10
-15.5194849889
 20
415.5920099046
  0
VERTEX
  8
0
 62
7
  6
CONTINUOUS
 10
-15.4979505356
 20
415.2094790286
  0
VERTEX
  8
0
 62
7
  6
CONTINUOUS
 10
-15.4619607332
 20
414.8240489982
  0
VERTEX
  8
0
 62
7
  6
CONTINUOUS
 10
-15.4111984255
 20
414.4357034139
  0
VERTEX
  8
0
 62
7
  6
CONTINUOUS
 10
-15.3456672811
 20
414.0443130698
  0
VERTEX
  8
0
 62
7
  6
CONTINUOUS
 10
-15.2647863791
 20
413.6485372367
  0
VERTEX
  8
0
 62
7
  6
CONTINUOUS
 10
-15.1683586883
 20
413.2471775999
  0
VERTEX
  8
0
 62
7
  6
CONTINUOUS
 10
-15.055770249
 20
412.8396777101
  0
VERTEX
  8
0
 62
7
  6
CONTINUOUS
 10
-14.9266438495
 20
412.4248521945
  0
VERTEX
  8
0
 62
7
  6
CONTINUOUS
 10
-14.7808470855
 20
412.0033895077
  0
VERTEX
  8
0
 62
7
  6
CONTINUOUS
 10
-14.6178255101
 20
411.5742199932
  0
VERTEX
  8
0
 62
7
  6
CONTINUOUS
 10
-14.439489641
 20
411.1414326113
  0
VERTEX
  8
0
 62
7
  6
CONTINUOUS
 10
-14.2467937963
 20
410.7074347868
  0
VERTEX
  8
0
 62
7
  6
CONTINUOUS
 10
-14.0427789233
 20
410.276201469
  0
VERTEX
  8
0
 62
7
  6
CONTINUOUS
 10
-13.8298391257
 20
409.8516728931
  0
VERTEX
  8
0
 62
7
  6
CONTINUOUS
 10
-13.6109387068
 20
409.4363606262
  0
VERTEX
  8
0
 62
7
  6
CONTINUOUS
 10
-13.3886653365
 20
409.0333296872
  0
VERTEX
  8
0
 62
7
  6
CONTINUOUS
 10
-13.1660818222
 20
408.6448599556
  0
VERTEX
  8
0
 62
7
  6
CONTINUOUS
 10
-12.9462038287
 20
408.2742015113
  0
VERTEX
  8
0
 62
7
  6
CONTINUOUS
 10
-12.7306505924
 20
407.9215087715
  0
VERTEX
  8
0
 62
7
  6
CONTINUOUS
 10
-12.5212209213
 20
407.5877992263
  0
VERTEX
  8
0
 62
7
  6
CONTINUOUS
 10
-12.3195726627
 20
407.2737337366
  0
VERTEX
  8
0
 62
7
  6
CONTINUOUS
 10
-12.1271382023
 20
406.9801413163
  0
VERTEX
  8
0
 62
7
  6
CONTINUOUS
 10
-11.9453578373
 20
406.7075349964
  0
VERTEX
  8
0
 62
7
  6
CONTINUOUS
 10
-11.7755258869
 20
406.4568622335
  0
VERTEX
  8
0
 62
7
  6
CONTINUOUS
 10
-11.6181647041
 20
406.227648765
  0
VERTEX
  8
0
 62
7
  6
CONTINUOUS
 10
-11.4740172865
 20
406.0201087252
  0
VERTEX
  8
0
 62
7
  6
CONTINUOUS
 10
-11.2243076652
 20
405.6657988317
  0
SEQEND
  0
LINE
  8
0
 62
7
  6
CONTINUOUS
 10
-11.224437046
 20
426.2820547888
 11
-11.4741988262
 21
425.9276720564
  0
LINE
  8
0
 62
7
  6
CONTINUOUS
 10
-11.0256540218
 20
426.5598299116
 11
-11.224437046
 21
426.2820547888
  0
LINE
  8
0
 62
7
  6
CONTINUOUS
 10
-10.8224342998
 20
426.8402413997
 11
-11.0256540218
 21
426.5598299116
  0
LINE
  8
0
 62
7
  6
CONTINUOUS
 10
-10.7306843899
 20
426.9658113137
 11
-10.8224342998
 21
426.8402413997
  0
LINE
  8
0
 62
7
  6
CONTINUOUS
 10
-10.724607958
 20
426.9740194371
 11
-10.7306843899
 21
426.9658113137
  0
LINE
  8
0
 62
7
  6
CONTINUOUS
 10
-10.7306834372
 20
-123.0177727396
 11
-10.724607958
 21
-123.0259805629
  0
LINE
  8
0
 62
7
  6
CONTINUOUS
 10
-10.8776000459
 20
-122.8164691308
 11
-10.7306834372
 21
-123.0177727396
  0
LINE
  8
0
 62
7
  6
CONTINUOUS
 10
-11.0255862826
 20
-122.6118842491
 11
-10.8776000459
 21
-122.8164691308
  0
LINE
  8
0
 62
7
  6
CONTINUOUS
 10
-11.2243076652
 20
-122.3342011683
 11
-11.0255862826
 21
-122.6118842491
  0
LINE
  8
0
 62
7
  6
CONTINUOUS
 10
-10.724607958
 20
-123.0259805629
 11
379.275392042
 21
-123.0259805629
  0
LINE
  8
0
 62
7
  6
CONTINUOUS
 10
379.275392042
 20
-101.0259805629
 11
-10.724607958
 21
-101.0259805629
  0
LINE
  8
0
 62
7
  6
CONTINUOUS
 10
-40.724607958
 20
564.4740194371
 11
-40.724607958
 21
-260.5259805629
  0
POLYLINE
  8
0
 62
7
  6
CONTINUOUS
 66
1
 70
0
  0
VERTEX
  8
0
 62
7
  6
CONTINUOUS
 10
-11.4741988262
 20
258.9276720564
  0
VERTEX
  8
0
 62
7
  6
CONTINUOUS
 10
-11.6183421429
 20
258.7201332907
  0
VERTEX
  8
0
 62
7
  6
CONTINUOUS
 10
-11.7756945522
 20
258.4909300346
  0
VERTEX
  8
0
 62
7
  6
CONTINUOUS
 10
-11.9455122479
 20
258.2402742679
  0
VERTEX
  8
0
 62
7
  6
CONTINUOUS
 10
-12.1272730289
 20
257.9676957371
  0
VERTEX
  8
0
 62
7
  6
CONTINUOUS
 10
-12.3196964955
 20
257.67411434
  0
VERTEX
  8
0
 62
7
  6
CONTINUOUS
 10
-12.521364364
 20
257.3600131957
  0
VERTEX
  8
0
 62
7
  6
CONTINUOUS
 10
-12.7308350889
 20
257.0262323861
  0
VERTEX
  8
0
 62
7
  6
CONTINUOUS
 10
-12.9464416632
 20
256.6734445559
  0
VERTEX
  8
0
 62
7
  6
CONTINUOUS
 10
-13.1663991669
 20
256.3026351345
  0
VERTEX
  8
0
 62
7
  6
CONTINUOUS
 10
-13.3891159217
 20
255.9139026644
  0
VERTEX
  8
0
 62
7
  6
CONTINUOUS
 10
-13.6115311443
 20
255.5105804515
  0
VERTEX
  8
0
 62
7
  6
CONTINUOUS
 10
-13.8305454068
 20
255.0949858998
  0
VERTEX
  8
0
 62
7
  6
CONTINUOUS
 10
-14.043545658
 20
254.6702652584
  0
VERTEX
  8
0
 62
7
  6
CONTINUOUS
 10
-14.2474995023
 20
254.2390776982
  0
VERTEX
  8
0
 62
7
  6
CONTINUOUS
 10
-14.4400909732
 20
253.8052018577
  0
VERTEX
  8
0
 62
7
  6
CONTINUOUS
 10
-14.6183499097
 20
253.3724982313
  0
VERTEX
  8
0
 62
7
  6
CONTINUOUS
 10
-14.781307422
 20
252.9433804211
  0
VERTEX
  8
0
 62
7
  6
CONTINUOUS
 10
-14.927068574
 20
252.5218898394
  0
VERTEX
  8
0
 62
7
  6
CONTINUOUS
 10
-15.0561690162
 20
252.1070035507
  0
VERTEX
  8
0
 62
7
  6
CONTINUOUS
 10
-15.1687279709
 20
251.699420866
  0
VERTEX
  8
0
 62
7
  6
CONTINUOUS
 10
-15.2651164715
 20
251.2980164587
  0
VERTEX
  8
0
 62
7
  6
CONTINUOUS
 10
-15.3459289434
 20
250.9023375305
  0
VERTEX
  8
0
 62
7
  6
CONTINUOUS
 10
-15.4113877266
 20
250.5110658066
  0
VERTEX
  8
0
 62
7
  6
CONTINUOUS
 10
-15.4620979428
 20
250.1227676355
  0
VERTEX
  8
0
 62
7
  6
CONTINUOUS
 10
-15.4980419309
 20
249.7373363492
  0
VERTEX
  8
0
 62
7
  6
CONTINUOUS
 10
-15.5195302735
 20
249.3547105804
  0
VERTEX
  8
0
 62
7
  6
CONTINUOUS
 10
-15.5265689069
 20
248.9733207755
  0
VERTEX
  8
0
 62
7
  6
CONTINUOUS
 10
-15.5194849889
 20
248.5920099046
  0
VERTEX
  8
0
 62
7
  6
CONTINUOUS
 10
-15.4979505356
 20
248.2094790286
  0
VERTEX
  8
0
 62
7
  6
CONTINUOUS
 10
-15.4619607332
 20
247.8240489982
  0
VERTEX
  8
0
 62
7
  6
CONTINUOUS
 10
-15.4111984255
 20
247.4357034139
  0
VERTEX
  8
0
 62
7
  6
CONTINUOUS
 10
-15.3456672811
 20
247.0443130698
  0
VERTEX
  8
0
 62
7
  6
CONTINUOUS
 10
-15.2647863791
 20
246.6485372367
  0
VERTEX
  8
0
 62
7
  6
CONTINUOUS
 10
-15.1683586883
 20
246.2471775999
  0
VERTEX
  8
0
 62
7
  6
CONTINUOUS
 10
-15.055770249
 20
245.8396777101
  0
VERTEX
  8
0
 62
7
  6
CONTINUOUS
 10
-14.9266438495
 20
245.4248521945
  0
VERTEX
  8
0
 62
7
  6
CONTINUOUS
 10
-14.7808470855
 20
245.0033895077
  0
VERTEX
  8
0
 62
7
  6
CONTINUOUS
 10
-14.6178255101
 20
244.5742199932
  0
VERTEX
  8
0
 62
7
  6
CONTINUOUS
 10
-14.439489641
 20
244.1414326113
  0
VERTEX
  8
0
 62
7
  6
CONTINUOUS
 10
-14.2467937963
 20
243.7074347868
  0
VERTEX
  8
0
 62
7
  6
CONTINUOUS
 10
-14.0427789233
 20
243.276201469
  0
VERTEX
  8
0
 62
7
  6
CONTINUOUS
 10
-13.8298391257
 20
242.8516728931
  0
VERTEX
  8
0
 62
7
  6
CONTINUOUS
 10
-13.6109387068
 20
242.4363606262
  0
VERTEX
  8
0
 62
7
  6
CONTINUOUS
 10
-13.3886653365
 20
242.0333296872
  0
VERTEX
  8
0
 62
7
  6
CONTINUOUS
 10
-13.1660818222
 20
241.6448599556
  0
VERTEX
  8
0
 62
7
  6
CONTINUOUS
 10
-12.9462038287
 20
241.2742015113
  0
VERTEX
  8
0
 62
7
  6
CONTINUOUS
 10
-12.7306505924
 20
240.9215087715
  0
VERTEX
  8
0
 62
7
  6
CONTINUOUS
 10
-12.5212209213
 20
240.5877992263
  0
VERTEX
  8
0
 62
7
  6
CONTINUOUS
 10
-12.3195726627
 20
240.2737337366
  0
VERTEX
  8
0
 62
7
  6
CONTINUOUS
 10
-12.1271382023
 20
239.9801413163
  0
VERTEX
  8
0
 62
7
  6
CONTINUOUS
 10
-11.9453578373
 20
239.7075349964
  0
VERTEX
  8
0
 62
7
  6
CONTINUOUS
 10
-11.7755258869
 20
239.4568622335
  0
VERTEX
  8
0
 62
7
  6
CONTINUOUS
 10
-11.6181647041
 20
239.227648765
  0
VERTEX
  8
0
 62
7
  6
CONTINUOUS
 10
-11.4740172865
 20
239.0201087252
  0
VERTEX
  8
0
 62
7
  6
CONTINUOUS
 10
-11.2243076652
 20
238.6657988317
  0
SEQEND
  0
LINE
  8
0
 62
7
  6
CONTINUOUS
 10
-11.224437046
 20
259.2820547888
 11
-11.4741988262
 21
258.9276720564
  0
LINE
  8
0
 62
7
  6
CONTINUOUS
 10
-11.0256540218
 20
259.5598299116
 11
-11.224437046
 21
259.2820547888
  0
LINE
  8
0
 62
7
  6
CONTINUOUS
 10
-10.8224342998
 20
259.8402413997
 11
-11.0256540218
 21
259.5598299116
  0
LINE
  8
0
 62
7
  6
CONTINUOUS
 10
-10.7306843899
 20
259.9658113137
 11
-10.8224342998
 21
259.8402413997
  0
LINE
  8
0
 62
7
  6
CONTINUOUS
 10
-10.724607958
 20
259.9740194371
 11
-10.7306843899
 21
259.9658113137
  0
LINE
  8
0
 62
7
  6
CONTINUOUS
 10
-10.7306834372
 20
43.9822272604
 11
-10.724607958
 21
43.9740194371
  0
LINE
  8
0
 62
7
  6
CONTINUOUS
 10
-10.8776000459
 20
44.1835308692
 11
-10.7306834372
 21
43.9822272604
  0
LINE
  8
0
 62
7
  6
CONTINUOUS
 10
-11.0255862826
 20
44.3881157509
 11
-10.8776000459
 21
44.1835308692
  0
LINE
  8
0
 62
7
  6
CONTINUOUS
 10
-11.2243076652
 20
44.6657988317
 11
-11.0255862826
 21
44.3881157509
  0
LINE
  8
0
 62
7
  6
CONTINUOUS
 10
-10.724607958
 20
564.4740194371
 11
-10.724607958
 21
523.9740194371
  0
LINE
  8
0
 62
7
  6
CONTINUOUS
 10
-10.724607958
 20
501.9740194371
 11
-10.724607958
 21
426.9740194371
  0
LINE
  8
0
 62
7
  6
CONTINUOUS
 10
-10.724607958
 20
404.9740194371
 11
-10.724607958
 21
259.9740194371
  0
LINE
  8
0
 62
7
  6
CONTINUOUS
 10
-10.724607958
 20
237.9740194371
 11
-10.724607958
 21
162.9740194371
  0
LINE
  8
0
 62
7
  6
CONTINUOUS
 10
-10.724607958
 20
140.9740194371
 11
-10.724607958
 21
65.9740194371
  0
LINE
  8
0
 62
7
  6
CONTINUOUS
 10
-10.724607958
 20
43.9740194371
 11
-10.724607958
 21
-101.0259805629
  0
LINE
  8
0
 62
7
  6
CONTINUOUS
 10
-10.724607958
 20
-123.0259805629
 11
-10.724607958
 21
-198.0259805629
  0
LINE
  8
0
 62
7
  6
CONTINUOUS
 10
-10.724607958
 20
-220.0259805629
 11
-10.724607958
 21
-260.5259805629
  0
POLYLINE
  8
0
 62
7
  6
CONTINUOUS
 66
1
 70
0
  0
VERTEX
  8
0
 62
7
  6
CONTINUOUS
 10
-11.4742462169
 20
161.9276043206
  0
VERTEX
  8
0
 62
7
  6
CONTINUOUS
 10
-11.6183992719
 20
161.7200506035
  0
VERTEX
  8
0
 62
7
  6
CONTINUOUS
 10
-11.7757644778
 20
161.4908273563
  0
VERTEX
  8
0
 62
7
  6
CONTINUOUS
 10
-11.9455965012
 20
161.2401489812
  0
VERTEX
  8
0
 62
7
  6
CONTINUOUS
 10
-12.1273720178
 20
160.9675458281
  0
VERTEX
  8
0
 62
7
  6
CONTINUOUS
 10
-12.3198089804
 20
160.6739410248
  0
VERTEX
  8
0
 62
7
  6
CONTINUOUS
 10
-12.5214867845
 20
160.3598202747
  0
VERTEX
  8
0
 62
7
  6
CONTINUOUS
 10
-12.7309628603
 20
160.0260262011
  0
VERTEX
  8
0
 62
7
  6
CONTINUOUS
 10
-12.9465669352
 20
159.6732371258
  0
VERTEX
  8
0
 62
7
  6
CONTINUOUS
 10
-13.1665179102
 20
159.302431656
  0
VERTEX
  8
0
 62
7
  6
CONTINUOUS
 10
-13.3892259332
 20
158.9137083009
  0
VERTEX
  8
0
 62
7
  6
CONTINUOUS
 10
-13.6116362495
 20
158.5103856762
  0
VERTEX
  8
0
 62
7
  6
CONTINUOUS
 10
-13.8306579479
 20
158.0947677929
  0
VERTEX
  8
0
 62
7
  6
CONTINUOUS
 10
-14.043676484
 20
157.669996974
  0
VERTEX
  8
0
 62
7
  6
CONTINUOUS
 10
-14.2476761494
 20
157.238681932
  0
VERTEX
  8
0
 62
7
  6
CONTINUOUS
 10
-14.440294045
 20
156.8047275102
  0
VERTEX
  8
0
 62
7
  6
CONTINUOUS
 10
-14.6185032235
 20
156.372109766
  0
VERTEX
  8
0
 62
7
  6
CONTINUOUS
 10
-14.7813642421
 20
155.9432237688
  0
VERTEX
  8
0
 62
7
  6
CONTINUOUS
 10
-14.9269581407
 20
155.5222757506
  0
VERTEX
  8
0
 62
7
  6
CONTINUOUS
 10
-15.0559326646
 20
155.1078082807
  0
VERTEX
  8
0
 62
7
  6
CONTINUOUS
 10
-15.1685362825
 20
154.7002134158
  0
VERTEX
  8
0
 62
7
  6
CONTINUOUS
 10
-15.2650870378
 20
154.2981489257
  0
VERTEX
  8
0
 62
7
  6
CONTINUOUS
 10
-15.3462364938
 20
153.9004890935
  0
VERTEX
  8
0
 62
7
  6
CONTINUOUS
 10
-15.4119963993
 20
153.506976436
  0
VERTEX
  8
0
 62
7
  6
CONTINUOUS
 10
-15.4627287991
 20
153.1166090602
  0
VERTEX
  8
0
 62
7
  6
CONTINUOUS
 10
-15.498550336
 20
152.7304944786
  0
VERTEX
  8
0
 62
7
  6
CONTINUOUS
 10
-15.5197453352
 20
152.350687691
  0
VERTEX
  8
0
 62
7
  6
CONTINUOUS
 10
-15.5265689085
 20
151.9733443426
  0
VERTEX
  8
0
 62
7
  6
CONTINUOUS
 10
-15.5197093987
 20
151.5961659483
  0
VERTEX
  8
0
 62
7
  6
CONTINUOUS
 10
-15.4984782012
 20
151.2165698988
  0
VERTEX
  8
0
 62
7
  6
CONTINUOUS
 10
-15.4626248326
 20
150.8304972324
  0
VERTEX
  8
0
 62
7
  6
CONTINUOUS
 10
-15.4118500954
 20
150.4400785213
  0
VERTEX
  8
0
 62
7
  6
CONTINUOUS
 10
-15.346014982
 20
150.0463829853
  0
VERTEX
  8
0
 62
7
  6
CONTINUOUS
 10
-15.2647860418
 20
149.6485357196
  0
VERTEX
  8
0
 62
7
  6
CONTINUOUS
 10
-15.1681746384
 20
149.24642013
  0
VERTEX
  8
0
 62
7
  6
CONTINUOUS
 10
-15.0555213221
 20
148.838830504
  0
VERTEX
  8
0
 62
7
  6
CONTINUOUS
 10
-14.9265142515
 20
148.4244058522
  0
VERTEX
  8
0
 62
7
  6
CONTINUOUS
 10
-14.780885509
 20
148.0034954109
  0
VERTEX
  8
0
 62
7
  6
CONTINUOUS
 10
-14.6179687339
 20
147.5745809472
  0
VERTEX
  8
0
 62
7
  6
CONTINUOUS
 10
-14.4396914423
 20
147.1419038789
  0
VERTEX
  8
0
 62
7
  6
CONTINUOUS
 10
-14.2469704961
 20
146.7078312533
  0
VERTEX
  8
0
 62
7
  6
CONTINUOUS
 10
-14.0429088969
 20
146.2764679493
  0
VERTEX
  8
0
 62
7
  6
CONTINUOUS
 10
-13.8299500539
 20
145.8518879359
  0
VERTEX
  8
0
 62
7
  6
CONTINUOUS
 10
-13.6110414436
 20
145.4365509897
  0
VERTEX
  8
0
 62
7
  6
CONTINUOUS
 10
-13.3887728613
 20
145.033519605
  0
VERTEX
  8
0
 62
7
  6
CONTINUOUS
 10
-13.1661983323
 20
144.6450595977
  0
VERTEX
  8
0
 62
7
  6
CONTINUOUS
 10
-12.9463275485
 20
144.2744063182
  0
VERTEX
  8
0
 62
7
  6
CONTINUOUS
 10
-12.730777561
 20
143.9217136563
  0
VERTEX
  8
0
 62
7
  6
CONTINUOUS
 10
-12.5213430783
 20
143.5879917226
  0
VERTEX
  8
0
 62
7
  6
CONTINUOUS
 10
-12.3196852482
 20
143.2739072046
  0
VERTEX
  8
0
 62
7
  6
CONTINUOUS
 10
-12.127237409
 20
142.9802915624
  0
VERTEX
  8
0
 62
7
  6
CONTINUOUS
 10
-11.9454422984
 20
142.7076605903
  0
VERTEX
  8
0
 62
7
  6
CONTINUOUS
 10
-11.77559594
 20
142.4569651057
  0
VERTEX
  8
0
 62
7
  6
CONTINUOUS
 10
-11.6182218664
 20
142.2277314993
  0
VERTEX
  8
0
 62
7
  6
CONTINUOUS
 10
-11.474064655
 20
142.0201764305
  0
VERTEX
  8
0
 62
7
  6
CONTINUOUS
 10
-11.2243395616
 20
141.6658436419
  0
SEQEND
  0
LINE
  8
0
 62
7
  6
CONTINUOUS
 10
-11.2244689643
 20
162.2820099428
 11
-11.4742462169
 21
161.9276043206
  0
LINE
  8
0
 62
7
  6
CONTINUOUS
 10
-11.025673436
 20
162.5598029417
 11
-11.2244689643
 21
162.2820099428
  0
LINE
  8
0
 62
7
  6
CONTINUOUS
 10
-10.8224404183
 20
162.8402330086
 11
-11.025673436
 21
162.5598029417
  0
LINE
  8
0
 62
7
  6
CONTINUOUS
 10
-10.7306847429
 20
162.9658108759
 11
-10.8224404183
 21
162.8402330086
  0
LINE
  8
0
 62
7
  6
CONTINUOUS
 10
-10.724607958
 20
162.9740194371
 11
-10.7306847429
 21
162.9658108759
  0
LINE
  8
0
 62
7
  6
CONTINUOUS
 10
-10.7306837895
 20
140.9822276958
 11
-10.724607958
 21
140.9740194371
  0
LINE
  8
0
 62
7
  6
CONTINUOUS
 10
-10.8776097811
 20
141.1835442734
 11
-10.7306837895
 21
140.9822276958
  0
LINE
  8
0
 62
7
  6
CONTINUOUS
 10
-11.0256057163
 20
141.3881427473
 11
-10.8776097811
 21
141.1835442734
  0
LINE
  8
0
 62
7
  6
CONTINUOUS
 10
-11.2243395616
 20
141.6658436419
 11
-11.0256057163
 21
141.3881427473
  0
POLYLINE
  8
0
 62
7
  6
CONTINUOUS
 66
1
 70
0
  0
VERTEX
  8
0
 62
7
  6
CONTINUOUS
 10
-11.4741988262
 20
64.9276720564
  0
VERTEX
  8
0
 62
7
  6
CONTINUOUS
 10
-11.6183421429
 20
64.7201332907
  0
VERTEX
  8
0
 62
7
  6
CONTINUOUS
 10
-11.7756945522
 20
64.4909300346
  0
VERTEX
  8
0
 62
7
  6
CONTINUOUS
 10
-11.9455122479
 20
64.2402742679
  0
VERTEX
  8
0
 62
7
  6
CONTINUOUS
 10
-12.1272730289
 20
63.9676957371
  0
VERTEX
  8
0
 62
7
  6
CONTINUOUS
 10
-12.3196964955
 20
63.67411434
  0
VERTEX
  8
0
 62
7
  6
CONTINUOUS
 10
-12.521364364
 20
63.3600131957
  0
VERTEX
  8
0
 62
7
  6
CONTINUOUS
 10
-12.7308350889
 20
63.0262323861
  0
VERTEX
  8
0
 62
7
  6
CONTINUOUS
 10
-12.9464416632
 20
62.6734445559
  0
VERTEX
  8
0
 62
7
  6
CONTINUOUS
 10
-13.1663991669
 20
62.3026351345
  0
VERTEX
  8
0
 62
7
  6
CONTINUOUS
 10
-13.3891159217
 20
61.9139026644
  0
VERTEX
  8
0
 62
7
  6
CONTINUOUS
 10
-13.6115311443
 20
61.5105804515
  0
VERTEX
  8
0
 62
7
  6
CONTINUOUS
 10
-13.8305454068
 20
61.0949858998
  0
VERTEX
  8
0
 62
7
  6
CONTINUOUS
 10
-14.043545658
 20
60.6702652584
  0
VERTEX
  8
0
 62
7
  6
CONTINUOUS
 10
-14.2474995023
 20
60.2390776982
  0
VERTEX
  8
0
 62
7
  6
CONTINUOUS
 10
-14.4400909732
 20
59.8052018577
  0
VERTEX
  8
0
 62
7
  6
CONTINUOUS
 10
-14.6183499097
 20
59.3724982313
  0
VERTEX
  8
0
 62
7
  6
CONTINUOUS
 10
-14.781307422
 20
58.9433804211
  0
VERTEX
  8
0
 62
7
  6
CONTINUOUS
 10
-14.927068574
 20
58.5218898394
  0
VERTEX
  8
0
 62
7
  6
CONTINUOUS
 10
-15.0561690162
 20
58.1070035507
  0
VERTEX
  8
0
 62
7
  6
CONTINUOUS
 10
-15.1687279709
 20
57.699420866
  0
VERTEX
  8
0
 62
7
  6
CONTINUOUS
 10
-15.2651164715
 20
57.2980164587
  0
VERTEX
  8
0
 62
7
  6
CONTINUOUS
 10
-15.3459289434
 20
56.9023375305
  0
VERTEX
  8
0
 62
7
  6
CONTINUOUS
 10
-15.4113877266
 20
56.5110658066
  0
VERTEX
  8
0
 62
7
  6
CONTINUOUS
 10
-15.4620979428
 20
56.1227676355
  0
VERTEX
  8
0
 62
7
  6
CONTINUOUS
 10
-15.4980419309
 20
55.7373363492
  0
VERTEX
  8
0
 62
7
  6
CONTINUOUS
 10
-15.5195302735
 20
55.3547105804
  0
VERTEX
  8
0
 62
7
  6
CONTINUOUS
 10
-15.5265689069
 20
54.9733207755
  0
VERTEX
  8
0
 62
7
  6
CONTINUOUS
 10
-15.5194849889
 20
54.5920099046
  0
VERTEX
  8
0
 62
7
  6
CONTINUOUS
 10
-15.4979505356
 20
54.2094790286
  0
VERTEX
  8
0
 62
7
  6
CONTINUOUS
 10
-15.4619607332
 20
53.8240489982
  0
VERTEX
  8
0
 62
7
  6
CONTINUOUS
 10
-15.4111984255
 20
53.4357034139
  0
VERTEX
  8
0
 62
7
  6
CONTINUOUS
 10
-15.3456672811
 20
53.0443130698
  0
VERTEX
  8
0
 62
7
  6
CONTINUOUS
 10
-15.2647863791
 20
52.6485372367
  0
VERTEX
  8
0
 62
7
  6
CONTINUOUS
 10
-15.1683586883
 20
52.2471775999
  0
VERTEX
  8
0
 62
7
  6
CONTINUOUS
 10
-15.055770249
 20
51.8396777101
  0
VERTEX
  8
0
 62
7
  6
CONTINUOUS
 10
-14.9266438495
 20
51.4248521945
  0
VERTEX
  8
0
 62
7
  6
CONTINUOUS
 10
-14.7808470855
 20
51.0033895077
  0
VERTEX
  8
0
 62
7
  6
CONTINUOUS
 10
-14.6178255101
 20
50.5742199932
  0
VERTEX
  8
0
 62
7
  6
CONTINUOUS
 10
-14.439489641
 20
50.1414326113
  0
VERTEX
  8
0
 62
7
  6
CONTINUOUS
 10
-14.2467937963
 20
49.7074347868
  0
VERTEX
  8
0
 62
7
  6
CONTINUOUS
 10
-14.0427789233
 20
49.276201469
  0
VERTEX
  8
0
 62
7
  6
CONTINUOUS
 10
-13.8298391257
 20
48.8516728931
  0
VERTEX
  8
0
 62
7
  6
CONTINUOUS
 10
-13.6109387068
 20
48.4363606262
  0
VERTEX
  8
0
 62
7
  6
CONTINUOUS
 10
-13.3886653365
 20
48.0333296872
  0
VERTEX
  8
0
 62
7
  6
CONTINUOUS
 10
-13.1660818222
 20
47.6448599556
  0
VERTEX
  8
0
 62
7
  6
CONTINUOUS
 10
-12.9462038287
 20
47.2742015113
  0
VERTEX
  8
0
 62
7
  6
CONTINUOUS
 10
-12.7306505924
 20
46.9215087715
  0
VERTEX
  8
0
 62
7
  6
CONTINUOUS
 10
-12.5212209213
 20
46.5877992263
  0
VERTEX
  8
0
 62
7
  6
CONTINUOUS
 10
-12.3195726627
 20
46.2737337366
  0
VERTEX
  8
0
 62
7
  6
CONTINUOUS
 10
-12.1271382023
 20
45.9801413163
  0
VERTEX
  8
0
 62
7
  6
CONTINUOUS
 10
-11.9453578373
 20
45.7075349964
  0
VERTEX
  8
0
 62
7
  6
CONTINUOUS
 10
-11.7755258869
 20
45.4568622335
  0
VERTEX
  8
0
 62
7
  6
CONTINUOUS
 10
-11.6181647041
 20
45.227648765
  0
VERTEX
  8
0
 62
7
  6
CONTINUOUS
 10
-11.4740172865
 20
45.0201087252
  0
VERTEX
  8
0
 62
7
  6
CONTINUOUS
 10
-11.2243076652
 20
44.6657988317
  0
SEQEND
  0
LINE
  8
0
 62
7
  6
CONTINUOUS
 10
-11.224437046
 20
65.2820547888
 11
-11.4741988262
 21
64.9276720564
  0
LINE
  8
0
 62
7
  6
CONTINUOUS
 10
-11.0256540218
 20
65.5598299116
 11
-11.224437046
 21
65.2820547888
  0
LINE
  8
0
 62
7
  6
CONTINUOUS
 10
-10.8224342998
 20
65.8402413997
 11
-11.0256540218
 21
65.5598299116
  0
LINE
  8
0
 62
7
  6
CONTINUOUS
 10
-10.7306843899
 20
65.9658113137
 11
-10.8224342998
 21
65.8402413997
  0
LINE
  8
0
 62
7
  6
CONTINUOUS
 10
-10.724607958
 20
65.9740194371
 11
-10.7306843899
 21
65.9658113137
  0
LINE
  8
0
 62
7
  6
CONTINUOUS
 10
-10.724607958
 20
43.9740194371
 11
379.275392042
 21
43.9740194371
  0
LINE
  8
0
 62
7
  6
CONTINUOUS
 10
-10.7306834372
 20
237.9822272604
 11
-10.724607958
 21
237.9740194371
  0
LINE
  8
0
 62
7
  6
CONTINUOUS
 10
-10.8776000459
 20
238.1835308692
 11
-10.7306834372
 21
237.9822272604
  0
LINE
  8
0
 62
7
  6
CONTINUOUS
 10
-11.0255862826
 20
238.3881157509
 11
-10.8776000459
 21
238.1835308692
  0
LINE
  8
0
 62
7
  6
CONTINUOUS
 10
-11.2243076652
 20
238.6657988317
 11
-11.0255862826
 21
238.3881157509
  0
LINE
  8
0
 62
7
  6
CONTINUOUS
 10
379.275392042
 20
65.9740194371
 11
-10.724607958
 21
65.9740194371
  0
LINE
  8
0
 62
7
  6
CONTINUOUS
 10
380.0248013704
 20
503.0201087252
 11
379.7750917491
 21
502.6657988317
  0
LINE
  8
0
 62
7
  6
CONTINUOUS
 10
379.7750917491
 20
502.6657988317
 11
379.5763703665
 21
502.3881157509
  0
LINE
  8
0
 62
7
  6
CONTINUOUS
 10
379.5763703665
 20
502.3881157509
 11
379.3731916382
 21
502.1077607952
  0
LINE
  8
0
 62
7
  6
CONTINUOUS
 10
379.3731916382
 20
502.1077607952
 11
379.2814675211
 21
501.9822272604
  0
LINE
  8
0
 62
7
  6
CONTINUOUS
 10
379.2814675211
 20
501.9822272604
 11
379.275392042
 21
501.9740194371
  0
LINE
  8
0
 62
7
  6
CONTINUOUS
 10
379.275392042
 20
-198.0259805629
 11
379.2814684738
 21
-198.0341886863
  0
LINE
  8
0
 62
7
  6
CONTINUOUS
 10
379.2814684738
 20
-198.0341886863
 11
379.428423162
 21
-198.2355449822
  0
LINE
  8
0
 62
7
  6
CONTINUOUS
 10
379.428423162
 20
-198.2355449822
 11
379.5764381057
 21
-198.4401700884
  0
LINE
  8
0
 62
7
  6
CONTINUOUS
 10
379.5764381057
 20
-198.4401700884
 11
379.7752211299
 21
-198.7179452112
  0
POLYLINE
  8
0
 62
7
  6
CONTINUOUS
 66
1
 70
0
  0
VERTEX
  8
0
 62
7
  6
CONTINUOUS
 10
379.7752211299
 20
-198.7179452112
  0
VERTEX
  8
0
 62
7
  6
CONTINUOUS
 10
380.0249829101
 20
-199.0723279436
  0
VERTEX
  8
0
 62
7
  6
CONTINUOUS
 10
380.1691262268
 20
-199.2798667093
  0
VERTEX
  8
0
 62
7
  6
CONTINUOUS
 10
380.3264786361
 20
-199.5090699654
  0
VERTEX
  8
0
 62
7
  6
CONTINUOUS
 10
380.4962963318
 20
-199.7597257321
  0
VERTEX
  8
0
 62
7
  6
CONTINUOUS
 10
380.6780571129
 20
-200.0323042629
  0
VERTEX
  8
0
 62
7
  6
CONTINUOUS
 10
380.8704805794
 20
-200.32588566
  0
VERTEX
  8
0
 62
7
  6
CONTINUOUS
 10
381.0721484479
 20
-200.6399868043
  0
VERTEX
  8
0
 62
7
  6
CONTINUOUS
 10
381.2816191728
 20
-200.9737676139
  0
VERTEX
  8
0
 62
7
  6
CONTINUOUS
 10
381.4972257471
 20
-201.3265554441
  0
VERTEX
  8
0
 62
7
  6
CONTINUOUS
 10
381.7171832508
 20
-201.6973648655
  0
VERTEX
  8
0
 62
7
  6
CONTINUOUS
 10
381.9399000056
 20
-202.0860973356
  0
VERTEX
  8
0
 62
7
  6
CONTINUOUS
 10
382.1623152282
 20
-202.4894195485
  0
VERTEX
  8
0
 62
7
  6
CONTINUOUS
 10
382.3813294908
 20
-202.9050141002
  0
VERTEX
  8
0
 62
7
  6
CONTINUOUS
 10
382.5943297419
 20
-203.3297347416
  0
VERTEX
  8
0
 62
7
  6
CONTINUOUS
 10
382.7982835862
 20
-203.7609223018
  0
VERTEX
  8
0
 62
7
  6
CONTINUOUS
 10
382.9908750571
 20
-204.1947981423
  0
VERTEX
  8
0
 62
7
  6
CONTINUOUS
 10
383.1691339936
 20
-204.6275017687
  0
VERTEX
  8
0
 62
7
  6
CONTINUOUS
 10
383.3320915059
 20
-205.0566195789
  0
VERTEX
  8
0
 62
7
  6
CONTINUOUS
 10
383.4778526579
 20
-205.4781101606
  0
VERTEX
  8
0
 62
7
  6
CONTINUOUS
 10
383.6069531001
 20
-205.8929964493
  0
VERTEX
  8
0
 62
7
  6
CONTINUOUS
 10
383.7195120548
 20
-206.300579134
  0
VERTEX
  8
0
 62
7
  6
CONTINUOUS
 10
383.8159005554
 20
-206.7019835413
  0
VERTEX
  8
0
 62
7
  6
CONTINUOUS
 10
383.8967130273
 20
-207.0976624695
  0
VERTEX
  8
0
 62
7
  6
CONTINUOUS
 10
383.9621718105
 20
-207.4889341934
  0
VERTEX
  8
0
 62
7
  6
CONTINUOUS
 10
384.0128820267
 20
-207.8772323645
  0
VERTEX
  8
0
 62
7
  6
CONTINUOUS
 10
384.0488260148
 20
-208.2626636508
  0
VERTEX
  8
0
 62
7
  6
CONTINUOUS
 10
384.0703143574
 20
-208.6452894196
  0
VERTEX
  8
0
 62
7
  6
CONTINUOUS
 10
384.0773529908
 20
-209.0266792245
  0
VERTEX
  8
0
 62
7
  6
CONTINUOUS
 10
384.0702690728
 20
-209.4079900954
  0
VERTEX
  8
0
 62
7
  6
CONTINUOUS
 10
384.0487346195
 20
-209.7905209714
  0
VERTEX
  8
0
 62
7
  6
CONTINUOUS
 10
384.0127448171
 20
-210.1759510018
  0
VERTEX
  8
0
 62
7
  6
CONTINUOUS
 10
383.9619825094
 20
-210.5642965861
  0
VERTEX
  8
0
 62
7
  6
CONTINUOUS
 10
383.896451365
 20
-210.9556869302
  0
VERTEX
  8
0
 62
7
  6
CONTINUOUS
 10
383.815570463
 20
-211.3514627633
  0
VERTEX
  8
0
 62
7
  6
CONTINUOUS
 10
383.7191427722
 20
-211.7528224001
  0
VERTEX
  8
0
 62
7
  6
CONTINUOUS
 10
383.6065543329
 20
-212.1603222899
  0
VERTEX
  8
0
 62
7
  6
CONTINUOUS
 10
383.4774279334
 20
-212.5751478055
  0
VERTEX
  8
0
 62
7
  6
CONTINUOUS
 10
383.3316311694
 20
-212.9966104923
  0
VERTEX
  8
0
 62
7
  6
CONTINUOUS
 10
383.168609594
 20
-213.4257800068
  0
VERTEX
  8
0
 62
7
  6
CONTINUOUS
 10
382.9902737249
 20
-213.8585673887
  0
VERTEX
  8
0
 62
7
  6
CONTINUOUS
 10
382.7975778802
 20
-214.2925652132
  0
VERTEX
  8
0
 62
7
  6
CONTINUOUS
 10
382.5935630072
 20
-214.723798531
  0
VERTEX
  8
0
 62
7
  6
CONTINUOUS
 10
382.3806232096
 20
-215.1483271069
  0
VERTEX
  8
0
 62
7
  6
CONTINUOUS
 10
382.1617227907
 20
-215.5636393738
  0
VERTEX
  8
0
 62
7
  6
CONTINUOUS
 10
381.9394494204
 20
-215.9666703128
  0
VERTEX
  8
0
 62
7
  6
CONTINUOUS
 10
381.7168659061
 20
-216.3551400444
  0
VERTEX
  8
0
 62
7
  6
CONTINUOUS
 10
381.4969879126
 20
-216.7257984887
  0
VERTEX
  8
0
 62
7
  6
CONTINUOUS
 10
381.2814346763
 20
-217.0784912285
  0
VERTEX
  8
0
 62
7
  6
CONTINUOUS
 10
381.0720050052
 20
-217.4122007737
  0
VERTEX
  8
0
 62
7
  6
CONTINUOUS
 10
380.8703567466
 20
-217.7262662634
  0
VERTEX
  8
0
 62
7
  6
CONTINUOUS
 10
380.6779222862
 20
-218.0198586837
  0
VERTEX
  8
0
 62
7
  6
CONTINUOUS
 10
380.4961419212
 20
-218.2924650036
  0
VERTEX
  8
0
 62
7
  6
CONTINUOUS
 10
380.3263099708
 20
-218.5431377665
  0
VERTEX
  8
0
 62
7
  6
CONTINUOUS
 10
380.168948788
 20
-218.772351235
  0
VERTEX
  8
0
 62
7
  6
CONTINUOUS
 10
380.0248013704
 20
-218.9798912748
  0
SEQEND
  0
POLYLINE
  8
0
 62
7
  6
CONTINUOUS
 66
1
 70
0
  0
VERTEX
  8
0
 62
7
  6
CONTINUOUS
 10
-11.4741988262
 20
-102.0723279436
  0
VERTEX
  8
0
 62
7
  6
CONTINUOUS
 10
-11.6183421429
 20
-102.2798667093
  0
VERTEX
  8
0
 62
7
  6
CONTINUOUS
 10
-11.7756945522
 20
-102.5090699654
  0
VERTEX
  8
0
 62
7
  6
CONTINUOUS
 10
-11.9455122479
 20
-102.7597257321
  0
VERTEX
  8
0
 62
7
  6
CONTINUOUS
 10
-12.1272730289
 20
-103.0323042629
  0
VERTEX
  8
0
 62
7
  6
CONTINUOUS
 10
-12.3196964955
 20
-103.32588566
  0
VERTEX
  8
0
 62
7
  6
CONTINUOUS
 10
-12.521364364
 20
-103.6399868043
  0
VERTEX
  8
0
 62
7
  6
CONTINUOUS
 10
-12.7308350889
 20
-103.9737676139
  0
VERTEX
  8
0
 62
7
  6
CONTINUOUS
 10
-12.9464416632
 20
-104.3265554441
  0
VERTEX
  8
0
 62
7
  6
CONTINUOUS
 10
-13.1663991669
 20
-104.6973648655
  0
VERTEX
  8
0
 62
7
  6
CONTINUOUS
 10
-13.3891159217
 20
-105.0860973356
  0
VERTEX
  8
0
 62
7
  6
CONTINUOUS
 10
-13.6115311443
 20
-105.4894195485
  0
VERTEX
  8
0
 62
7
  6
CONTINUOUS
 10
-13.8305454068
 20
-105.9050141002
  0
VERTEX
  8
0
 62
7
  6
CONTINUOUS
 10
-14.043545658
 20
-106.3297347416
  0
VERTEX
  8
0
 62
7
  6
CONTINUOUS
 10
-14.2474995023
 20
-106.7609223018
  0
VERTEX
  8
0
 62
7
  6
CONTINUOUS
 10
-14.4400909732
 20
-107.1947981423
  0
VERTEX
  8
0
 62
7
  6
CONTINUOUS
 10
-14.6183499097
 20
-107.6275017687
  0
VERTEX
  8
0
 62
7
  6
CONTINUOUS
 10
-14.781307422
 20
-108.0566195789
  0
VERTEX
  8
0
 62
7
  6
CONTINUOUS
 10
-14.927068574
 20
-108.4781101606
  0
VERTEX
  8
0
 62
7
  6
CONTINUOUS
 10
-15.0561690162
 20
-108.8929964493
  0
VERTEX
  8
0
 62
7
  6
CONTINUOUS
 10
-15.1687279709
 20
-109.300579134
  0
VERTEX
  8
0
 62
7
  6
CONTINUOUS
 10
-15.2651164715
 20
-109.7019835413
  0
VERTEX
  8
0
 62
7
  6
CONTINUOUS
 10
-15.3459289434
 20
-110.0976624695
  0
VERTEX
  8
0
 62
7
  6
CONTINUOUS
 10
-15.4113877266
 20
-110.4889341934
  0
VERTEX
  8
0
 62
7
  6
CONTINUOUS
 10
-15.4620979428
 20
-110.8772323645
  0
VERTEX
  8
0
 62
7
  6
CONTINUOUS
 10
-15.4980419309
 20
-111.2626636508
  0
VERTEX
  8
0
 62
7
  6
CONTINUOUS
 10
-15.5195302735
 20
-111.6452894196
  0
VERTEX
  8
0
 62
7
  6
CONTINUOUS
 10
-15.5265689069
 20
-112.0266792245
  0
VERTEX
  8
0
 62
7
  6
CONTINUOUS
 10
-15.5194849889
 20
-112.4079900954
  0
VERTEX
  8
0
 62
7
  6
CONTINUOUS
 10
-15.4979505356
 20
-112.7905209714
  0
VERTEX
  8
0
 62
7
  6
CONTINUOUS
 10
-15.4619607332
 20
-113.1759510018
  0
VERTEX
  8
0
 62
7
  6
CONTINUOUS
 10
-15.4111984255
 20
-113.5642965861
  0
VERTEX
  8
0
 62
7
  6
CONTINUOUS
 10
-15.3456672811
 20
-113.9556869302
  0
VERTEX
  8
0
 62
7
  6
CONTINUOUS
 10
-15.2647863791
 20
-114.3514627633
  0
VERTEX
  8
0
 62
7
  6
CONTINUOUS
 10
-15.1683586883
 20
-114.7528224001
  0
VERTEX
  8
0
 62
7
  6
CONTINUOUS
 10
-15.055770249
 20
-115.1603222899
  0
VERTEX
  8
0
 62
7
  6
CONTINUOUS
 10
-14.9266438495
 20
-115.5751478055
  0
VERTEX
  8
0
 62
7
  6
CONTINUOUS
 10
-14.7808470855
 20
-115.9966104923
  0
VERTEX
  8
0
 62
7
  6
CONTINUOUS
 10
-14.6178255101
 20
-116.4257800068
  0
VERTEX
  8
0
 62
7
  6
CONTINUOUS
 10
-14.439489641
 20
-116.8585673887
  0
VERTEX
  8
0
 62
7
  6
CONTINUOUS
 10
-14.2467937963
 20
-117.2925652132
  0
VERTEX
  8
0
 62
7
  6
CONTINUOUS
 10
-14.0427789233
 20
-117.723798531
  0
VERTEX
  8
0
 62
7
  6
CONTINUOUS
 10
-13.8298391257
 20
-118.1483271069
  0
VERTEX
  8
0
 62
7
  6
CONTINUOUS
 10
-13.6109387068
 20
-118.5636393738
  0
VERTEX
  8
0
 62
7
  6
CONTINUOUS
 10
-13.3886653365
 20
-118.9666703128
  0
VERTEX
  8
0
 62
7
  6
CONTINUOUS
 10
-13.1660818222
 20
-119.3551400444
  0
VERTEX
  8
0
 62
7
  6
CONTINUOUS
 10
-12.9462038287
 20
-119.7257984887
  0
VERTEX
  8
0
 62
7
  6
CONTINUOUS
 10
-12.7306505924
 20
-120.0784912285
  0
VERTEX
  8
0
 62
7
  6
CONTINUOUS
 10
-12.5212209213
 20
-120.4122007737
  0
VERTEX
  8
0
 62
7
  6
CONTINUOUS
 10
-12.3195726627
 20
-120.7262662634
  0
VERTEX
  8
0
 62
7
  6
CONTINUOUS
 10
-12.1271382023
 20
-121.0198586837
  0
VERTEX
  8
0
 62
7
  6
CONTINUOUS
 10
-11.9453578373
 20
-121.2924650036
  0
VERTEX
  8
0
 62
7
  6
CONTINUOUS
 10
-11.7755258869
 20
-121.5431377665
  0
VERTEX
  8
0
 62
7
  6
CONTINUOUS
 10
-11.6181647041
 20
-121.772351235
  0
VERTEX
  8
0
 62
7
  6
CONTINUOUS
 10
-11.4740172865
 20
-121.9798912748
  0
VERTEX
  8
0
 62
7
  6
CONTINUOUS
 10
-11.2243076652
 20
-122.3342011683
  0
SEQEND
  0
LINE
  8
0
 62
7
  6
CONTINUOUS
 10
-11.224437046
 20
-101.7179452112
 11
-11.4741988262
 21
-102.0723279436
  0
LINE
  8
0
 62
7
  6
CONTINUOUS
 10
-11.0256540218
 20
-101.4401700884
 11
-11.224437046
 21
-101.7179452112
  0
LINE
  8
0
 62
7
  6
CONTINUOUS
 10
-10.8224342998
 20
-101.1597586003
 11
-11.0256540218
 21
-101.4401700884
  0
LINE
  8
0
 62
7
  6
CONTINUOUS
 10
-10.7306843899
 20
-101.0341886863
 11
-10.8224342998
 21
-101.1597586003
  0
LINE
  8
0
 62
7
  6
CONTINUOUS
 10
-10.724607958
 20
-101.0259805629
 11
-10.7306843899
 21
-101.0341886863
  0
LINE
  8
0
 62
7
  6
CONTINUOUS
 10
-10.724607958
 20
140.9740194371
 11
379.275392042
 21
140.9740194371
  0
LINE
  8
0
 62
7
  6
CONTINUOUS
 10
-10.7306834372
 20
404.9822272604
 11
-10.724607958
 21
404.9740194371
  0
LINE
  8
0
 62
7
  6
CONTINUOUS
 10
-10.8776000459
 20
405.1835308692
 11
-10.7306834372
 21
404.9822272604
  0
LINE
  8
0
 62
7
  6
CONTINUOUS
 10
-11.0255862826
 20
405.3881157509
 11
-10.8776000459
 21
405.1835308692
  0
LINE
  8
0
 62
7
  6
CONTINUOUS
 10
-11.2243076652
 20
405.6657988317
 11
-11.0255862826
 21
405.3881157509
  0
LINE
  8
0
 62
7
  6
CONTINUOUS
 10
380.0248013704
 20
406.0201087252
 11
379.7750917491
 21
405.6657988317
  0
LINE
  8
0
 62
7
  6
CONTINUOUS
 10
379.7750917491
 20
405.6657988317
 11
379.5763703665
 21
405.3881157509
  0
LINE
  8
0
 62
7
  6
CONTINUOUS
 10
379.5763703665
 20
405.3881157509
 11
379.3731916382
 21
405.1077607952
  0
LINE
  8
0
 62
7
  6
CONTINUOUS
 10
379.3731916382
 20
405.1077607952
 11
379.2814675211
 21
404.9822272604
  0
LINE
  8
0
 62
7
  6
CONTINUOUS
 10
379.2814675211
 20
404.9822272604
 11
379.275392042
 21
404.9740194371
  0
LINE
  8
0
 62
7
  6
CONTINUOUS
 10
379.275392042
 20
162.9740194371
 11
-10.724607958
 21
162.9740194371
  0
LINE
  8
0
 62
7
  6
CONTINUOUS
 10
379.275392042
 20
-101.0259805629
 11
379.2814684738
 21
-101.0341886863
  0
LINE
  8
0
 62
7
  6
CONTINUOUS
 10
379.2814684738
 20
-101.0341886863
 11
379.428423162
 21
-101.2355449822
  0
LINE
  8
0
 62
7
  6
CONTINUOUS
 10
379.428423162
 20
-101.2355449822
 11
379.5764381057
 21
-101.4401700884
  0
LINE
  8
0
 62
7
  6
CONTINUOUS
 10
379.5764381057
 20
-101.4401700884
 11
379.7752211299
 21
-101.7179452112
  0
POLYLINE
  8
0
 62
7
  6
CONTINUOUS
 66
1
 70
0
  0
VERTEX
  8
0
 62
7
  6
CONTINUOUS
 10
379.7752211299
 20
-101.7179452112
  0
VERTEX
  8
0
 62
7
  6
CONTINUOUS
 10
380.0249829101
 20
-102.0723279436
  0
VERTEX
  8
0
 62
7
  6
CONTINUOUS
 10
380.1691262268
 20
-102.2798667093
  0
VERTEX
  8
0
 62
7
  6
CONTINUOUS
 10
380.3264786361
 20
-102.5090699654
  0
VERTEX
  8
0
 62
7
  6
CONTINUOUS
 10
380.4962963318
 20
-102.7597257321
  0
VERTEX
  8
0
 62
7
  6
CONTINUOUS
 10
380.6780571129
 20
-103.0323042629
  0
VERTEX
  8
0
 62
7
  6
CONTINUOUS
 10
380.8704805794
 20
-103.32588566
  0
VERTEX
  8
0
 62
7
  6
CONTINUOUS
 10
381.0721484479
 20
-103.6399868043
  0
VERTEX
  8
0
 62
7
  6
CONTINUOUS
 10
381.2816191728
 20
-103.9737676139
  0
VERTEX
  8
0
 62
7
  6
CONTINUOUS
 10
381.4972257471
 20
-104.3265554441
  0
VERTEX
  8
0
 62
7
  6
CONTINUOUS
 10
381.7171832508
 20
-104.6973648655
  0
VERTEX
  8
0
 62
7
  6
CONTINUOUS
 10
381.9399000056
 20
-105.0860973356
  0
VERTEX
  8
0
 62
7
  6
CONTINUOUS
 10
382.1623152282
 20
-105.4894195485
  0
VERTEX
  8
0
 62
7
  6
CONTINUOUS
 10
382.3813294908
 20
-105.9050141002
  0
VERTEX
  8
0
 62
7
  6
CONTINUOUS
 10
382.5943297419
 20
-106.3297347416
  0
VERTEX
  8
0
 62
7
  6
CONTINUOUS
 10
382.7982835862
 20
-106.7609223018
  0
VERTEX
  8
0
 62
7
  6
CONTINUOUS
 10
382.9908750571
 20
-107.1947981423
  0
VERTEX
  8
0
 62
7
  6
CONTINUOUS
 10
383.1691339936
 20
-107.6275017687
  0
VERTEX
  8
0
 62
7
  6
CONTINUOUS
 10
383.3320915059
 20
-108.0566195789
  0
VERTEX
  8
0
 62
7
  6
CONTINUOUS
 10
383.4778526579
 20
-108.4781101606
  0
VERTEX
  8
0
 62
7
  6
CONTINUOUS
 10
383.6069531001
 20
-108.8929964493
  0
VERTEX
  8
0
 62
7
  6
CONTINUOUS
 10
383.7195120548
 20
-109.300579134
  0
VERTEX
  8
0
 62
7
  6
CONTINUOUS
 10
383.8159005554
 20
-109.7019835413
  0
VERTEX
  8
0
 62
7
  6
CONTINUOUS
 10
383.8967130273
 20
-110.0976624695
  0
VERTEX
  8
0
 62
7
  6
CONTINUOUS
 10
383.9621718105
 20
-110.4889341934
  0
VERTEX
  8
0
 62
7
  6
CONTINUOUS
 10
384.0128820267
 20
-110.8772323645
  0
VERTEX
  8
0
 62
7
  6
CONTINUOUS
 10
384.0488260148
 20
-111.2626636508
  0
VERTEX
  8
0
 62
7
  6
CONTINUOUS
 10
384.0703143574
 20
-111.6452894196
  0
VERTEX
  8
0
 62
7
  6
CONTINUOUS
 10
384.0773529908
 20
-112.0266792245
  0
VERTEX
  8
0
 62
7
  6
CONTINUOUS
 10
384.0702690728
 20
-112.4079900954
  0
VERTEX
  8
0
 62
7
  6
CONTINUOUS
 10
384.0487346195
 20
-112.7905209714
  0
VERTEX
  8
0
 62
7
  6
CONTINUOUS
 10
384.0127448171
 20
-113.1759510018
  0
VERTEX
  8
0
 62
7
  6
CONTINUOUS
 10
383.9619825094
 20
-113.5642965861
  0
VERTEX
  8
0
 62
7
  6
CONTINUOUS
 10
383.896451365
 20
-113.9556869302
  0
VERTEX
  8
0
 62
7
  6
CONTINUOUS
 10
383.815570463
 20
-114.3514627633
  0
VERTEX
  8
0
 62
7
  6
CONTINUOUS
 10
383.7191427722
 20
-114.7528224001
  0
VERTEX
  8
0
 62
7
  6
CONTINUOUS
 10
383.6065543329
 20
-115.1603222899
  0
VERTEX
  8
0
 62
7
  6
CONTINUOUS
 10
383.4774279334
 20
-115.5751478055
  0
VERTEX
  8
0
 62
7
  6
CONTINUOUS
 10
383.3316311694
 20
-115.9966104923
  0
VERTEX
  8
0
 62
7
  6
CONTINUOUS
 10
383.168609594
 20
-116.4257800068
  0
VERTEX
  8
0
 62
7
  6
CONTINUOUS
 10
382.9902737249
 20
-116.8585673887
  0
VERTEX
  8
0
 62
7
  6
CONTINUOUS
 10
382.7975778802
 20
-117.2925652132
  0
VERTEX
  8
0
 62
7
  6
CONTINUOUS
 10
382.5935630072
 20
-117.723798531
  0
VERTEX
  8
0
 62
7
  6
CONTINUOUS
 10
382.3806232096
 20
-118.1483271069
  0
VERTEX
  8
0
 62
7
  6
CONTINUOUS
 10
382.1617227907
 20
-118.5636393738
  0
VERTEX
  8
0
 62
7
  6
CONTINUOUS
 10
381.9394494204
 20
-118.9666703128
  0
VERTEX
  8
0
 62
7
  6
CONTINUOUS
 10
381.7168659061
 20
-119.3551400444
  0
VERTEX
  8
0
 62
7
  6
CONTINUOUS
 10
381.4969879126
 20
-119.7257984887
  0
VERTEX
  8
0
 62
7
  6
CONTINUOUS
 10
381.2814346763
 20
-120.0784912285
  0
VERTEX
  8
0
 62
7
  6
CONTINUOUS
 10
381.0720050052
 20
-120.4122007737
  0
VERTEX
  8
0
 62
7
  6
CONTINUOUS
 10
380.8703567466
 20
-120.7262662634
  0
VERTEX
  8
0
 62
7
  6
CONTINUOUS
 10
380.6779222862
 20
-121.0198586837
  0
VERTEX
  8
0
 62
7
  6
CONTINUOUS
 10
380.4961419212
 20
-121.2924650036
  0
VERTEX
  8
0
 62
7
  6
CONTINUOUS
 10
380.3263099708
 20
-121.5431377665
  0
VERTEX
  8
0
 62
7
  6
CONTINUOUS
 10
380.168948788
 20
-121.772351235
  0
VERTEX
  8
0
 62
7
  6
CONTINUOUS
 10
380.0248013704
 20
-121.9798912748
  0
SEQEND
  0
POLYLINE
  8
0
 62
7
  6
CONTINUOUS
 66
1
 70
0
  0
VERTEX
  8
0
 62
7
  6
CONTINUOUS
 10
-11.4741988262
 20
-199.0723279436
  0
VERTEX
  8
0
 62
7
  6
CONTINUOUS
 10
-11.6183421429
 20
-199.2798667093
  0
VERTEX
  8
0
 62
7
  6
CONTINUOUS
 10
-11.7756945522
 20
-199.5090699654
  0
VERTEX
  8
0
 62
7
  6
CONTINUOUS
 10
-11.9455122479
 20
-199.7597257321
  0
VERTEX
  8
0
 62
7
  6
CONTINUOUS
 10
-12.1272730289
 20
-200.0323042629
  0
VERTEX
  8
0
 62
7
  6
CONTINUOUS
 10
-12.3196964955
 20
-200.32588566
  0
VERTEX
  8
0
 62
7
  6
CONTINUOUS
 10
-12.521364364
 20
-200.6399868043
  0
VERTEX
  8
0
 62
7
  6
CONTINUOUS
 10
-12.7308350889
 20
-200.9737676139
  0
VERTEX
  8
0
 62
7
  6
CONTINUOUS
 10
-12.9464416632
 20
-201.3265554441
  0
VERTEX
  8
0
 62
7
  6
CONTINUOUS
 10
-13.1663991669
 20
-201.6973648655
  0
VERTEX
  8
0
 62
7
  6
CONTINUOUS
 10
-13.3891159217
 20
-202.0860973356
  0
VERTEX
  8
0
 62
7
  6
CONTINUOUS
 10
-13.6115311443
 20
-202.4894195485
  0
VERTEX
  8
0
 62
7
  6
CONTINUOUS
 10
-13.8305454068
 20
-202.9050141002
  0
VERTEX
  8
0
 62
7
  6
CONTINUOUS
 10
-14.043545658
 20
-203.3297347416
  0
VERTEX
  8
0
 62
7
  6
CONTINUOUS
 10
-14.2474995023
 20
-203.7609223018
  0
VERTEX
  8
0
 62
7
  6
CONTINUOUS
 10
-14.4400909732
 20
-204.1947981423
  0
VERTEX
  8
0
 62
7
  6
CONTINUOUS
 10
-14.6183499097
 20
-204.6275017687
  0
VERTEX
  8
0
 62
7
  6
CONTINUOUS
 10
-14.781307422
 20
-205.0566195789
  0
VERTEX
  8
0
 62
7
  6
CONTINUOUS
 10
-14.927068574
 20
-205.4781101606
  0
VERTEX
  8
0
 62
7
  6
CONTINUOUS
 10
-15.0561690162
 20
-205.8929964493
  0
VERTEX
  8
0
 62
7
  6
CONTINUOUS
 10
-15.1687279709
 20
-206.300579134
  0
VERTEX
  8
0
 62
7
  6
CONTINUOUS
 10
-15.2651164715
 20
-206.7019835413
  0
VERTEX
  8
0
 62
7
  6
CONTINUOUS
 10
-15.3459289434
 20
-207.0976624695
  0
VERTEX
  8
0
 62
7
  6
CONTINUOUS
 10
-15.4113877266
 20
-207.4889341934
  0
VERTEX
  8
0
 62
7
  6
CONTINUOUS
 10
-15.4620979428
 20
-207.8772323645
  0
VERTEX
  8
0
 62
7
  6
CONTINUOUS
 10
-15.4980419309
 20
-208.2626636508
  0
VERTEX
  8
0
 62
7
  6
CONTINUOUS
 10
-15.5195302735
 20
-208.6452894196
  0
VERTEX
  8
0
 62
7
  6
CONTINUOUS
 10
-15.5265689069
 20
-209.0266792245
  0
VERTEX
  8
0
 62
7
  6
CONTINUOUS
 10
-15.5194849889
 20
-209.4079900954
  0
VERTEX
  8
0
 62
7
  6
CONTINUOUS
 10
-15.4979505356
 20
-209.7905209714
  0
VERTEX
  8
0
 62
7
  6
CONTINUOUS
 10
-15.4619607332
 20
-210.1759510018
  0
VERTEX
  8
0
 62
7
  6
CONTINUOUS
 10
-15.4111984255
 20
-210.5642965861
  0
VERTEX
  8
0
 62
7
  6
CONTINUOUS
 10
-15.3456672811
 20
-210.9556869302
  0
VERTEX
  8
0
 62
7
  6
CONTINUOUS
 10
-15.2647863791
 20
-211.3514627633
  0
VERTEX
  8
0
 62
7
  6
CONTINUOUS
 10
-15.1683586883
 20
-211.7528224001
  0
VERTEX
  8
0
 62
7
  6
CONTINUOUS
 10
-15.055770249
 20
-212.1603222899
  0
VERTEX
  8
0
 62
7
  6
CONTINUOUS
 10
-14.9266438495
 20
-212.5751478055
  0
VERTEX
  8
0
 62
7
  6
CONTINUOUS
 10
-14.7808470855
 20
-212.9966104923
  0
VERTEX
  8
0
 62
7
  6
CONTINUOUS
 10
-14.6178255101
 20
-213.4257800068
  0
VERTEX
  8
0
 62
7
  6
CONTINUOUS
 10
-14.439489641
 20
-213.8585673887
  0
VERTEX
  8
0
 62
7
  6
CONTINUOUS
 10
-14.2467937963
 20
-214.2925652132
  0
VERTEX
  8
0
 62
7
  6
CONTINUOUS
 10
-14.0427789233
 20
-214.723798531
  0
VERTEX
  8
0
 62
7
  6
CONTINUOUS
 10
-13.8298391257
 20
-215.1483271069
  0
VERTEX
  8
0
 62
7
  6
CONTINUOUS
 10
-13.6109387068
 20
-215.5636393738
  0
VERTEX
  8
0
 62
7
  6
CONTINUOUS
 10
-13.3886653365
 20
-215.9666703128
  0
VERTEX
  8
0
 62
7
  6
CONTINUOUS
 10
-13.1660818222
 20
-216.3551400444
  0
VERTEX
  8
0
 62
7
  6
CONTINUOUS
 10
-12.9462038287
 20
-216.7257984887
  0
VERTEX
  8
0
 62
7
  6
CONTINUOUS
 10
-12.7306505924
 20
-217.0784912285
  0
VERTEX
  8
0
 62
7
  6
CONTINUOUS
 10
-12.5212209213
 20
-217.4122007737
  0
VERTEX
  8
0
 62
7
  6
CONTINUOUS
 10
-12.3195726627
 20
-217.7262662634
  0
VERTEX
  8
0
 62
7
  6
CONTINUOUS
 10
-12.1271382023
 20
-218.0198586837
  0
VERTEX
  8
0
 62
7
  6
CONTINUOUS
 10
-11.9453578373
 20
-218.2924650036
  0
VERTEX
  8
0
 62
7
  6
CONTINUOUS
 10
-11.7755258869
 20
-218.5431377665
  0
VERTEX
  8
0
 62
7
  6
CONTINUOUS
 10
-11.6181647041
 20
-218.772351235
  0
VERTEX
  8
0
 62
7
  6
CONTINUOUS
 10
-11.4740172865
 20
-218.9798912748
  0
VERTEX
  8
0
 62
7
  6
CONTINUOUS
 10
-11.2243076652
 20
-219.3342011683
  0
SEQEND
  0
LINE
  8
0
 62
7
  6
CONTINUOUS
 10
-11.224437046
 20
-198.7179452112
 11
-11.4741988262
 21
-199.0723279436
  0
LINE
  8
0
 62
7
  6
CONTINUOUS
 10
-11.0256540218
 20
-198.4401700884
 11
-11.224437046
 21
-198.7179452112
  0
LINE
  8
0
 62
7
  6
CONTINUOUS
 10
-10.8224342998
 20
-198.1597586003
 11
-11.0256540218
 21
-198.4401700884
  0
LINE
  8
0
 62
7
  6
CONTINUOUS
 10
-10.7306843899
 20
-198.0341886863
 11
-10.8224342998
 21
-198.1597586003
  0
LINE
  8
0
 62
7
  6
CONTINUOUS
 10
-10.724607958
 20
-198.0259805629
 11
-10.7306843899
 21
-198.0341886863
  0
LINE
  8
0
 62
7
  6
CONTINUOUS
 10
-10.7306834372
 20
501.9822272604
 11
-10.724607958
 21
501.9740194371
  0
LINE
  8
0
 62
7
  6
CONTINUOUS
 10
-10.8776000459
 20
502.1835308692
 11
-10.7306834372
 21
501.9822272604
  0
LINE
  8
0
 62
7
  6
CONTINUOUS
 10
-11.0255862826
 20
502.3881157509
 11
-10.8776000459
 21
502.1835308692
  0
LINE
  8
0
 62
7
  6
CONTINUOUS
 10
-11.2243076652
 20
502.6657988317
 11
-11.0255862826
 21
502.3881157509
  0
LINE
  8
0
 62
7
  6
CONTINUOUS
 10
-10.724607958
 20
237.9740194371
 11
379.275392042
 21
237.9740194371
  0
LINE
  8
0
 62
7
  6
CONTINUOUS
 10
380.0248013704
 20
239.0201087252
 11
379.7750917491
 21
238.6657988317
  0
LINE
  8
0
 62
7
  6
CONTINUOUS
 10
379.7750917491
 20
238.6657988317
 11
379.5763703665
 21
238.3881157509
  0
LINE
  8
0
 62
7
  6
CONTINUOUS
 10
379.5763703665
 20
238.3881157509
 11
379.3731916382
 21
238.1077607952
  0
LINE
  8
0
 62
7
  6
CONTINUOUS
 10
379.3731916382
 20
238.1077607952
 11
379.2814675211
 21
237.9822272604
  0
LINE
  8
0
 62
7
  6
CONTINUOUS
 10
379.2814675211
 20
237.9822272604
 11
379.275392042
 21
237.9740194371
  0
LINE
  8
0
 62
7
  6
CONTINUOUS
 10
379.275392042
 20
259.9740194371
 11
-10.724607958
 21
259.9740194371
  0
LINE
  8
0
 62
7
  6
CONTINUOUS
 10
379.275392042
 20
65.9740194371
 11
379.2814684738
 21
65.9658113137
  0
LINE
  8
0
 62
7
  6
CONTINUOUS
 10
379.2814684738
 20
65.9658113137
 11
379.428423162
 21
65.7644550178
  0
LINE
  8
0
 62
7
  6
CONTINUOUS
 10
379.428423162
 20
65.7644550178
 11
379.5764381057
 21
65.5598299116
  0
LINE
  8
0
 62
7
  6
CONTINUOUS
 10
379.5764381057
 20
65.5598299116
 11
379.7752211299
 21
65.2820547888
  0
POLYLINE
  8
0
 62
7
  6
CONTINUOUS
 66
1
 70
0
  0
VERTEX
  8
0
 62
7
  6
CONTINUOUS
 10
379.7752211299
 20
65.2820547888
  0
VERTEX
  8
0
 62
7
  6
CONTINUOUS
 10
380.0249829101
 20
64.9276720564
  0
VERTEX
  8
0
 62
7
  6
CONTINUOUS
 10
380.1691262268
 20
64.7201332907
  0
VERTEX
  8
0
 62
7
  6
CONTINUOUS
 10
380.3264786361
 20
64.4909300346
  0
VERTEX
  8
0
 62
7
  6
CONTINUOUS
 10
380.4962963318
 20
64.2402742679
  0
VERTEX
  8
0
 62
7
  6
CONTINUOUS
 10
380.6780571129
 20
63.9676957371
  0
VERTEX
  8
0
 62
7
  6
CONTINUOUS
 10
380.8704805794
 20
63.67411434
  0
VERTEX
  8
0
 62
7
  6
CONTINUOUS
 10
381.0721484479
 20
63.3600131957
  0
VERTEX
  8
0
 62
7
  6
CONTINUOUS
 10
381.2816191728
 20
63.0262323861
  0
VERTEX
  8
0
 62
7
  6
CONTINUOUS
 10
381.4972257471
 20
62.6734445559
  0
VERTEX
  8
0
 62
7
  6
CONTINUOUS
 10
381.7171832508
 20
62.3026351345
  0
VERTEX
  8
0
 62
7
  6
CONTINUOUS
 10
381.9399000056
 20
61.9139026644
  0
VERTEX
  8
0
 62
7
  6
CONTINUOUS
 10
382.1623152282
 20
61.5105804515
  0
VERTEX
  8
0
 62
7
  6
CONTINUOUS
 10
382.3813294908
 20
61.0949858998
  0
VERTEX
  8
0
 62
7
  6
CONTINUOUS
 10
382.5943297419
 20
60.6702652584
  0
VERTEX
  8
0
 62
7
  6
CONTINUOUS
 10
382.7982835862
 20
60.2390776982
  0
VERTEX
  8
0
 62
7
  6
CONTINUOUS
 10
382.9908750571
 20
59.8052018577
  0
VERTEX
  8
0
 62
7
  6
CONTINUOUS
 10
383.1691339936
 20
59.3724982313
  0
VERTEX
  8
0
 62
7
  6
CONTINUOUS
 10
383.3320915059
 20
58.9433804211
  0
VERTEX
  8
0
 62
7
  6
CONTINUOUS
 10
383.4778526579
 20
58.5218898394
  0
VERTEX
  8
0
 62
7
  6
CONTINUOUS
 10
383.6069531001
 20
58.1070035507
  0
VERTEX
  8
0
 62
7
  6
CONTINUOUS
 10
383.7195120548
 20
57.699420866
  0
VERTEX
  8
0
 62
7
  6
CONTINUOUS
 10
383.8159005554
 20
57.2980164587
  0
VERTEX
  8
0
 62
7
  6
CONTINUOUS
 10
383.8967130273
 20
56.9023375305
  0
VERTEX
  8
0
 62
7
  6
CONTINUOUS
 10
383.9621718105
 20
56.5110658066
  0
VERTEX
  8
0
 62
7
  6
CONTINUOUS
 10
384.0128820267
 20
56.1227676355
  0
VERTEX
  8
0
 62
7
  6
CONTINUOUS
 10
384.0488260148
 20
55.7373363492
  0
VERTEX
  8
0
 62
7
  6
CONTINUOUS
 10
384.0703143574
 20
55.3547105804
  0
VERTEX
  8
0
 62
7
  6
CONTINUOUS
 10
384.0773529908
 20
54.9733207755
  0
VERTEX
  8
0
 62
7
  6
CONTINUOUS
 10
384.0702690728
 20
54.5920099046
  0
VERTEX
  8
0
 62
7
  6
CONTINUOUS
 10
384.0487346195
 20
54.2094790286
  0
VERTEX
  8
0
 62
7
  6
CONTINUOUS
 10
384.0127448171
 20
53.8240489982
  0
VERTEX
  8
0
 62
7
  6
CONTINUOUS
 10
383.9619825094
 20
53.4357034139
  0
VERTEX
  8
0
 62
7
  6
CONTINUOUS
 10
383.896451365
 20
53.0443130698
  0
VERTEX
  8
0
 62
7
  6
CONTINUOUS
 10
383.815570463
 20
52.6485372367
  0
VERTEX
  8
0
 62
7
  6
CONTINUOUS
 10
383.7191427722
 20
52.2471775999
  0
VERTEX
  8
0
 62
7
  6
CONTINUOUS
 10
383.6065543329
 20
51.8396777101
  0
VERTEX
  8
0
 62
7
  6
CONTINUOUS
 10
383.4774279334
 20
51.4248521945
  0
VERTEX
  8
0
 62
7
  6
CONTINUOUS
 10
383.3316311694
 20
51.0033895077
  0
VERTEX
  8
0
 62
7
  6
CONTINUOUS
 10
383.168609594
 20
50.5742199932
  0
VERTEX
  8
0
 62
7
  6
CONTINUOUS
 10
382.9902737249
 20
50.1414326113
  0
VERTEX
  8
0
 62
7
  6
CONTINUOUS
 10
382.7975778802
 20
49.7074347868
  0
VERTEX
  8
0
 62
7
  6
CONTINUOUS
 10
382.5935630072
 20
49.276201469
  0
VERTEX
  8
0
 62
7
  6
CONTINUOUS
 10
382.3806232096
 20
48.8516728931
  0
VERTEX
  8
0
 62
7
  6
CONTINUOUS
 10
382.1617227907
 20
48.4363606262
  0
VERTEX
  8
0
 62
7
  6
CONTINUOUS
 10
381.9394494204
 20
48.0333296872
  0
VERTEX
  8
0
 62
7
  6
CONTINUOUS
 10
381.7168659061
 20
47.6448599556
  0
VERTEX
  8
0
 62
7
  6
CONTINUOUS
 10
381.4969879126
 20
47.2742015113
  0
VERTEX
  8
0
 62
7
  6
CONTINUOUS
 10
381.2814346763
 20
46.9215087715
  0
VERTEX
  8
0
 62
7
  6
CONTINUOUS
 10
381.0720050052
 20
46.5877992263
  0
VERTEX
  8
0
 62
7
  6
CONTINUOUS
 10
380.8703567466
 20
46.2737337366
  0
VERTEX
  8
0
 62
7
  6
CONTINUOUS
 10
380.6779222862
 20
45.9801413163
  0
VERTEX
  8
0
 62
7
  6
CONTINUOUS
 10
380.4961419212
 20
45.7075349964
  0
VERTEX
  8
0
 62
7
  6
CONTINUOUS
 10
380.3263099708
 20
45.4568622335
  0
VERTEX
  8
0
 62
7
  6
CONTINUOUS
 10
380.168948788
 20
45.227648765
  0
VERTEX
  8
0
 62
7
  6
CONTINUOUS
 10
380.0248013704
 20
45.0201087252
  0
SEQEND
  0
LINE
  8
0
 62
7
  6
CONTINUOUS
 10
380.0248487389
 20
142.0201764305
 11
379.7751236455
 21
141.6658436419
  0
LINE
  8
0
 62
7
  6
CONTINUOUS
 10
379.7751236455
 20
141.6658436419
 11
379.5763898002
 21
141.3881427473
  0
LINE
  8
0
 62
7
  6
CONTINUOUS
 10
379.5763898002
 20
141.3881427473
 11
379.373197763
 21
141.1077691949
  0
LINE
  8
0
 62
7
  6
CONTINUOUS
 10
379.373197763
 20
141.1077691949
 11
379.2814678734
 21
140.9822276958
  0
LINE
  8
0
 62
7
  6
CONTINUOUS
 10
379.2814678734
 20
140.9822276958
 11
379.275392042
 21
140.9740194371
  0
LINE
  8
0
 62
7
  6
CONTINUOUS
 10
379.275392042
 20
162.9740194371
 11
379.2814688268
 21
162.9658108759
  0
LINE
  8
0
 62
7
  6
CONTINUOUS
 10
379.2814688268
 20
162.9658108759
 11
379.4284328826
 21
162.7644416347
  0
LINE
  8
0
 62
7
  6
CONTINUOUS
 10
379.4284328826
 20
162.7644416347
 11
379.5764575199
 21
162.5598029417
  0
LINE
  8
0
 62
7
  6
CONTINUOUS
 10
379.5764575199
 20
162.5598029417
 11
379.7752530482
 21
162.2820099428
  0
POLYLINE
  8
0
 62
7
  6
CONTINUOUS
 66
1
 70
0
  0
VERTEX
  8
0
 62
7
  6
CONTINUOUS
 10
379.7752530482
 20
162.2820099428
  0
VERTEX
  8
0
 62
7
  6
CONTINUOUS
 10
380.0250303008
 20
161.9276043206
  0
VERTEX
  8
0
 62
7
  6
CONTINUOUS
 10
380.1691833558
 20
161.7200506035
  0
VERTEX
  8
0
 62
7
  6
CONTINUOUS
 10
380.3265485617
 20
161.4908273563
  0
VERTEX
  8
0
 62
7
  6
CONTINUOUS
 10
380.4963805851
 20
161.2401489812
  0
VERTEX
  8
0
 62
7
  6
CONTINUOUS
 10
380.6781561017
 20
160.9675458281
  0
VERTEX
  8
0
 62
7
  6
CONTINUOUS
 10
380.8705930643
 20
160.6739410248
  0
VERTEX
  8
0
 62
7
  6
CONTINUOUS
 10
381.0722708684
 20
160.3598202747
  0
VERTEX
  8
0
 62
7
  6
CONTINUOUS
 10
381.2817469442
 20
160.0260262011
  0
VERTEX
  8
0
 62
7
  6
CONTINUOUS
 10
381.4973510191
 20
159.6732371258
  0
VERTEX
  8
0
 62
7
  6
CONTINUOUS
 10
381.7173019941
 20
159.302431656
  0
VERTEX
  8
0
 62
7
  6
CONTINUOUS
 10
381.9400100171
 20
158.9137083009
  0
VERTEX
  8
0
 62
7
  6
CONTINUOUS
 10
382.1624203334
 20
158.5103856762
  0
VERTEX
  8
0
 62
7
  6
CONTINUOUS
 10
382.3814420318
 20
158.0947677929
  0
VERTEX
  8
0
 62
7
  6
CONTINUOUS
 10
382.5944605679
 20
157.669996974
  0
VERTEX
  8
0
 62
7
  6
CONTINUOUS
 10
382.7984602333
 20
157.238681932
  0
VERTEX
  8
0
 62
7
  6
CONTINUOUS
 10
382.9910781289
 20
156.8047275102
  0
VERTEX
  8
0
 62
7
  6
CONTINUOUS
 10
383.1692873074
 20
156.372109766
  0
VERTEX
  8
0
 62
7
  6
CONTINUOUS
 10
383.332148326
 20
155.9432237688
  0
VERTEX
  8
0
 62
7
  6
CONTINUOUS
 10
383.4777422246
 20
155.5222757506
  0
VERTEX
  8
0
 62
7
  6
CONTINUOUS
 10
383.6067167485
 20
155.1078082807
  0
VERTEX
  8
0
 62
7
  6
CONTINUOUS
 10
383.7193203664
 20
154.7002134158
  0
VERTEX
  8
0
 62
7
  6
CONTINUOUS
 10
383.8158711218
 20
154.2981489257
  0
VERTEX
  8
0
 62
7
  6
CONTINUOUS
 10
383.8970205777
 20
153.9004890935
  0
VERTEX
  8
0
 62
7
  6
CONTINUOUS
 10
383.9627804833
 20
153.506976436
  0
VERTEX
  8
0
 62
7
  6
CONTINUOUS
 10
384.013512883
 20
153.1166090602
  0
VERTEX
  8
0
 62
7
  6
CONTINUOUS
 10
384.04933442
 20
152.7304944786
  0
VERTEX
  8
0
 62
7
  6
CONTINUOUS
 10
384.0705294191
 20
152.350687691
  0
VERTEX
  8
0
 62
7
  6
CONTINUOUS
 10
384.0773529924
 20
151.9733443426
  0
VERTEX
  8
0
 62
7
  6
CONTINUOUS
 10
384.0704934826
 20
151.5961659483
  0
VERTEX
  8
0
 62
7
  6
CONTINUOUS
 10
384.0492622851
 20
151.2165698988
  0
VERTEX
  8
0
 62
7
  6
CONTINUOUS
 10
384.0134089165
 20
150.8304972324
  0
VERTEX
  8
0
 62
7
  6
CONTINUOUS
 10
383.9626341793
 20
150.4400785213
  0
VERTEX
  8
0
 62
7
  6
CONTINUOUS
 10
383.8967990659
 20
150.0463829853
  0
VERTEX
  8
0
 62
7
  6
CONTINUOUS
 10
383.8155701257
 20
149.6485357196
  0
VERTEX
  8
0
 62
7
  6
CONTINUOUS
 10
383.7189587223
 20
149.24642013
  0
VERTEX
  8
0
 62
7
  6
CONTINUOUS
 10
383.606305406
 20
148.838830504
  0
VERTEX
  8
0
 62
7
  6
CONTINUOUS
 10
383.4772983354
 20
148.4244058522
  0
VERTEX
  8
0
 62
7
  6
CONTINUOUS
 10
383.3316695929
 20
148.0034954109
  0
VERTEX
  8
0
 62
7
  6
CONTINUOUS
 10
383.1687528178
 20
147.5745809472
  0
VERTEX
  8
0
 62
7
  6
CONTINUOUS
 10
382.9904755262
 20
147.1419038789
  0
VERTEX
  8
0
 62
7
  6
CONTINUOUS
 10
382.79775458
 20
146.7078312533
  0
VERTEX
  8
0
 62
7
  6
CONTINUOUS
 10
382.5936929808
 20
146.2764679493
  0
VERTEX
  8
0
 62
7
  6
CONTINUOUS
 10
382.3807341378
 20
145.8518879359
  0
VERTEX
  8
0
 62
7
  6
CONTINUOUS
 10
382.1618255275
 20
145.4365509897
  0
VERTEX
  8
0
 62
7
  6
CONTINUOUS
 10
381.9395569452
 20
145.033519605
  0
VERTEX
  8
0
 62
7
  6
CONTINUOUS
 10
381.7169824162
 20
144.6450595977
  0
VERTEX
  8
0
 62
7
  6
CONTINUOUS
 10
381.4971116324
 20
144.2744063182
  0
VERTEX
  8
0
 62
7
  6
CONTINUOUS
 10
381.2815616449
 20
143.9217136563
  0
VERTEX
  8
0
 62
7
  6
CONTINUOUS
 10
381.0721271623
 20
143.5879917226
  0
VERTEX
  8
0
 62
7
  6
CONTINUOUS
 10
380.8704693321
 20
143.2739072046
  0
VERTEX
  8
0
 62
7
  6
CONTINUOUS
 10
380.6780214929
 20
142.9802915624
  0
VERTEX
  8
0
 62
7
  6
CONTINUOUS
 10
380.4962263823
 20
142.7076605903
  0
VERTEX
  8
0
 62
7
  6
CONTINUOUS
 10
380.3263800239
 20
142.4569651057
  0
VERTEX
  8
0
 62
7
  6
CONTINUOUS
 10
380.1690059503
 20
142.2277314993
  0
VERTEX
  8
0
 62
7
  6
CONTINUOUS
 10
380.0248487389
 20
142.0201764305
  0
SEQEND
  0
LINE
  8
0
 62
7
  6
CONTINUOUS
 10
379.275392042
 20
564.4740194371
 11
379.275392042
 21
523.9740194371
  0
LINE
  8
0
 62
7
  6
CONTINUOUS
 10
379.275392042
 20
501.9740194371
 11
379.275392042
 21
426.9740194371
  0
LINE
  8
0
 62
7
  6
CONTINUOUS
 10
379.275392042
 20
404.9740194371
 11
379.275392042
 21
259.9740194371
  0
LINE
  8
0
 62
7
  6
CONTINUOUS
 10
379.275392042
 20
237.9740194371
 11
379.275392042
 21
162.9740194371
  0
LINE
  8
0
 62
7
  6
CONTINUOUS
 10
379.275392042
 20
140.9740194371
 11
379.275392042
 21
65.9740194371
  0
LINE
  8
0
 62
7
  6
CONTINUOUS
 10
379.275392042
 20
43.9740194371
 11
379.275392042
 21
-101.0259805629
  0
LINE
  8
0
 62
7
  6
CONTINUOUS
 10
379.275392042
 20
-123.0259805629
 11
379.275392042
 21
-198.0259805629
  0
LINE
  8
0
 62
7
  6
CONTINUOUS
 10
379.275392042
 20
-220.0259805629
 11
379.275392042
 21
-260.5259805629
  0
LINE
  8
0
 62
7
  6
CONTINUOUS
 10
380.0248013704
 20
45.0201087252
 11
379.7750917491
 21
44.6657988317
  0
LINE
  8
0
 62
7
  6
CONTINUOUS
 10
379.7750917491
 20
44.6657988317
 11
379.5763703665
 21
44.3881157509
  0
LINE
  8
0
 62
7
  6
CONTINUOUS
 10
379.5763703665
 20
44.3881157509
 11
379.3731916382
 21
44.1077607952
  0
LINE
  8
0
 62
7
  6
CONTINUOUS
 10
379.3731916382
 20
44.1077607952
 11
379.2814675211
 21
43.9822272604
  0
LINE
  8
0
 62
7
  6
CONTINUOUS
 10
379.2814675211
 20
43.9822272604
 11
379.275392042
 21
43.9740194371
  0
LINE
  8
0
 62
7
  6
CONTINUOUS
 10
379.275392042
 20
259.9740194371
 11
379.2814684738
 21
259.9658113137
  0
LINE
  8
0
 62
7
  6
CONTINUOUS
 10
379.2814684738
 20
259.9658113137
 11
379.428423162
 21
259.7644550178
  0
LINE
  8
0
 62
7
  6
CONTINUOUS
 10
379.428423162
 20
259.7644550178
 11
379.5764381057
 21
259.5598299116
  0
LINE
  8
0
 62
7
  6
CONTINUOUS
 10
379.5764381057
 20
259.5598299116
 11
379.7752211299
 21
259.2820547888
  0
POLYLINE
  8
0
 62
7
  6
CONTINUOUS
 66
1
 70
0
  0
VERTEX
  8
0
 62
7
  6
CONTINUOUS
 10
379.7752211299
 20
259.2820547888
  0
VERTEX
  8
0
 62
7
  6
CONTINUOUS
 10
380.0249829101
 20
258.9276720564
  0
VERTEX
  8
0
 62
7
  6
CONTINUOUS
 10
380.1691262268
 20
258.7201332907
  0
VERTEX
  8
0
 62
7
  6
CONTINUOUS
 10
380.3264786361
 20
258.4909300346
  0
VERTEX
  8
0
 62
7
  6
CONTINUOUS
 10
380.4962963318
 20
258.2402742679
  0
VERTEX
  8
0
 62
7
  6
CONTINUOUS
 10
380.6780571129
 20
257.9676957371
  0
VERTEX
  8
0
 62
7
  6
CONTINUOUS
 10
380.8704805794
 20
257.67411434
  0
VERTEX
  8
0
 62
7
  6
CONTINUOUS
 10
381.0721484479
 20
257.3600131957
  0
VERTEX
  8
0
 62
7
  6
CONTINUOUS
 10
381.2816191728
 20
257.0262323861
  0
VERTEX
  8
0
 62
7
  6
CONTINUOUS
 10
381.4972257471
 20
256.6734445559
  0
VERTEX
  8
0
 62
7
  6
CONTINUOUS
 10
381.7171832508
 20
256.3026351345
  0
VERTEX
  8
0
 62
7
  6
CONTINUOUS
 10
381.9399000056
 20
255.9139026644
  0
VERTEX
  8
0
 62
7
  6
CONTINUOUS
 10
382.1623152282
 20
255.5105804515
  0
VERTEX
  8
0
 62
7
  6
CONTINUOUS
 10
382.3813294908
 20
255.0949858998
  0
VERTEX
  8
0
 62
7
  6
CONTINUOUS
 10
382.5943297419
 20
254.6702652584
  0
VERTEX
  8
0
 62
7
  6
CONTINUOUS
 10
382.7982835862
 20
254.2390776982
  0
VERTEX
  8
0
 62
7
  6
CONTINUOUS
 10
382.9908750571
 20
253.8052018577
  0
VERTEX
  8
0
 62
7
  6
CONTINUOUS
 10
383.1691339936
 20
253.3724982313
  0
VERTEX
  8
0
 62
7
  6
CONTINUOUS
 10
383.3320915059
 20
252.9433804211
  0
VERTEX
  8
0
 62
7
  6
CONTINUOUS
 10
383.4778526579
 20
252.5218898394
  0
VERTEX
  8
0
 62
7
  6
CONTINUOUS
 10
383.6069531001
 20
252.1070035507
  0
VERTEX
  8
0
 62
7
  6
CONTINUOUS
 10
383.7195120548
 20
251.699420866
  0
VERTEX
  8
0
 62
7
  6
CONTINUOUS
 10
383.8159005554
 20
251.2980164587
  0
VERTEX
  8
0
 62
7
  6
CONTINUOUS
 10
383.8967130273
 20
250.9023375305
  0
VERTEX
  8
0
 62
7
  6
CONTINUOUS
 10
383.9621718105
 20
250.5110658066
  0
VERTEX
  8
0
 62
7
  6
CONTINUOUS
 10
384.0128820267
 20
250.1227676355
  0
VERTEX
  8
0
 62
7
  6
CONTINUOUS
 10
384.0488260148
 20
249.7373363492
  0
VERTEX
  8
0
 62
7
  6
CONTINUOUS
 10
384.0703143574
 20
249.3547105804
  0
VERTEX
  8
0
 62
7
  6
CONTINUOUS
 10
384.0773529908
 20
248.9733207755
  0
VERTEX
  8
0
 62
7
  6
CONTINUOUS
 10
384.0702690728
 20
248.5920099046
  0
VERTEX
  8
0
 62
7
  6
CONTINUOUS
 10
384.0487346195
 20
248.2094790286
  0
VERTEX
  8
0
 62
7
  6
CONTINUOUS
 10
384.0127448171
 20
247.8240489982
  0
VERTEX
  8
0
 62
7
  6
CONTINUOUS
 10
383.9619825094
 20
247.4357034139
  0
VERTEX
  8
0
 62
7
  6
CONTINUOUS
 10
383.896451365
 20
247.0443130698
  0
VERTEX
  8
0
 62
7
  6
CONTINUOUS
 10
383.815570463
 20
246.6485372367
  0
VERTEX
  8
0
 62
7
  6
CONTINUOUS
 10
383.7191427722
 20
246.2471775999
  0
VERTEX
  8
0
 62
7
  6
CONTINUOUS
 10
383.6065543329
 20
245.8396777101
  0
VERTEX
  8
0
 62
7
  6
CONTINUOUS
 10
383.4774279334
 20
245.4248521945
  0
VERTEX
  8
0
 62
7
  6
CONTINUOUS
 10
383.3316311694
 20
245.0033895077
  0
VERTEX
  8
0
 62
7
  6
CONTINUOUS
 10
383.168609594
 20
244.5742199932
  0
VERTEX
  8
0
 62
7
  6
CONTINUOUS
 10
382.9902737249
 20
244.1414326113
  0
VERTEX
  8
0
 62
7
  6
CONTINUOUS
 10
382.7975778802
 20
243.7074347868
  0
VERTEX
  8
0
 62
7
  6
CONTINUOUS
 10
382.5935630072
 20
243.276201469
  0
VERTEX
  8
0
 62
7
  6
CONTINUOUS
 10
382.3806232096
 20
242.8516728931
  0
VERTEX
  8
0
 62
7
  6
CONTINUOUS
 10
382.1617227907
 20
242.4363606262
  0
VERTEX
  8
0
 62
7
  6
CONTINUOUS
 10
381.9394494204
 20
242.0333296872
  0
VERTEX
  8
0
 62
7
  6
CONTINUOUS
 10
381.7168659061
 20
241.6448599556
  0
VERTEX
  8
0
 62
7
  6
CONTINUOUS
 10
381.4969879126
 20
241.2742015113
  0
VERTEX
  8
0
 62
7
  6
CONTINUOUS
 10
381.2814346763
 20
240.9215087715
  0
VERTEX
  8
0
 62
7
  6
CONTINUOUS
 10
381.0720050052
 20
240.5877992263
  0
VERTEX
  8
0
 62
7
  6
CONTINUOUS
 10
380.8703567466
 20
240.2737337366
  0
VERTEX
  8
0
 62
7
  6
CONTINUOUS
 10
380.6779222862
 20
239.9801413163
  0
VERTEX
  8
0
 62
7
  6
CONTINUOUS
 10
380.4961419212
 20
239.7075349964
  0
VERTEX
  8
0
 62
7
  6
CONTINUOUS
 10
380.3263099708
 20
239.4568622335
  0
VERTEX
  8
0
 62
7
  6
CONTINUOUS
 10
380.168948788
 20
239.227648765
  0
VERTEX
  8
0
 62
7
  6
CONTINUOUS
 10
380.0248013704
 20
239.0201087252
  0
SEQEND
  0
LINE
  8
0
 62
7
  6
CONTINUOUS
 10
409.275392042
 20
564.4740194371
 11
409.275392042
 21
-260.5259805629
  0
LINE
  8
0
 62
7
  6
CONTINUOUS
 10
-10.724607958
 20
404.9740194371
 11
379.275392042
 21
404.9740194371
  0
LINE
  8
0
 62
7
  6
CONTINUOUS
 10
379.275392042
 20
426.9740194371
 11
-10.724607958
 21
426.9740194371
  0
LINE
  8
0
 62
7
  6
CONTINUOUS
 10
380.0248013704
 20
-121.9798912748
 11
379.7750917491
 21
-122.3342011683
  0
LINE
  8
0
 62
7
  6
CONTINUOUS
 10
379.7750917491
 20
-122.3342011683
 11
379.5763703665
 21
-122.6118842491
  0
LINE
  8
0
 62
7
  6
CONTINUOUS
 10
379.5763703665
 20
-122.6118842491
 11
379.3731916382
 21
-122.8922392048
  0
LINE
  8
0
 62
7
  6
CONTINUOUS
 10
379.3731916382
 20
-122.8922392048
 11
379.2814675211
 21
-123.0177727396
  0
LINE
  8
0
 62
7
  6
CONTINUOUS
 10
379.2814675211
 20
-123.0177727396
 11
379.275392042
 21
-123.0259805629
  0
LINE
  8
0
 62
7
  6
CONTINUOUS
 10
379.275392042
 20
426.9740194371
 11
379.2814684738
 21
426.9658113137
  0
LINE
  8
0
 62
7
  6
CONTINUOUS
 10
379.2814684738
 20
426.9658113137
 11
379.428423162
 21
426.7644550178
  0
LINE
  8
0
 62
7
  6
CONTINUOUS
 10
379.428423162
 20
426.7644550178
 11
379.5764381057
 21
426.5598299116
  0
LINE
  8
0
 62
7
  6
CONTINUOUS
 10
379.5764381057
 20
426.5598299116
 11
379.7752211299
 21
426.2820547888
  0
POLYLINE
  8
0
 62
7
  6
CONTINUOUS
 66
1
 70
0
  0
VERTEX
  8
0
 62
7
  6
CONTINUOUS
 10
379.7752211299
 20
426.2820547888
  0
VERTEX
  8
0
 62
7
  6
CONTINUOUS
 10
380.0249829101
 20
425.9276720564
  0
VERTEX
  8
0
 62
7
  6
CONTINUOUS
 10
380.1691262268
 20
425.7201332907
  0
VERTEX
  8
0
 62
7
  6
CONTINUOUS
 10
380.3264786361
 20
425.4909300346
  0
VERTEX
  8
0
 62
7
  6
CONTINUOUS
 10
380.4962963318
 20
425.2402742679
  0
VERTEX
  8
0
 62
7
  6
CONTINUOUS
 10
380.6780571129
 20
424.9676957371
  0
VERTEX
  8
0
 62
7
  6
CONTINUOUS
 10
380.8704805794
 20
424.67411434
  0
VERTEX
  8
0
 62
7
  6
CONTINUOUS
 10
381.0721484479
 20
424.3600131957
  0
VERTEX
  8
0
 62
7
  6
CONTINUOUS
 10
381.2816191728
 20
424.0262323861
  0
VERTEX
  8
0
 62
7
  6
CONTINUOUS
 10
381.4972257471
 20
423.6734445559
  0
VERTEX
  8
0
 62
7
  6
CONTINUOUS
 10
381.7171832508
 20
423.3026351345
  0
VERTEX
  8
0
 62
7
  6
CONTINUOUS
 10
381.9399000056
 20
422.9139026644
  0
VERTEX
  8
0
 62
7
  6
CONTINUOUS
 10
382.1623152282
 20
422.5105804515
  0
VERTEX
  8
0
 62
7
  6
CONTINUOUS
 10
382.3813294908
 20
422.0949858998
  0
VERTEX
  8
0
 62
7
  6
CONTINUOUS
 10
382.5943297419
 20
421.6702652584
  0
VERTEX
  8
0
 62
7
  6
CONTINUOUS
 10
382.7982835862
 20
421.2390776982
  0
VERTEX
  8
0
 62
7
  6
CONTINUOUS
 10
382.9908750571
 20
420.8052018577
  0
VERTEX
  8
0
 62
7
  6
CONTINUOUS
 10
383.1691339936
 20
420.3724982313
  0
VERTEX
  8
0
 62
7
  6
CONTINUOUS
 10
383.3320915059
 20
419.9433804211
  0
VERTEX
  8
0
 62
7
  6
CONTINUOUS
 10
383.4778526579
 20
419.5218898394
  0
VERTEX
  8
0
 62
7
  6
CONTINUOUS
 10
383.6069531001
 20
419.1070035507
  0
VERTEX
  8
0
 62
7
  6
CONTINUOUS
 10
383.7195120548
 20
418.699420866
  0
VERTEX
  8
0
 62
7
  6
CONTINUOUS
 10
383.8159005554
 20
418.2980164587
  0
VERTEX
  8
0
 62
7
  6
CONTINUOUS
 10
383.8967130273
 20
417.9023375305
  0
VERTEX
  8
0
 62
7
  6
CONTINUOUS
 10
383.9621718105
 20
417.5110658066
  0
VERTEX
  8
0
 62
7
  6
CONTINUOUS
 10
384.0128820267
 20
417.1227676355
  0
VERTEX
  8
0
 62
7
  6
CONTINUOUS
 10
384.0488260148
 20
416.7373363492
  0
VERTEX
  8
0
 62
7
  6
CONTINUOUS
 10
384.0703143574
 20
416.3547105804
  0
VERTEX
  8
0
 62
7
  6
CONTINUOUS
 10
384.0773529908
 20
415.9733207755
  0
VERTEX
  8
0
 62
7
  6
CONTINUOUS
 10
384.0702690728
 20
415.5920099046
  0
VERTEX
  8
0
 62
7
  6
CONTINUOUS
 10
384.0487346195
 20
415.2094790286
  0
VERTEX
  8
0
 62
7
  6
CONTINUOUS
 10
384.0127448171
 20
414.8240489982
  0
VERTEX
  8
0
 62
7
  6
CONTINUOUS
 10
383.9619825094
 20
414.4357034139
  0
VERTEX
  8
0
 62
7
  6
CONTINUOUS
 10
383.896451365
 20
414.0443130698
  0
VERTEX
  8
0
 62
7
  6
CONTINUOUS
 10
383.815570463
 20
413.6485372367
  0
VERTEX
  8
0
 62
7
  6
CONTINUOUS
 10
383.7191427722
 20
413.2471775999
  0
VERTEX
  8
0
 62
7
  6
CONTINUOUS
 10
383.6065543329
 20
412.8396777101
  0
VERTEX
  8
0
 62
7
  6
CONTINUOUS
 10
383.4774279334
 20
412.4248521945
  0
VERTEX
  8
0
 62
7
  6
CONTINUOUS
 10
383.3316311694
 20
412.0033895077
  0
VERTEX
  8
0
 62
7
  6
CONTINUOUS
 10
383.168609594
 20
411.5742199932
  0
VERTEX
  8
0
 62
7
  6
CONTINUOUS
 10
382.9902737249
 20
411.1414326113
  0
VERTEX
  8
0
 62
7
  6
CONTINUOUS
 10
382.7975778802
 20
410.7074347868
  0
VERTEX
  8
0
 62
7
  6
CONTINUOUS
 10
382.5935630072
 20
410.276201469
  0
VERTEX
  8
0
 62
7
  6
CONTINUOUS
 10
382.3806232096
 20
409.8516728931
  0
VERTEX
  8
0
 62
7
  6
CONTINUOUS
 10
382.1617227907
 20
409.4363606262
  0
VERTEX
  8
0
 62
7
  6
CONTINUOUS
 10
381.9394494204
 20
409.0333296872
  0
VERTEX
  8
0
 62
7
  6
CONTINUOUS
 10
381.7168659061
 20
408.6448599556
  0
VERTEX
  8
0
 62
7
  6
CONTINUOUS
 10
381.4969879126
 20
408.2742015113
  0
VERTEX
  8
0
 62
7
  6
CONTINUOUS
 10
381.2814346763
 20
407.9215087715
  0
VERTEX
  8
0
 62
7
  6
CONTINUOUS
 10
381.0720050052
 20
407.5877992263
  0
VERTEX
  8
0
 62
7
  6
CONTINUOUS
 10
380.8703567466
 20
407.2737337366
  0
VERTEX
  8
0
 62
7
  6
CONTINUOUS
 10
380.6779222862
 20
406.9801413163
  0
VERTEX
  8
0
 62
7
  6
CONTINUOUS
 10
380.4961419212
 20
406.7075349964
  0
VERTEX
  8
0
 62
7
  6
CONTINUOUS
 10
380.3263099708
 20
406.4568622335
  0
VERTEX
  8
0
 62
7
  6
CONTINUOUS
 10
380.168948788
 20
406.227648765
  0
VERTEX
  8
0
 62
7
  6
CONTINUOUS
 10
380.0248013704
 20
406.0201087252
  0
SEQEND
  0
LINE
  8
0
 62
7
  6
CONTINUOUS
 10
380.0248013704
 20
-218.9798912748
 11
379.7750917491
 21
-219.3342011683
  0
LINE
  8
0
 62
7
  6
CONTINUOUS
 10
379.7750917491
 20
-219.3342011683
 11
379.5763703665
 21
-219.6118842491
  0
LINE
  8
0
 62
7
  6
CONTINUOUS
 10
379.5763703665
 20
-219.6118842491
 11
379.3731916382
 21
-219.8922392048
  0
LINE
  8
0
 62
7
  6
CONTINUOUS
 10
379.3731916382
 20
-219.8922392048
 11
379.2814675211
 21
-220.0177727396
  0
LINE
  8
0
 62
7
  6
CONTINUOUS
 10
379.2814675211
 20
-220.0177727396
 11
379.275392042
 21
-220.0259805629
  0
LINE
  8
0
 62
7
  6
CONTINUOUS
 10
-10.724607958
 20
501.9740194371
 11
379.275392042
 21
501.9740194371
  0
LINE
  8
0
 62
7
  6
CONTINUOUS
 10
379.275392042
 20
523.9740194371
 11
-10.724607958
 21
523.9740194371
  0
LINE
  8
0
 62
7
  6
CONTINUOUS
 10
379.275392042
 20
523.9740194371
 11
379.2814684738
 21
523.9658113137
  0
LINE
  8
0
 62
7
  6
CONTINUOUS
 10
379.2814684738
 20
523.9658113137
 11
379.428423162
 21
523.7644550178
  0
LINE
  8
0
 62
7
  6
CONTINUOUS
 10
379.428423162
 20
523.7644550178
 11
379.5764381057
 21
523.5598299116
  0
LINE
  8
0
 62
7
  6
CONTINUOUS
 10
379.5764381057
 20
523.5598299116
 11
379.7752211299
 21
523.2820547888
  0
POLYLINE
  8
0
 62
7
  6
CONTINUOUS
 66
1
 70
0
  0
VERTEX
  8
0
 62
7
  6
CONTINUOUS
 10
379.7752211299
 20
523.2820547888
  0
VERTEX
  8
0
 62
7
  6
CONTINUOUS
 10
380.0249829101
 20
522.9276720564
  0
VERTEX
  8
0
 62
7
  6
CONTINUOUS
 10
380.1691262268
 20
522.7201332907
  0
VERTEX
  8
0
 62
7
  6
CONTINUOUS
 10
380.3264786361
 20
522.4909300346
  0
VERTEX
  8
0
 62
7
  6
CONTINUOUS
 10
380.4962963318
 20
522.2402742679
  0
VERTEX
  8
0
 62
7
  6
CONTINUOUS
 10
380.6780571129
 20
521.9676957371
  0
VERTEX
  8
0
 62
7
  6
CONTINUOUS
 10
380.8704805794
 20
521.67411434
  0
VERTEX
  8
0
 62
7
  6
CONTINUOUS
 10
381.0721484479
 20
521.3600131957
  0
VERTEX
  8
0
 62
7
  6
CONTINUOUS
 10
381.2816191728
 20
521.0262323861
  0
VERTEX
  8
0
 62
7
  6
CONTINUOUS
 10
381.4972257471
 20
520.6734445559
  0
VERTEX
  8
0
 62
7
  6
CONTINUOUS
 10
381.7171832508
 20
520.3026351345
  0
VERTEX
  8
0
 62
7
  6
CONTINUOUS
 10
381.9399000056
 20
519.9139026644
  0
VERTEX
  8
0
 62
7
  6
CONTINUOUS
 10
382.1623152282
 20
519.5105804515
  0
VERTEX
  8
0
 62
7
  6
CONTINUOUS
 10
382.3813294908
 20
519.0949858998
  0
VERTEX
  8
0
 62
7
  6
CONTINUOUS
 10
382.5943297419
 20
518.6702652584
  0
VERTEX
  8
0
 62
7
  6
CONTINUOUS
 10
382.7982835862
 20
518.2390776982
  0
VERTEX
  8
0
 62
7
  6
CONTINUOUS
 10
382.9908750571
 20
517.8052018577
  0
VERTEX
  8
0
 62
7
  6
CONTINUOUS
 10
383.1691339936
 20
517.3724982313
  0
VERTEX
  8
0
 62
7
  6
CONTINUOUS
 10
383.3320915059
 20
516.9433804211
  0
VERTEX
  8
0
 62
7
  6
CONTINUOUS
 10
383.4778526579
 20
516.5218898394
  0
VERTEX
  8
0
 62
7
  6
CONTINUOUS
 10
383.6069531001
 20
516.1070035507
  0
VERTEX
  8
0
 62
7
  6
CONTINUOUS
 10
383.7195120548
 20
515.699420866
  0
VERTEX
  8
0
 62
7
  6
CONTINUOUS
 10
383.8159005554
 20
515.2980164587
  0
VERTEX
  8
0
 62
7
  6
CONTINUOUS
 10
383.8967130273
 20
514.9023375305
  0
VERTEX
  8
0
 62
7
  6
CONTINUOUS
 10
383.9621718105
 20
514.5110658066
  0
VERTEX
  8
0
 62
7
  6
CONTINUOUS
 10
384.0128820267
 20
514.1227676355
  0
VERTEX
  8
0
 62
7
  6
CONTINUOUS
 10
384.0488260148
 20
513.7373363492
  0
VERTEX
  8
0
 62
7
  6
CONTINUOUS
 10
384.0703143574
 20
513.3547105804
  0
VERTEX
  8
0
 62
7
  6
CONTINUOUS
 10
384.0773529908
 20
512.9733207755
  0
VERTEX
  8
0
 62
7
  6
CONTINUOUS
 10
384.0702690728
 20
512.5920099046
  0
VERTEX
  8
0
 62
7
  6
CONTINUOUS
 10
384.0487346195
 20
512.2094790286
  0
VERTEX
  8
0
 62
7
  6
CONTINUOUS
 10
384.0127448171
 20
511.8240489982
  0
VERTEX
  8
0
 62
7
  6
CONTINUOUS
 10
383.9619825094
 20
511.4357034139
  0
VERTEX
  8
0
 62
7
  6
CONTINUOUS
 10
383.896451365
 20
511.0443130698
  0
VERTEX
  8
0
 62
7
  6
CONTINUOUS
 10
383.815570463
 20
510.6485372367
  0
VERTEX
  8
0
 62
7
  6
CONTINUOUS
 10
383.7191427722
 20
510.2471775999
  0
VERTEX
  8
0
 62
7
  6
CONTINUOUS
 10
383.6065543329
 20
509.8396777101
  0
VERTEX
  8
0
 62
7
  6
CONTINUOUS
 10
383.4774279334
 20
509.4248521945
  0
VERTEX
  8
0
 62
7
  6
CONTINUOUS
 10
383.3316311694
 20
509.0033895077
  0
VERTEX
  8
0
 62
7
  6
CONTINUOUS
 10
383.168609594
 20
508.5742199932
  0
VERTEX
  8
0
 62
7
  6
CONTINUOUS
 10
382.9902737249
 20
508.1414326113
  0
VERTEX
  8
0
 62
7
  6
CONTINUOUS
 10
382.7975778802
 20
507.7074347868
  0
VERTEX
  8
0
 62
7
  6
CONTINUOUS
 10
382.5935630072
 20
507.276201469
  0
VERTEX
  8
0
 62
7
  6
CONTINUOUS
 10
382.3806232096
 20
506.8516728931
  0
VERTEX
  8
0
 62
7
  6
CONTINUOUS
 10
382.1617227907
 20
506.4363606262
  0
VERTEX
  8
0
 62
7
  6
CONTINUOUS
 10
381.9394494204
 20
506.0333296872
  0
VERTEX
  8
0
 62
7
  6
CONTINUOUS
 10
381.7168659061
 20
505.6448599556
  0
VERTEX
  8
0
 62
7
  6
CONTINUOUS
 10
381.4969879126
 20
505.2742015113
  0
VERTEX
  8
0
 62
7
  6
CONTINUOUS
 10
381.2814346763
 20
504.9215087715
  0
VERTEX
  8
0
 62
7
  6
CONTINUOUS
 10
381.0720050052
 20
504.5877992263
  0
VERTEX
  8
0
 62
7
  6
CONTINUOUS
 10
380.8703567466
 20
504.2737337366
  0
VERTEX
  8
0
 62
7
  6
CONTINUOUS
 10
380.6779222862
 20
503.9801413163
  0
VERTEX
  8
0
 62
7
  6
CONTINUOUS
 10
380.4961419212
 20
503.7075349964
  0
VERTEX
  8
0
 62
7
  6
CONTINUOUS
 10
380.3263099708
 20
503.4568622335
  0
VERTEX
  8
0
 62
7
  6
CONTINUOUS
 10
380.168948788
 20
503.227648765
  0
VERTEX
  8
0
 62
7
  6
CONTINUOUS
 10
380.0248013704
 20
503.0201087252
  0
SEQEND
  0
LINE
  8
0
 62
7
  6
CONTINUOUS
 10
-10.724607958
 20
564.4740194371
 11
-40.724607958
 21
564.4740194371
  0
LINE
  8
0
 62
7
  6
CONTINUOUS
 10
379.275392042
 20
564.4740194371
 11
409.275392042
 21
564.4740194371
  0
ENDSEC
  0
EOF
