999
DXF file: K:\Client\125_Heirloom\001\00\Final_Data\Drawings\LADDER TOWEL WARMERS\wg825sn_2.dxf
999
Pro/ENGINEER 2017110 by Parametric Technology Corporation
  0
SECTION
  2
HEADER
  9
$EXTMAX
 10
420.0
 20
297.0
 30
0.0
  9
$EXTMIN
 10
0.0
 20
0.0
 30
0.0
  9
$LIMMIN
 10
0.0
 20
0.0
  9
$LIMMAX
 10
420.0
 20
297.0
  9
$VIEWCTR
 10
210.0
 20
148.5
  9
$VIEWSIZE
 40
297.0
  9
$CLAYER
  8
0
  9
$LTSCALE
 40
23.1
  9
$CELTYPE
  6
BYLAYER
  9
$DIMSCALE
 40
1.0
  9
$DIMASZ
 40
3.0
  9
$DIMEXO
 40
1.0
  9
$DIMDLI
 40
15.96
  9
$DIMEXE
 40
1.0
  9
$DIMCEN
 40
3.78
  9
$DIMLFAC
 40
1.0
  9
$DIMBLK
  1
_FILLED
  9
$DIMALT
 70
0
  9
$DIMALTF
 40
0.0393700787
  9
$DIMTXT
 40
3.0
  9
$AUNITS
 70
0
  9
$PDMODE
 70
3
  9
$PDSIZE
 40
5.0
  9
$TILEMODE
 70
1
  0
ENDSEC
  0
SECTION
  2
TABLES
  0
TABLE
  2
LTYPE
 70
6
  0
LTYPE
  2
BYBLOCK
 70
0
  3

 72
65
 73
0
 40
0.0
  0
LTYPE
  2
BYLAYER
 70
0
  3

 72
65
 73
0
 40
0.0
  0
LTYPE
  2
CONTINUOUS
 70
64
  3
Solid line
 72
65
 73
0
 40
0.0
  0
LTYPE
  2
CENTER
 70
64
  3
____ _ ____ _ ____ _ ____ _ ____ _ ____ _ ____
 72
65
 73
4
 40
0.6
 49
0.375
 49
-0.075
 49
0.075
 49
-0.075
  0
LTYPE
  2
HIDDEN
 70
64
  3
- - - - - - - - - - - - - - - - - - - -
 72
65
 73
2
 40
0.2
 49
0.1
 49
-0.1
  0
LTYPE
  2
PHANTOM
 70
64
  3
_____ _ _ _____ _ _ _____ _ _ _____
 72
65
 73
6
 40
0.8
 49
0.45
 49
-0.05
 49
0.1
 49
-0.05
 49
0.1
 49
-0.05
  0
LTYPE
  2
DOT
 70
64
  3
. . . . . . . . . . . . . . . . . . . .
 72
65
 73
2
 40
0.2
 49
0.1
 49
-0.1
  0
LTYPE
  2
DASHED
 70
64
  3
- - - - - - - - - - - - - - - - - - - -
 72
65
 73
2
 40
0.2
 49
0.1
 49
-0.1
  0
ENDTAB
  0
TABLE
  2
LAYER
 70
36
  0
LAYER
  2
0
 70
0
 62
7
  6
CONTINUOUS
  0
LAYER
  2
DEFAULT_1
 70
0
 62
7
  6
CENTER
  0
LAYER
  2
DEFAULT_2
 70
0
 62
8
  6
HIDDEN
  0
LAYER
  2
DEFAULT_3
 70
0
 62
7
  6
PHANTOM
  0
LAYER
  2
0000_BOM
 70
0
 62
7
  6
CONTINUOUS
  0
LAYER
  2
0000_REV_TABLE
 70
0
 62
7
  6
CONTINUOUS
  0
LAYER
  2
0000_STEVENS_NOTE
 70
0
 62
7
  6
CONTINUOUS
  0
LAYER
  2
01_DATUM_PLANES
 70
0
 62
7
  6
CONTINUOUS
  0
LAYER
  2
01_DEF_PLANES
 70
0
 62
7
  6
CONTINUOUS
  0
LAYER
  2
02_DATUM_COS
 70
0
 62
7
  6
CONTINUOUS
  0
LAYER
  2
99_SOLID
 70
0
 62
7
  6
CONTINUOUS
  0
LAYER
  2
CAD-MASTER_ZINC-PL
 70
0
 62
7
  6
CONTINUOUS
  0
LAYER
  2
CURVE
 70
0
 62
7
  6
CONTINUOUS
  0
LAYER
  2
SKEL
 70
0
 62
7
  6
CONTINUOUS
  0
LAYER
  2
SKETCH
 70
0
 62
7
  6
CONTINUOUS
  0
LAYER
  2
SURFACE
 70
0
 62
7
  6
CONTINUOUS
  0
ENDTAB
  0
TABLE
  2
STYLE
 70
1
  0
STYLE
  2
STANDARD
 70
0
 40
0.0
 41
0.75
 50
0.0
 71
0
 42
0.2
  3
txt
  4

  0
STYLE
  2
TEXTSTYLE_1
 70
0
 40
0.0
 41
0.8
 50
0.0
 71
0
 42
0.2
  3
gdt
  4

  0
ENDTAB
  0
ENDSEC
  0
SECTION
  2
BLOCKS
  0
ENDSEC
  0
SECTION
  2
ENTITIES
  0
LINE
  8
0
 62
7
  6
CONTINUOUS
 10
117.2005874814
 20
-259.9191740561
 11
147.2005509586
 21
-259.9191740561
  0
LINE
  8
0
 62
7
  6
CONTINUOUS
 10
147.20056922
 20
-172.4191740561
 11
239.20056922
 21
-172.4191740561
  0
LINE
  8
0
 62
7
  6
CONTINUOUS
 10
147.20056922
 20
-147.4191740561
 11
239.20056922
 21
-147.4191740561
  0
LINE
  8
0
 62
7
  6
CONTINUOUS
 10
145.6169208306
 20
475.6282747981
 11
146.0222002942
 21
476.1391964434
  0
LINE
  8
0
 62
7
  6
CONTINUOUS
 10
146.0222002942
 20
476.1391964434
 11
146.3643134024
 21
476.5639774225
  0
LINE
  8
0
 62
7
  6
CONTINUOUS
 10
146.3643134024
 20
476.5639774225
 11
146.6449170006
 21
476.9083191116
  0
LINE
  8
0
 62
7
  6
CONTINUOUS
 10
146.6449170006
 20
476.9083191116
 11
147.030636337
 21
477.3764232343
  0
LINE
  8
0
 62
7
  6
CONTINUOUS
 10
147.030636337
 20
477.3764232343
 11
147.1938134723
 21
477.5727722628
  0
LINE
  8
0
 62
7
  6
CONTINUOUS
 10
147.1938134723
 20
477.5727722628
 11
147.20056922
 21
477.5808259439
  0
LINE
  8
0
 62
7
  6
CONTINUOUS
 10
147.20056922
 20
-172.4191740561
 11
147.1938249202
 21
-172.4111391927
  0
LINE
  8
0
 62
7
  6
CONTINUOUS
 10
147.1938249202
 20
-172.4111391927
 11
146.8665703327
 21
-172.0163854056
  0
LINE
  8
0
 62
7
  6
CONTINUOUS
 10
146.8665703327
 20
-172.0163854056
 11
146.5122785671
 21
-171.5842940484
  0
LINE
  8
0
 62
7
  6
CONTINUOUS
 10
146.5122785671
 20
-171.5842940484
 11
146.201459215
 21
-171.2007927632
  0
POLYLINE
  8
0
 62
7
  6
CONTINUOUS
 66
1
 70
0
  0
VERTEX
  8
0
 62
7
  6
CONTINUOUS
 10
146.201459215
 20
-171.2007927632
  0
VERTEX
  8
0
 62
7
  6
CONTINUOUS
 10
145.8277703108
 20
-170.733544568
  0
VERTEX
  8
0
 62
7
  6
CONTINUOUS
 10
145.6173080715
 20
-170.4671154208
  0
VERTEX
  8
0
 62
7
  6
CONTINUOUS
 10
145.3913742213
 20
-170.1781865125
  0
VERTEX
  8
0
 62
7
  6
CONTINUOUS
 10
145.1502869094
 20
-169.866329431
  0
VERTEX
  8
0
 62
7
  6
CONTINUOUS
 10
144.8945067079
 20
-169.5309402282
  0
VERTEX
  8
0
 62
7
  6
CONTINUOUS
 10
144.6241417746
 20
-169.170900487
  0
VERTEX
  8
0
 62
7
  6
CONTINUOUS
 10
144.3411666002
 20
-168.7873252021
  0
VERTEX
  8
0
 62
7
  6
CONTINUOUS
 10
144.046760375
 20
-168.3796072157
  0
VERTEX
  8
0
 62
7
  6
CONTINUOUS
 10
143.7449614641
 20
-167.9517945678
  0
VERTEX
  8
0
 62
7
  6
CONTINUOUS
 10
143.4396495579
 20
-167.5062231143
  0
VERTEX
  8
0
 62
7
  6
CONTINUOUS
 10
143.1350066683
 20
-167.0474222497
  0
VERTEX
  8
0
 62
7
  6
CONTINUOUS
 10
142.8361832758
 20
-166.5798469177
  0
VERTEX
  8
0
 62
7
  6
CONTINUOUS
 10
142.5459794213
 20
-166.106056327
  0
VERTEX
  8
0
 62
7
  6
CONTINUOUS
 10
142.2678750144
 20
-165.6285744177
  0
VERTEX
  8
0
 62
7
  6
CONTINUOUS
 10
142.0052654941
 20
-165.151961939
  0
VERTEX
  8
0
 62
7
  6
CONTINUOUS
 10
141.7617739666
 20
-164.6795080421
  0
VERTEX
  8
0
 62
7
  6
CONTINUOUS
 10
141.5400578737
 20
-164.2175514608
  0
VERTEX
  8
0
 62
7
  6
CONTINUOUS
 10
141.3446626893
 20
-163.7748042319
  0
VERTEX
  8
0
 62
7
  6
CONTINUOUS
 10
141.1729143535
 20
-163.3474355974
  0
VERTEX
  8
0
 62
7
  6
CONTINUOUS
 10
141.0236285533
 20
-162.9356993027
  0
VERTEX
  8
0
 62
7
  6
CONTINUOUS
 10
140.8952837052
 20
-162.5360538736
  0
VERTEX
  8
0
 62
7
  6
CONTINUOUS
 10
140.7857167733
 20
-162.1455189363
  0
VERTEX
  8
0
 62
7
  6
CONTINUOUS
 10
140.6945940976
 20
-161.762664935
  0
VERTEX
  8
0
 62
7
  6
CONTINUOUS
 10
140.6206931036
 20
-161.3851124765
  0
VERTEX
  8
0
 62
7
  6
CONTINUOUS
 10
140.5639337423
 20
-161.0127306997
  0
VERTEX
  8
0
 62
7
  6
CONTINUOUS
 10
140.5237866161
 20
-160.6450624043
  0
VERTEX
  8
0
 62
7
  6
CONTINUOUS
 10
140.5000093352
 20
-160.2807072153
  0
VERTEX
  8
0
 62
7
  6
CONTINUOUS
 10
140.4920128383
 20
-159.9189659426
  0
VERTEX
  8
0
 62
7
  6
CONTINUOUS
 10
140.5000251587
 20
-159.5572778306
  0
VERTEX
  8
0
 62
7
  6
CONTINUOUS
 10
140.5237952691
 20
-159.1931238259
  0
VERTEX
  8
0
 62
7
  6
CONTINUOUS
 10
140.563925607
 20
-158.825679632
  0
VERTEX
  8
0
 62
7
  6
CONTINUOUS
 10
140.620659432
 20
-158.4534250019
  0
VERTEX
  8
0
 62
7
  6
CONTINUOUS
 10
140.6945408068
 20
-158.075928734
  0
VERTEX
  8
0
 62
7
  6
CONTINUOUS
 10
140.7856703386
 20
-157.6930202662
  0
VERTEX
  8
0
 62
7
  6
CONTINUOUS
 10
140.8952526468
 20
-157.3023974334
  0
VERTEX
  8
0
 62
7
  6
CONTINUOUS
 10
141.0236151114
 20
-156.902692222
  0
VERTEX
  8
0
 62
7
  6
CONTINUOUS
 10
141.1729070554
 20
-156.4909316152
  0
VERTEX
  8
0
 62
7
  6
CONTINUOUS
 10
141.3446216258
 20
-156.0636327314
  0
VERTEX
  8
0
 62
7
  6
CONTINUOUS
 10
141.539984007
 20
-155.6209571509
  0
VERTEX
  8
0
 62
7
  6
CONTINUOUS
 10
141.7617079316
 20
-155.1589768514
  0
VERTEX
  8
0
 62
7
  6
CONTINUOUS
 10
142.0052166147
 20
-154.6864777593
  0
VERTEX
  8
0
 62
7
  6
CONTINUOUS
 10
142.2678453519
 20
-154.2098298102
  0
VERTEX
  8
0
 62
7
  6
CONTINUOUS
 10
142.5459428404
 20
-153.7323529542
  0
VERTEX
  8
0
 62
7
  6
CONTINUOUS
 10
142.8360836066
 20
-153.2586596558
  0
VERTEX
  8
0
 62
7
  6
CONTINUOUS
 10
143.134800378
 20
-152.7912423072
  0
VERTEX
  8
0
 62
7
  6
CONTINUOUS
 10
143.4392720553
 20
-152.332677478
  0
VERTEX
  8
0
 62
7
  6
CONTINUOUS
 10
143.7444246265
 20
-151.8873251004
  0
VERTEX
  8
0
 62
7
  6
CONTINUOUS
 10
144.0461376768
 20
-151.459612448
  0
VERTEX
  8
0
 62
7
  6
CONTINUOUS
 10
144.3405156668
 20
-151.051914066
  0
VERTEX
  8
0
 62
7
  6
CONTINUOUS
 10
144.6235388686
 20
-150.6682612228
  0
VERTEX
  8
0
 62
7
  6
CONTINUOUS
 10
144.8939743043
 20
-150.3081110226
  0
VERTEX
  8
0
 62
7
  6
CONTINUOUS
 10
145.1498043902
 20
-149.9726464524
  0
VERTEX
  8
0
 62
7
  6
CONTINUOUS
 10
145.3909390553
 20
-149.6607211322
  0
VERTEX
  8
0
 62
7
  6
CONTINUOUS
 10
145.6169208306
 20
-149.3717252019
  0
SEQEND
  0
LINE
  8
0
 62
7
  6
CONTINUOUS
 10
117.20056922
 20
-259.9191740561
 11
117.20056922
 21
565.0808259439
  0
LINE
  8
0
 62
7
  6
CONTINUOUS
 10
147.20056922
 20
-259.9191740561
 11
147.20056922
 21
-172.4191740561
  0
LINE
  8
0
 62
7
  6
CONTINUOUS
 10
147.20056922
 20
-147.4191740561
 11
147.20056922
 21
452.5808259439
  0
LINE
  8
0
 62
7
  6
CONTINUOUS
 10
147.20056922
 20
477.5808259439
 11
147.20056922
 21
565.0808259439
  0
LINE
  8
0
 62
7
  6
CONTINUOUS
 10
239.20056922
 20
-172.4191740561
 11
239.20056922
 21
-147.4191740561
  0
LINE
  8
0
 62
7
  6
CONTINUOUS
 10
239.20056922
 20
452.5808259439
 11
239.20056922
 21
477.5808259439
  0
LINE
  8
0
 62
7
  6
CONTINUOUS
 10
145.6169208306
 20
-149.3717252019
 11
146.0222002942
 21
-148.8608035566
  0
LINE
  8
0
 62
7
  6
CONTINUOUS
 10
146.0222002942
 20
-148.8608035566
 11
146.3643134024
 21
-148.4360225775
  0
LINE
  8
0
 62
7
  6
CONTINUOUS
 10
146.3643134024
 20
-148.4360225775
 11
146.6449170006
 21
-148.0916808884
  0
LINE
  8
0
 62
7
  6
CONTINUOUS
 10
146.6449170006
 20
-148.0916808884
 11
147.030636337
 21
-147.6235767657
  0
LINE
  8
0
 62
7
  6
CONTINUOUS
 10
147.030636337
 20
-147.6235767657
 11
147.1938134723
 21
-147.4272277372
  0
LINE
  8
0
 62
7
  6
CONTINUOUS
 10
147.1938134723
 20
-147.4272277372
 11
147.20056922
 21
-147.4191740561
  0
LINE
  8
0
 62
7
  6
CONTINUOUS
 10
147.20056922
 20
452.5808259439
 11
147.1938249202
 21
452.5888608073
  0
LINE
  8
0
 62
7
  6
CONTINUOUS
 10
147.1938249202
 20
452.5888608073
 11
146.8665703327
 21
452.9836145944
  0
LINE
  8
0
 62
7
  6
CONTINUOUS
 10
146.8665703327
 20
452.9836145944
 11
146.5122785671
 21
453.4157059516
  0
LINE
  8
0
 62
7
  6
CONTINUOUS
 10
146.5122785671
 20
453.4157059516
 11
146.201459215
 21
453.7992072368
  0
POLYLINE
  8
0
 62
7
  6
CONTINUOUS
 66
1
 70
0
  0
VERTEX
  8
0
 62
7
  6
CONTINUOUS
 10
146.201459215
 20
453.7992072368
  0
VERTEX
  8
0
 62
7
  6
CONTINUOUS
 10
145.8277703108
 20
454.266455432
  0
VERTEX
  8
0
 62
7
  6
CONTINUOUS
 10
145.6173080715
 20
454.5328845792
  0
VERTEX
  8
0
 62
7
  6
CONTINUOUS
 10
145.3913742213
 20
454.8218134875
  0
VERTEX
  8
0
 62
7
  6
CONTINUOUS
 10
145.1502869094
 20
455.133670569
  0
VERTEX
  8
0
 62
7
  6
CONTINUOUS
 10
144.8945067079
 20
455.4690597718
  0
VERTEX
  8
0
 62
7
  6
CONTINUOUS
 10
144.6241417746
 20
455.829099513
  0
VERTEX
  8
0
 62
7
  6
CONTINUOUS
 10
144.3411666002
 20
456.2126747979
  0
VERTEX
  8
0
 62
7
  6
CONTINUOUS
 10
144.046760375
 20
456.6203927843
  0
VERTEX
  8
0
 62
7
  6
CONTINUOUS
 10
143.7449614641
 20
457.0482054322
  0
VERTEX
  8
0
 62
7
  6
CONTINUOUS
 10
143.4396495579
 20
457.4937768857
  0
VERTEX
  8
0
 62
7
  6
CONTINUOUS
 10
143.1350066683
 20
457.9525777503
  0
VERTEX
  8
0
 62
7
  6
CONTINUOUS
 10
142.8361832758
 20
458.4201530823
  0
VERTEX
  8
0
 62
7
  6
CONTINUOUS
 10
142.5459794213
 20
458.893943673
  0
VERTEX
  8
0
 62
7
  6
CONTINUOUS
 10
142.2678750144
 20
459.3714255823
  0
VERTEX
  8
0
 62
7
  6
CONTINUOUS
 10
142.0052654941
 20
459.848038061
  0
VERTEX
  8
0
 62
7
  6
CONTINUOUS
 10
141.7617739666
 20
460.3204919579
  0
VERTEX
  8
0
 62
7
  6
CONTINUOUS
 10
141.5400578737
 20
460.7824485392
  0
VERTEX
  8
0
 62
7
  6
CONTINUOUS
 10
141.3446626893
 20
461.2251957681
  0
VERTEX
  8
0
 62
7
  6
CONTINUOUS
 10
141.1729143535
 20
461.6525644026
  0
VERTEX
  8
0
 62
7
  6
CONTINUOUS
 10
141.0236285533
 20
462.0643006973
  0
VERTEX
  8
0
 62
7
  6
CONTINUOUS
 10
140.8952837052
 20
462.4639461264
  0
VERTEX
  8
0
 62
7
  6
CONTINUOUS
 10
140.7857167733
 20
462.8544810637
  0
VERTEX
  8
0
 62
7
  6
CONTINUOUS
 10
140.6945940976
 20
463.237335065
  0
VERTEX
  8
0
 62
7
  6
CONTINUOUS
 10
140.6206931036
 20
463.6148875235
  0
VERTEX
  8
0
 62
7
  6
CONTINUOUS
 10
140.5639337423
 20
463.9872693003
  0
VERTEX
  8
0
 62
7
  6
CONTINUOUS
 10
140.5237866161
 20
464.3549375957
  0
VERTEX
  8
0
 62
7
  6
CONTINUOUS
 10
140.5000093352
 20
464.7192927847
  0
VERTEX
  8
0
 62
7
  6
CONTINUOUS
 10
140.4920128383
 20
465.0810340574
  0
VERTEX
  8
0
 62
7
  6
CONTINUOUS
 10
140.5000251587
 20
465.4427221694
  0
VERTEX
  8
0
 62
7
  6
CONTINUOUS
 10
140.5237952691
 20
465.8068761741
  0
VERTEX
  8
0
 62
7
  6
CONTINUOUS
 10
140.563925607
 20
466.174320368
  0
VERTEX
  8
0
 62
7
  6
CONTINUOUS
 10
140.620659432
 20
466.5465749981
  0
VERTEX
  8
0
 62
7
  6
CONTINUOUS
 10
140.6945408068
 20
466.924071266
  0
VERTEX
  8
0
 62
7
  6
CONTINUOUS
 10
140.7856703386
 20
467.3069797338
  0
VERTEX
  8
0
 62
7
  6
CONTINUOUS
 10
140.8952526468
 20
467.6976025666
  0
VERTEX
  8
0
 62
7
  6
CONTINUOUS
 10
141.0236151114
 20
468.097307778
  0
VERTEX
  8
0
 62
7
  6
CONTINUOUS
 10
141.1729070554
 20
468.5090683848
  0
VERTEX
  8
0
 62
7
  6
CONTINUOUS
 10
141.3446216258
 20
468.9363672686
  0
VERTEX
  8
0
 62
7
  6
CONTINUOUS
 10
141.539984007
 20
469.3790428491
  0
VERTEX
  8
0
 62
7
  6
CONTINUOUS
 10
141.7617079316
 20
469.8410231486
  0
VERTEX
  8
0
 62
7
  6
CONTINUOUS
 10
142.0052166147
 20
470.3135222407
  0
VERTEX
  8
0
 62
7
  6
CONTINUOUS
 10
142.2678453519
 20
470.7901701898
  0
VERTEX
  8
0
 62
7
  6
CONTINUOUS
 10
142.5459428404
 20
471.2676470458
  0
VERTEX
  8
0
 62
7
  6
CONTINUOUS
 10
142.8360836066
 20
471.7413403442
  0
VERTEX
  8
0
 62
7
  6
CONTINUOUS
 10
143.134800378
 20
472.2087576928
  0
VERTEX
  8
0
 62
7
  6
CONTINUOUS
 10
143.4392720553
 20
472.667322522
  0
VERTEX
  8
0
 62
7
  6
CONTINUOUS
 10
143.7444246265
 20
473.1126748996
  0
VERTEX
  8
0
 62
7
  6
CONTINUOUS
 10
144.0461376768
 20
473.540387552
  0
VERTEX
  8
0
 62
7
  6
CONTINUOUS
 10
144.3405156668
 20
473.948085934
  0
VERTEX
  8
0
 62
7
  6
CONTINUOUS
 10
144.6235388686
 20
474.3317387772
  0
VERTEX
  8
0
 62
7
  6
CONTINUOUS
 10
144.8939743043
 20
474.6918889774
  0
VERTEX
  8
0
 62
7
  6
CONTINUOUS
 10
145.1498043902
 20
475.0273535476
  0
VERTEX
  8
0
 62
7
  6
CONTINUOUS
 10
145.3909390553
 20
475.3392788678
  0
VERTEX
  8
0
 62
7
  6
CONTINUOUS
 10
145.6169208306
 20
475.6282747981
  0
SEQEND
  0
LINE
  8
0
 62
7
  6
CONTINUOUS
 10
147.20056922
 20
452.5808259439
 11
239.20056922
 21
452.5808259439
  0
LINE
  8
0
 62
7
  6
CONTINUOUS
 10
147.20056922
 20
477.5808259439
 11
239.20056922
 21
477.5808259439
  0
LINE
  8
0
 62
7
  6
CONTINUOUS
 10
117.2005874814
 20
565.0808259439
 11
147.2005509586
 21
565.0808259439
  0
ENDSEC
  0
EOF
