999
DXF file: K:\Client\125_Heirloom\001\00\Final_Data\Drawings\TOILETS\heiko-374120s_4.dxf
999
Pro/ENGINEER 2017110 by Parametric Technology Corporation
  0
SECTION
  2
HEADER
  9
$EXTMAX
 10
420.0
 20
297.0
 30
0.0
  9
$EXTMIN
 10
0.0
 20
0.0
 30
0.0
  9
$LIMMIN
 10
0.0
 20
0.0
  9
$LIMMAX
 10
420.0
 20
297.0
  9
$VIEWCTR
 10
210.0
 20
148.5
  9
$VIEWSIZE
 40
297.0
  9
$CLAYER
  8
0
  9
$LTSCALE
 40
23.1
  9
$CELTYPE
  6
BYLAYER
  9
$DIMSCALE
 40
1.0
  9
$DIMASZ
 40
3.0
  9
$DIMEXO
 40
1.0
  9
$DIMDLI
 40
15.96
  9
$DIMEXE
 40
1.0
  9
$DIMCEN
 40
3.78
  9
$DIMLFAC
 40
1.0
  9
$DIMBLK
  1
_FILLED
  9
$DIMALT
 70
0
  9
$DIMALTF
 40
0.0393700787
  9
$DIMTXT
 40
3.0
  9
$AUNITS
 70
0
  9
$PDMODE
 70
3
  9
$PDSIZE
 40
5.0
  9
$TILEMODE
 70
1
  0
ENDSEC
  0
SECTION
  2
TABLES
  0
TABLE
  2
LTYPE
 70
6
  0
LTYPE
  2
BYBLOCK
 70
0
  3

 72
65
 73
0
 40
0.0
  0
LTYPE
  2
BYLAYER
 70
0
  3

 72
65
 73
0
 40
0.0
  0
LTYPE
  2
CONTINUOUS
 70
64
  3
Solid line
 72
65
 73
0
 40
0.0
  0
LTYPE
  2
CENTER
 70
64
  3
____ _ ____ _ ____ _ ____ _ ____ _ ____ _ ____
 72
65
 73
4
 40
0.6
 49
0.375
 49
-0.075
 49
0.075
 49
-0.075
  0
LTYPE
  2
HIDDEN
 70
64
  3
- - - - - - - - - - - - - - - - - - - -
 72
65
 73
2
 40
0.2
 49
0.1
 49
-0.1
  0
LTYPE
  2
PHANTOM
 70
64
  3
_____ _ _ _____ _ _ _____ _ _ _____
 72
65
 73
6
 40
0.8
 49
0.45
 49
-0.05
 49
0.1
 49
-0.05
 49
0.1
 49
-0.05
  0
LTYPE
  2
DOT
 70
64
  3
. . . . . . . . . . . . . . . . . . . .
 72
65
 73
2
 40
0.2
 49
0.1
 49
-0.1
  0
LTYPE
  2
DASHED
 70
64
  3
- - - - - - - - - - - - - - - - - - - -
 72
65
 73
2
 40
0.2
 49
0.1
 49
-0.1
  0
ENDTAB
  0
TABLE
  2
LAYER
 70
36
  0
LAYER
  2
0
 70
0
 62
7
  6
CONTINUOUS
  0
LAYER
  2
DEFAULT_1
 70
0
 62
7
  6
CENTER
  0
LAYER
  2
DEFAULT_2
 70
0
 62
8
  6
HIDDEN
  0
LAYER
  2
DEFAULT_3
 70
0
 62
7
  6
PHANTOM
  0
LAYER
  2
0000_BOM
 70
0
 62
7
  6
CONTINUOUS
  0
LAYER
  2
0000_REV_TABLE
 70
0
 62
7
  6
CONTINUOUS
  0
LAYER
  2
0000_STEVENS_NOTE
 70
0
 62
7
  6
CONTINUOUS
  0
LAYER
  2
01_DATUM_PLANES
 70
0
 62
7
  6
CONTINUOUS
  0
LAYER
  2
01_DEF_PLANES
 70
0
 62
7
  6
CONTINUOUS
  0
LAYER
  2
02_DATUM_COS
 70
0
 62
7
  6
CONTINUOUS
  0
LAYER
  2
90_IMP_FEAT
 70
0
 62
7
  6
CONTINUOUS
  0
LAYER
  2
95_STL
 70
0
 62
7
  6
CONTINUOUS
  0
LAYER
  2
99_SOLID
 70
0
 62
7
  6
CONTINUOUS
  0
LAYER
  2
CAD-MASTER_ZINC-PL
 70
0
 62
7
  6
CONTINUOUS
  0
LAYER
  2
CURVE
 70
0
 62
7
  6
CONTINUOUS
  0
LAYER
  2
SHELL
 70
0
 62
7
  6
CONTINUOUS
  0
LAYER
  2
SKEL
 70
0
 62
7
  6
CONTINUOUS
  0
LAYER
  2
SKETCH
 70
0
 62
7
  6
CONTINUOUS
  0
LAYER
  2
SURFACE
 70
0
 62
7
  6
CONTINUOUS
  0
ENDTAB
  0
TABLE
  2
STYLE
 70
1
  0
STYLE
  2
STANDARD
 70
0
 40
0.0
 41
0.75
 50
0.0
 71
0
 42
0.2
  3
txt
  4

  0
STYLE
  2
TEXTSTYLE_1
 70
0
 40
0.0
 41
0.8
 50
0.0
 71
0
 42
0.2
  3
gdt
  4

  0
ENDTAB
  0
ENDSEC
  0
SECTION
  2
BLOCKS
  0
BLOCK
  8
0
 62
5
  6
CONTINUOUS
  2
PLUMBING_BL1
 70
64
 10
182.8150684932
 20
-301.3080606069
  0
CIRCLE
  8
0
 62
5
  6
CONTINUOUS
 10
182.8150684932
 20
-301.3080606069
 40
12.5
  0
LINE
  8
0
 62
5
  6
CONTINUOUS
 10
195.3150684932
 20
-288.8080606069
 11
170.3150684932
 21
-313.8080606069
  0
LINE
  8
0
 62
5
  6
CONTINUOUS
 10
182.8150684932
 20
-301.3080606069
 11
170.3150684932
 21
-288.8080606069
  0
LINE
  8
0
 62
5
  6
CONTINUOUS
 10
182.8150684932
 20
-301.3080606069
 11
195.3150684932
 21
-313.8080606069
  0
ENDBLK
  8
0
  6
BYBLOCK
 62
0
  0
BLOCK
  8
0
 62
1
  6
CONTINUOUS
  2
PLUMBING_BL0
 70
64
 10
182.8150684932
 20
-121.3080606069
  0
CIRCLE
  8
0
 62
1
  6
CONTINUOUS
 10
182.8150684932
 20
-121.3080606069
 40
12.5
  0
LINE
  8
0
 62
1
  6
CONTINUOUS
 10
195.3150684932
 20
-108.8080606069
 11
170.3150684932
 21
-133.8080606069
  0
LINE
  8
0
 62
1
  6
CONTINUOUS
 10
182.8150684932
 20
-121.3080606069
 11
170.3150684932
 21
-108.8080606069
  0
LINE
  8
0
 62
1
  6
CONTINUOUS
 10
182.8150684932
 20
-121.3080606069
 11
195.3150684932
 21
-133.8080606069
  0
ENDBLK
  8
0
  6
BYBLOCK
 62
0
  0
ENDSEC
  0
SECTION
  2
ENTITIES
  0
INSERT
  8
0
 62
1
  6
CONTINUOUS
  2
PLUMBING_BL0
 10
182.8150684932
 20
-121.3080606069
  0
INSERT
  8
0
 62
5
  6
CONTINUOUS
  2
PLUMBING_BL1
 10
182.8150684932
 20
-301.3080606069
  0
POLYLINE
  8
0
 62
7
  6
CONTINUOUS
 66
1
 70
0
  0
VERTEX
  8
0
 62
7
  6
CONTINUOUS
 10
25.5905279506
 20
-296.8488658783
  0
VERTEX
  8
0
 62
7
  6
CONTINUOUS
 10
25.2731145383
 20
-293.9216344385
  0
VERTEX
  8
0
 62
7
  6
CONTINUOUS
 10
24.9681193442
 20
-291.0852016778
  0
VERTEX
  8
0
 62
7
  6
CONTINUOUS
 10
24.6313166921
 20
-287.9241666174
  0
VERTEX
  8
0
 62
7
  6
CONTINUOUS
 10
24.2588218588
 20
-284.3930264084
  0
VERTEX
  8
0
 62
7
  6
CONTINUOUS
 10
23.8428531587
 20
-280.4064548541
  0
VERTEX
  8
0
 62
7
  6
CONTINUOUS
 10
23.4044905523
 20
-276.1562994169
  0
VERTEX
  8
0
 62
7
  6
CONTINUOUS
 10
22.9917971491
 20
-272.1097288248
  0
VERTEX
  8
0
 62
7
  6
CONTINUOUS
 10
22.6122850209
 20
-268.3503987466
  0
VERTEX
  8
0
 62
7
  6
CONTINUOUS
 10
22.2527313709
 20
-264.7557470586
  0
VERTEX
  8
0
 62
7
  6
CONTINUOUS
 10
21.8962332855
 20
-261.1606281958
  0
VERTEX
  8
0
 62
7
  6
CONTINUOUS
 10
21.5501410755
 20
-257.6416548835
  0
VERTEX
  8
0
 62
7
  6
CONTINUOUS
 10
21.2234901238
 20
-254.2950760839
  0
VERTEX
  8
0
 62
7
  6
CONTINUOUS
 10
20.9168369409
 20
-251.1317305533
  0
VERTEX
  8
0
 62
7
  6
CONTINUOUS
 10
20.6277252899
 20
-248.1307903016
  0
VERTEX
  8
0
 62
7
  6
CONTINUOUS
 10
20.3525105533
 20
-245.2580746933
  0
VERTEX
  8
0
 62
7
  6
CONTINUOUS
 10
20.088676325
 20
-242.4901746025
  0
VERTEX
  8
0
 62
7
  6
CONTINUOUS
 10
19.8325734963
 20
-239.7909652412
  0
VERTEX
  8
0
 62
7
  6
CONTINUOUS
 10
19.5852748642
 20
-237.1735684727
  0
VERTEX
  8
0
 62
7
  6
CONTINUOUS
 10
19.3440127666
 20
-234.610274359
  0
VERTEX
  8
0
 62
7
  6
CONTINUOUS
 10
19.1046363339
 20
-232.0580658102
  0
VERTEX
  8
0
 62
7
  6
CONTINUOUS
 10
18.8657660653
 20
-229.5029852847
  0
VERTEX
  8
0
 62
7
  6
CONTINUOUS
 10
18.6242765109
 20
-226.9121396502
  0
VERTEX
  8
0
 62
7
  6
CONTINUOUS
 10
18.3766045503
 20
-224.2475805163
  0
VERTEX
  8
0
 62
7
  6
CONTINUOUS
 10
18.119762626
 20
-221.477265836
  0
VERTEX
  8
0
 62
7
  6
CONTINUOUS
 10
17.8517443367
 20
-218.5796135667
  0
VERTEX
  8
0
 62
7
  6
CONTINUOUS
 10
17.5704719613
 20
-215.5322907749
  0
VERTEX
  8
0
 62
7
  6
CONTINUOUS
 10
17.2747518717
 20
-212.3226773379
  0
VERTEX
  8
0
 62
7
  6
CONTINUOUS
 10
16.9633796453
 20
-208.9383129071
  0
VERTEX
  8
0
 62
7
  6
CONTINUOUS
 10
16.6364482581
 20
-205.3811712498
  0
VERTEX
  8
0
 62
7
  6
CONTINUOUS
 10
16.2920075834
 20
-201.6309132683
  0
VERTEX
  8
0
 62
7
  6
CONTINUOUS
 10
15.9232480998
 20
-197.6143714014
  0
VERTEX
  8
0
 62
7
  6
CONTINUOUS
 10
15.5261217936
 20
-193.2889314495
  0
VERTEX
  8
0
 62
7
  6
CONTINUOUS
 10
15.0936292119
 20
-188.5806765138
  0
VERTEX
  8
0
 62
7
  6
CONTINUOUS
 10
14.6104750177
 20
-183.3269353961
  0
VERTEX
  8
0
 62
7
  6
CONTINUOUS
 10
14.0693569698
 20
-177.4546955496
  0
VERTEX
  8
0
 62
7
  6
CONTINUOUS
 10
13.4824272021
 20
-171.1048583778
  0
VERTEX
  8
0
 62
7
  6
CONTINUOUS
 10
12.9017139747
 20
-164.8480406358
  0
VERTEX
  8
0
 62
7
  6
CONTINUOUS
 10
12.3572706915
 20
-159.0073284431
  0
VERTEX
  8
0
 62
7
  6
CONTINUOUS
 10
11.8575169426
 20
-153.6632248656
  0
VERTEX
  8
0
 62
7
  6
CONTINUOUS
 10
11.4042502912
 20
-148.8264791511
  0
VERTEX
  8
0
 62
7
  6
CONTINUOUS
 10
10.9930005376
 20
-144.4436019134
  0
VERTEX
  8
0
 62
7
  6
CONTINUOUS
 10
10.6199663975
 20
-140.4703843289
  0
VERTEX
  8
0
 62
7
  6
CONTINUOUS
 10
10.2766499446
 20
-136.8140473246
  0
VERTEX
  8
0
 62
7
  6
CONTINUOUS
 10
9.9551815341
 20
-133.3893864796
  0
VERTEX
  8
0
 62
7
  6
CONTINUOUS
 10
9.6490581255
 20
-130.1261836168
  0
VERTEX
  8
0
 62
7
  6
CONTINUOUS
 10
9.353486634
 20
-126.972612285
  0
VERTEX
  8
0
 62
7
  6
CONTINUOUS
 10
9.0638871819
 20
-123.8791293802
  0
VERTEX
  8
0
 62
7
  6
CONTINUOUS
 10
8.7782255259
 20
-120.823274866
  0
VERTEX
  8
0
 62
7
  6
CONTINUOUS
 10
8.4969923621
 20
-117.8094229
  0
VERTEX
  8
0
 62
7
  6
CONTINUOUS
 10
8.2190324504
 20
-114.8243102812
  0
VERTEX
  8
0
 62
7
  6
CONTINUOUS
 10
7.9417126395
 20
-111.8386863968
  0
VERTEX
  8
0
 62
7
  6
CONTINUOUS
 10
7.6649292444
 20
-108.8503579903
  0
VERTEX
  8
0
 62
7
  6
CONTINUOUS
 10
7.3890445083
 20
-105.8621544342
  0
VERTEX
  8
0
 62
7
  6
CONTINUOUS
 10
7.1132616162
 20
-102.8643168424
  0
VERTEX
  8
0
 62
7
  6
CONTINUOUS
 10
6.8388844784
 20
-99.8698969738
  0
VERTEX
  8
0
 62
7
  6
CONTINUOUS
 10
6.5627671209
 20
-96.8432724282
  0
VERTEX
  8
0
 62
7
  6
CONTINUOUS
 10
6.2804274303
 20
-93.7333543615
  0
VERTEX
  8
0
 62
7
  6
CONTINUOUS
 10
5.9883453482
 20
-90.4984969484
  0
VERTEX
  8
0
 62
7
  6
CONTINUOUS
 10
5.6786230593
 20
-87.0467728291
  0
VERTEX
  8
0
 62
7
  6
CONTINUOUS
 10
5.3429753563
 20
-83.2786357761
  0
VERTEX
  8
0
 62
7
  6
CONTINUOUS
 10
4.971118431
 20
-79.0670893572
  0
VERTEX
  8
0
 62
7
  6
CONTINUOUS
 10
4.5627798749
 20
-74.3929054472
  0
VERTEX
  8
0
 62
7
  6
CONTINUOUS
 10
4.1216919558
 20
-69.2815791671
  0
VERTEX
  8
0
 62
7
  6
CONTINUOUS
 10
3.6549666978
 20
-63.7985858958
  0
VERTEX
  8
0
 62
7
  6
CONTINUOUS
 10
3.1598643826
 20
-57.8929495249
  0
VERTEX
  8
0
 62
7
  6
CONTINUOUS
 10
2.6153508039
 20
-51.2841158671
  0
VERTEX
  8
0
 62
7
  6
CONTINUOUS
 10
2.0063914203
 20
-43.7401742272
  0
VERTEX
  8
0
 62
7
  6
CONTINUOUS
 10
1.3276063216
 20
-35.1224634938
  0
VERTEX
  8
0
 62
7
  6
CONTINUOUS
 10
0.5794128998
 20
-25.3400183297
  0
VERTEX
  8
0
 62
7
  6
CONTINUOUS
 10
-0.2315883639
 20
-14.3637475642
  0
VERTEX
  8
0
 62
7
  6
CONTINUOUS
 10
-1.0996946351
 20
-2.1348340253
  0
VERTEX
  8
0
 62
7
  6
CONTINUOUS
 10
-1.9414544106
 20
10.2589126193
  0
VERTEX
  8
0
 62
7
  6
CONTINUOUS
 10
-2.6550261
 20
21.2359630068
  0
VERTEX
  8
0
 62
7
  6
CONTINUOUS
 10
-3.2596740475
 20
30.9274051064
  0
VERTEX
  8
0
 62
7
  6
CONTINUOUS
 10
-3.7728246893
 20
39.4756969513
  0
VERTEX
  8
0
 62
7
  6
CONTINUOUS
 10
-4.2080084162
 20
46.99054788
  0
VERTEX
  8
0
 62
7
  6
CONTINUOUS
 10
-4.5758839395
 20
53.5574987373
  0
VERTEX
  8
0
 62
7
  6
CONTINUOUS
 10
-4.8916946609
 20
59.3701300895
  0
VERTEX
  8
0
 62
7
  6
CONTINUOUS
 10
-5.1717936319
 20
64.6768223284
  0
VERTEX
  8
0
 62
7
  6
CONTINUOUS
 10
-5.4312843254
 20
69.7377213175
  0
VERTEX
  8
0
 62
7
  6
CONTINUOUS
 10
-5.681230616
 20
74.7626494199
  0
VERTEX
  8
0
 62
7
  6
CONTINUOUS
 10
-5.9275421052
 20
79.8796379139
  0
VERTEX
  8
0
 62
7
  6
CONTINUOUS
 10
-6.1720565735
 20
85.146426448
  0
VERTEX
  8
0
 62
7
  6
CONTINUOUS
 10
-6.413448222
 20
90.5592462645
  0
VERTEX
  8
0
 62
7
  6
CONTINUOUS
 10
-6.6532441669
 20
96.1842490236
  0
VERTEX
  8
0
 62
7
  6
CONTINUOUS
 10
-6.8922267775
 20
102.0856441182
  0
VERTEX
  8
0
 62
7
  6
CONTINUOUS
 10
-7.1260102702
 20
108.2086676348
  0
VERTEX
  8
0
 62
7
  6
CONTINUOUS
 10
-7.3484354327
 20
114.4339095352
  0
VERTEX
  8
0
 62
7
  6
CONTINUOUS
 10
-7.5511102292
 20
120.5315190971
  0
VERTEX
  8
0
 62
7
  6
CONTINUOUS
 10
-7.7252877781
 20
126.1821266779
  0
VERTEX
  8
0
 62
7
  6
CONTINUOUS
 10
-7.8696335438
 20
131.2303294137
  0
VERTEX
  8
0
 62
7
  6
CONTINUOUS
 10
-7.9873130838
 20
135.6557250997
  0
VERTEX
  8
0
 62
7
  6
CONTINUOUS
 10
-8.0848660603
 20
139.588415488
  0
VERTEX
  8
0
 62
7
  6
CONTINUOUS
 10
-8.1666715591
 20
143.1151948412
  0
VERTEX
  8
0
 62
7
  6
CONTINUOUS
 10
-8.2351257724
 20
146.2636789622
  0
VERTEX
  8
0
 62
7
  6
CONTINUOUS
 10
-8.2923438297
 20
149.0634589602
  0
VERTEX
  8
0
 62
7
  6
CONTINUOUS
 10
-8.3398049009
 20
151.5259045292
  0
VERTEX
  8
0
 62
7
  6
CONTINUOUS
 10
-8.3793282129
 20
153.6921402136
  0
SEQEND
  0
POLYLINE
  8
0
 62
7
  6
CONTINUOUS
 66
1
 70
0
  0
VERTEX
  8
0
 62
7
  6
CONTINUOUS
 10
-9.2431001598
 20
175.5525142958
  0
VERTEX
  8
0
 62
7
  6
CONTINUOUS
 10
-9.235361046
 20
175.3137599113
  0
VERTEX
  8
0
 62
7
  6
CONTINUOUS
 10
-9.2204911718
 20
175.0752590731
  0
VERTEX
  8
0
 62
7
  6
CONTINUOUS
 10
-9.1985076653
 20
174.8372634353
  0
VERTEX
  8
0
 62
7
  6
CONTINUOUS
 10
-9.1694276545
 20
174.6000246518
  0
VERTEX
  8
0
 62
7
  6
CONTINUOUS
 10
-9.1332723899
 20
174.3637859301
  0
VERTEX
  8
0
 62
7
  6
CONTINUOUS
 10
-9.0900792687
 20
174.1287545242
  0
VERTEX
  8
0
 62
7
  6
CONTINUOUS
 10
-9.039889789
 20
173.8951292446
  0
VERTEX
  8
0
 62
7
  6
CONTINUOUS
 10
-8.9827454489
 20
173.6631089017
  0
VERTEX
  8
0
 62
7
  6
CONTINUOUS
 10
-8.9186920787
 20
173.4328940709
  0
VERTEX
  8
0
 62
7
  6
CONTINUOUS
 10
-8.8477917523
 20
173.2046885597
  0
VERTEX
  8
0
 62
7
  6
CONTINUOUS
 10
-8.7701108378
 20
172.9786979503
  0
VERTEX
  8
0
 62
7
  6
CONTINUOUS
 10
-8.6857157032
 20
172.7551278253
  0
VERTEX
  8
0
 62
7
  6
CONTINUOUS
 10
-8.5946770195
 20
172.5341824667
  0
VERTEX
  8
0
 62
7
  6
CONTINUOUS
 10
-8.4970805363
 20
172.3160558458
  0
VERTEX
  8
0
 62
7
  6
CONTINUOUS
 10
-8.3930162547
 20
172.1009406541
  0
VERTEX
  8
0
 62
7
  6
CONTINUOUS
 10
-8.282574176
 20
171.8890295829
  0
VERTEX
  8
0
 62
7
  6
CONTINUOUS
 10
-8.1658486072
 20
171.6805144427
  0
VERTEX
  8
0
 62
7
  6
CONTINUOUS
 10
-8.0429477358
 20
171.4755776192
  0
VERTEX
  8
0
 62
7
  6
CONTINUOUS
 10
-7.9139839958
 20
171.2744006491
  0
VERTEX
  8
0
 62
7
  6
CONTINUOUS
 10
-7.7790698209
 20
171.0771650692
  0
VERTEX
  8
0
 62
7
  6
CONTINUOUS
 10
-7.6383218781
 20
170.8840509438
  0
VERTEX
  8
0
 62
7
  6
CONTINUOUS
 10
-7.4918692353
 20
170.6952262935
  0
VERTEX
  8
0
 62
7
  6
CONTINUOUS
 10
-7.3398451311
 20
170.51085771
  0
VERTEX
  8
0
 62
7
  6
CONTINUOUS
 10
-7.1823828043
 20
170.3311117854
  0
VERTEX
  8
0
 62
7
  6
CONTINUOUS
 10
-7.0196195803
 20
170.1561532488
  0
VERTEX
  8
0
 62
7
  6
CONTINUOUS
 10
-6.8517036071
 20
169.9861335009
  0
VERTEX
  8
0
 62
7
  6
CONTINUOUS
 10
-6.6787870597
 20
169.8212021336
  0
VERTEX
  8
0
 62
7
  6
CONTINUOUS
 10
-6.501022113
 20
169.6615087387
  0
VERTEX
  8
0
 62
7
  6
CONTINUOUS
 10
-6.3185647573
 20
169.507200554
  0
VERTEX
  8
0
 62
7
  6
CONTINUOUS
 10
-6.1315800852
 20
169.3584102436
  0
VERTEX
  8
0
 62
7
  6
CONTINUOUS
 10
-5.9402369521
 20
169.2152681778
  0
VERTEX
  8
0
 62
7
  6
CONTINUOUS
 10
-5.7447042131
 20
169.077904727
  0
VERTEX
  8
0
 62
7
  6
CONTINUOUS
 10
-5.5451542165
 20
168.9464474274
  0
VERTEX
  8
0
 62
7
  6
CONTINUOUS
 10
-5.3417669628
 20
168.821008361
  0
VERTEX
  8
0
 62
7
  6
CONTINUOUS
 10
-5.1347259034
 20
168.7016968379
  0
VERTEX
  8
0
 62
7
  6
CONTINUOUS
 10
-4.9242144895
 20
168.5886221683
  0
VERTEX
  8
0
 62
7
  6
CONTINUOUS
 10
-4.7104189637
 20
168.4818903691
  0
VERTEX
  8
0
 62
7
  6
CONTINUOUS
 10
-4.4935307943
 20
168.3815913568
  0
VERTEX
  8
0
 62
7
  6
CONTINUOUS
 10
-4.2737442106
 20
168.2878118133
  0
VERTEX
  8
0
 62
7
  6
CONTINUOUS
 10
-4.051253442
 20
168.2006384206
  0
VERTEX
  8
0
 62
7
  6
CONTINUOUS
 10
-3.8262556405
 20
168.1201541697
  0
VERTEX
  8
0
 62
7
  6
CONTINUOUS
 10
-3.5989546238
 20
168.0464255185
  0
VERTEX
  8
0
 62
7
  6
CONTINUOUS
 10
-3.3695571137
 20
167.9795152836
  0
VERTEX
  8
0
 62
7
  6
CONTINUOUS
 10
-3.1382698317
 20
167.9194862817
  0
VERTEX
  8
0
 62
7
  6
CONTINUOUS
 10
-2.9052989087
 20
167.8663973312
  0
VERTEX
  8
0
 62
7
  6
CONTINUOUS
 10
-2.6708444709
 20
167.8202904471
  0
VERTEX
  8
0
 62
7
  6
CONTINUOUS
 10
-2.4351060448
 20
167.7812036823
  0
VERTEX
  8
0
 62
7
  6
CONTINUOUS
 10
-2.1982831569
 20
167.7491750895
  0
VERTEX
  8
0
 62
7
  6
CONTINUOUS
 10
-1.9605843897
 20
167.7242385324
  0
VERTEX
  8
0
 62
7
  6
CONTINUOUS
 10
-1.7222526396
 20
167.7064109263
  0
VERTEX
  8
0
 62
7
  6
CONTINUOUS
 10
-1.4835398563
 20
167.6957050163
  0
VERTEX
  8
0
 62
7
  6
CONTINUOUS
 10
-1.2446979899
 20
167.6921335473
  0
SEQEND
  0
LINE
  8
0
 62
7
  6
CONTINUOUS
 10
-15.9461107331
 20
558.6048715152
 11
-14.9565445438
 21
503.3240088093
  0
POLYLINE
  8
0
 62
7
  6
CONTINUOUS
 66
1
 70
0
  0
VERTEX
  8
0
 62
7
  6
CONTINUOUS
 10
-14.9565445438
 20
503.3240088093
  0
VERTEX
  8
0
 62
7
  6
CONTINUOUS
 10
-14.3217227859
 20
467.7077491069
  0
VERTEX
  8
0
 62
7
  6
CONTINUOUS
 10
-14.287907622
 20
465.8019980572
  0
VERTEX
  8
0
 62
7
  6
CONTINUOUS
 10
-14.2499794414
 20
463.6634049873
  0
VERTEX
  8
0
 62
7
  6
CONTINUOUS
 10
-14.2079850975
 20
461.2942539564
  0
VERTEX
  8
0
 62
7
  6
CONTINUOUS
 10
-14.1609991089
 20
458.6418900036
  0
VERTEX
  8
0
 62
7
  6
CONTINUOUS
 10
-14.1086304191
 20
455.6836714028
  0
VERTEX
  8
0
 62
7
  6
CONTINUOUS
 10
-14.0511023455
 20
452.4315721612
  0
VERTEX
  8
0
 62
7
  6
CONTINUOUS
 10
-13.9884606064
 20
448.8874874622
  0
VERTEX
  8
0
 62
7
  6
CONTINUOUS
 10
-13.9201838104
 20
445.0211276491
  0
VERTEX
  8
0
 62
7
  6
CONTINUOUS
 10
-13.8456931687
 20
440.7987639547
  0
VERTEX
  8
0
 62
7
  6
CONTINUOUS
 10
-13.7643258889
 20
436.1816736917
  0
VERTEX
  8
0
 62
7
  6
CONTINUOUS
 10
-13.6753319433
 20
431.1258955699
  0
VERTEX
  8
0
 62
7
  6
CONTINUOUS
 10
-13.5778744736
 20
425.5821787004
  0
VERTEX
  8
0
 62
7
  6
CONTINUOUS
 10
-13.4709073255
 20
419.4889130558
  0
VERTEX
  8
0
 62
7
  6
CONTINUOUS
 10
-13.3537867556
 20
412.8068950713
  0
VERTEX
  8
0
 62
7
  6
CONTINUOUS
 10
-13.23409674
 20
405.9670275598
  0
VERTEX
  8
0
 62
7
  6
CONTINUOUS
 10
-13.1252439723
 20
399.7365438556
  0
VERTEX
  8
0
 62
7
  6
CONTINUOUS
 10
-13.0299460975
 20
394.2741126677
  0
VERTEX
  8
0
 62
7
  6
CONTINUOUS
 10
-12.9450509247
 20
389.4018028019
  0
VERTEX
  8
0
 62
7
  6
CONTINUOUS
 10
-12.8691095285
 20
385.0384349396
  0
VERTEX
  8
0
 62
7
  6
CONTINUOUS
 10
-12.8007713129
 20
381.1079275997
  0
VERTEX
  8
0
 62
7
  6
CONTINUOUS
 10
-12.7390300032
 20
377.5535803367
  0
VERTEX
  8
0
 62
7
  6
CONTINUOUS
 10
-12.6831696918
 20
374.3351153902
  0
VERTEX
  8
0
 62
7
  6
CONTINUOUS
 10
-12.6329099716
 20
371.4371569292
  0
VERTEX
  8
0
 62
7
  6
CONTINUOUS
 10
-12.5878256855
 20
368.8358523268
  0
VERTEX
  8
0
 62
7
  6
CONTINUOUS
 10
-12.5479189417
 20
366.531893803
  0
VERTEX
  8
0
 62
7
  6
CONTINUOUS
 10
-12.5092931198
 20
364.3006408082
  0
SEQEND
  0
LINE
  8
0
 62
7
  6
CONTINUOUS
 10
-12.5092931198
 20
364.3006408082
 11
-9.6499223074
 21
199.0617721865
  0
LINE
  8
0
 62
7
  6
CONTINUOUS
 10
-9.6499223074
 20
199.0617721865
 11
-9.2431001598
 21
175.5525142958
  0
POLYLINE
  8
0
 62
7
  6
CONTINUOUS
 66
1
 70
0
  0
VERTEX
  8
0
 62
7
  6
CONTINUOUS
 10
173.9097644345
 20
610.0710125104
  0
VERTEX
  8
0
 62
7
  6
CONTINUOUS
 10
174.2625208067
 20
610.6806496835
  0
VERTEX
  8
0
 62
7
  6
CONTINUOUS
 10
174.6161112576
 20
611.2898035882
  0
VERTEX
  8
0
 62
7
  6
CONTINUOUS
 10
174.9493943679
 20
611.8620877852
  0
VERTEX
  8
0
 62
7
  6
CONTINUOUS
 10
175.2835323461
 20
612.4338732842
  0
VERTEX
  8
0
 62
7
  6
CONTINUOUS
 10
175.5971672016
 20
612.9686621703
  0
VERTEX
  8
0
 62
7
  6
CONTINUOUS
 10
175.9116685092
 20
613.5029417341
  0
SEQEND
  0
POLYLINE
  8
0
 62
7
  6
CONTINUOUS
 66
1
 70
0
  0
VERTEX
  8
0
 62
7
  6
CONTINUOUS
 10
176.3085243267
 20
613.6353641399
  0
VERTEX
  8
0
 62
7
  6
CONTINUOUS
 10
175.9688417914
 20
613.0644974717
  0
VERTEX
  8
0
 62
7
  6
CONTINUOUS
 10
175.6302762121
 20
612.4929666689
  0
VERTEX
  8
0
 62
7
  6
CONTINUOUS
 10
175.2926340992
 20
611.9208888015
  0
VERTEX
  8
0
 62
7
  6
CONTINUOUS
 10
174.9114328121
 20
611.2728497502
  0
VERTEX
  8
0
 62
7
  6
CONTINUOUS
 10
174.5313328221
 20
610.6241652573
  0
VERTEX
  8
0
 62
7
  6
CONTINUOUS
 10
174.1525003335
 20
609.9747407006
  0
SEQEND
  0
POLYLINE
  8
0
 62
7
  6
CONTINUOUS
 66
1
 70
0
  0
VERTEX
  8
0
 62
7
  6
CONTINUOUS
 10
175.9116685092
 20
613.5029417341
  0
VERTEX
  8
0
 62
7
  6
CONTINUOUS
 10
176.0107552961
 20
613.5364188356
  0
VERTEX
  8
0
 62
7
  6
CONTINUOUS
 10
176.1099273137
 20
613.5696486357
  0
VERTEX
  8
0
 62
7
  6
CONTINUOUS
 10
176.2091838834
 20
613.6026305865
  0
VERTEX
  8
0
 62
7
  6
CONTINUOUS
 10
176.3085243267
 20
613.6353641399
  0
SEQEND
  0
POLYLINE
  8
0
 62
7
  6
CONTINUOUS
 66
1
 70
0
  0
VERTEX
  8
0
 62
7
  6
CONTINUOUS
 10
335.0704788226
 20
-301.3078664527
  0
VERTEX
  8
0
 62
7
  6
CONTINUOUS
 10
335.222686579
 20
-301.3055445167
  0
VERTEX
  8
0
 62
7
  6
CONTINUOUS
 10
335.3748087285
 20
-301.2985844652
  0
VERTEX
  8
0
 62
7
  6
CONTINUOUS
 10
335.5266781865
 20
-301.2869949331
  0
VERTEX
  8
0
 62
7
  6
CONTINUOUS
 10
335.6781278681
 20
-301.2707845551
  0
VERTEX
  8
0
 62
7
  6
CONTINUOUS
 10
335.8289977331
 20
-301.2499646329
  0
VERTEX
  8
0
 62
7
  6
CONTINUOUS
 10
335.979148497
 20
-301.2245581983
  0
VERTEX
  8
0
 62
7
  6
CONTINUOUS
 10
336.1284479299
 20
-301.1945910256
  0
VERTEX
  8
0
 62
7
  6
CONTINUOUS
 10
336.2767638016
 20
-301.1600888892
  0
VERTEX
  8
0
 62
7
  6
CONTINUOUS
 10
336.4239654521
 20
-301.121079698
  0
VERTEX
  8
0
 62
7
  6
CONTINUOUS
 10
336.5699144515
 20
-301.0776036988
  0
VERTEX
  8
0
 62
7
  6
CONTINUOUS
 10
336.7144739758
 20
-301.0297034168
  0
VERTEX
  8
0
 62
7
  6
CONTINUOUS
 10
336.8575072008
 20
-300.9774213772
  0
VERTEX
  8
0
 62
7
  6
CONTINUOUS
 10
336.9988819167
 20
-300.9208014554
  0
VERTEX
  8
0
 62
7
  6
CONTINUOUS
 10
337.1384651504
 20
-300.859900741
  0
VERTEX
  8
0
 62
7
  6
CONTINUOUS
 10
337.2761286188
 20
-300.794777871
  0
VERTEX
  8
0
 62
7
  6
CONTINUOUS
 10
337.4117440386
 20
-300.7254914822
  0
VERTEX
  8
0
 62
7
  6
CONTINUOUS
 10
337.5451880971
 20
-300.6521006263
  0
VERTEX
  8
0
 62
7
  6
CONTINUOUS
 10
337.676334892
 20
-300.5746785215
  0
VERTEX
  8
0
 62
7
  6
CONTINUOUS
 10
337.805063614
 20
-300.4932990313
  0
VERTEX
  8
0
 62
7
  6
CONTINUOUS
 10
337.9312534536
 20
-300.4080360196
  0
VERTEX
  8
0
 62
7
  6
CONTINUOUS
 10
338.054789178
 20
-300.3189628025
  0
VERTEX
  8
0
 62
7
  6
CONTINUOUS
 10
338.1755542915
 20
-300.2261676829
  0
VERTEX
  8
0
 62
7
  6
CONTINUOUS
 10
338.2934380446
 20
-300.1297386592
  0
VERTEX
  8
0
 62
7
  6
CONTINUOUS
 10
338.408329688
 20
-300.0297637299
  0
VERTEX
  8
0
 62
7
  6
CONTINUOUS
 10
338.5201241131
 20
-299.9263294662
  0
VERTEX
  8
0
 62
7
  6
CONTINUOUS
 10
338.6287162103
 20
-299.8195378221
  0
VERTEX
  8
0
 62
7
  6
CONTINUOUS
 10
338.7340067205
 20
-299.7094895582
  0
VERTEX
  8
0
 62
7
  6
CONTINUOUS
 10
338.8358963847
 20
-299.5962854347
  0
VERTEX
  8
0
 62
7
  6
CONTINUOUS
 10
338.934291364
 20
-299.4800241567
  0
VERTEX
  8
0
 62
7
  6
CONTINUOUS
 10
339.0290997318
 20
-299.3608198058
  0
VERTEX
  8
0
 62
7
  6
CONTINUOUS
 10
339.1202352174
 20
-299.238784614
  0
VERTEX
  8
0
 62
7
  6
CONTINUOUS
 10
339.2076115501
 20
-299.1140308132
  0
VERTEX
  8
0
 62
7
  6
CONTINUOUS
 10
339.2911474246
 20
-298.9866680739
  0
VERTEX
  8
0
 62
7
  6
CONTINUOUS
 10
339.37076569
 20
-298.8568200355
  0
VERTEX
  8
0
 62
7
  6
CONTINUOUS
 10
339.4463944036
 20
-298.7246079406
  0
VERTEX
  8
0
 62
7
  6
CONTINUOUS
 10
339.5179616227
 20
-298.590153032
  0
VERTEX
  8
0
 62
7
  6
CONTINUOUS
 10
339.5853997204
 20
-298.4535744463
  0
VERTEX
  8
0
 62
7
  6
CONTINUOUS
 10
339.6486472761
 20
-298.3150055808
  0
VERTEX
  8
0
 62
7
  6
CONTINUOUS
 10
339.707647413
 20
-298.1745778439
  0
VERTEX
  8
0
 62
7
  6
CONTINUOUS
 10
339.7623432546
 20
-298.0324226438
  0
VERTEX
  8
0
 62
7
  6
CONTINUOUS
 10
339.8126818336
 20
-297.8886677406
  0
VERTEX
  8
0
 62
7
  6
CONTINUOUS
 10
339.8586192692
 20
-297.7434453173
  0
VERTEX
  8
0
 62
7
  6
CONTINUOUS
 10
339.9001157819
 20
-297.5968839786
  0
VERTEX
  8
0
 62
7
  6
CONTINUOUS
 10
339.9371315921
 20
-297.4491123293
  0
VERTEX
  8
0
 62
7
  6
CONTINUOUS
 10
339.9696295773
 20
-297.3002627906
  0
VERTEX
  8
0
 62
7
  6
CONTINUOUS
 10
339.997580366
 20
-297.150496558
  0
VERTEX
  8
0
 62
7
  6
CONTINUOUS
 10
340.0209573801
 20
-296.9999786762
  0
VERTEX
  8
0
 62
7
  6
CONTINUOUS
 10
340.0397340416
 20
-296.8488741896
  0
SEQEND
  0
POLYLINE
  8
0
 62
7
  6
CONTINUOUS
 66
1
 70
0
  0
VERTEX
  8
0
 62
7
  6
CONTINUOUS
 10
25.5904029447
 20
-296.8488741896
  0
VERTEX
  8
0
 62
7
  6
CONTINUOUS
 10
25.6091796062
 20
-296.9999786762
  0
VERTEX
  8
0
 62
7
  6
CONTINUOUS
 10
25.6325566203
 20
-297.150496558
  0
VERTEX
  8
0
 62
7
  6
CONTINUOUS
 10
25.660507409
 20
-297.3002627906
  0
VERTEX
  8
0
 62
7
  6
CONTINUOUS
 10
25.6930053942
 20
-297.4491123293
  0
VERTEX
  8
0
 62
7
  6
CONTINUOUS
 10
25.7300212044
 20
-297.5968839786
  0
VERTEX
  8
0
 62
7
  6
CONTINUOUS
 10
25.7715177171
 20
-297.7434453173
  0
VERTEX
  8
0
 62
7
  6
CONTINUOUS
 10
25.8174551527
 20
-297.8886677406
  0
VERTEX
  8
0
 62
7
  6
CONTINUOUS
 10
25.8677937317
 20
-298.0324226438
  0
VERTEX
  8
0
 62
7
  6
CONTINUOUS
 10
25.9224895733
 20
-298.1745778439
  0
VERTEX
  8
0
 62
7
  6
CONTINUOUS
 10
25.9814897102
 20
-298.3150055808
  0
VERTEX
  8
0
 62
7
  6
CONTINUOUS
 10
26.0447372659
 20
-298.4535744463
  0
VERTEX
  8
0
 62
7
  6
CONTINUOUS
 10
26.1121753636
 20
-298.590153032
  0
VERTEX
  8
0
 62
7
  6
CONTINUOUS
 10
26.1837425827
 20
-298.7246079406
  0
VERTEX
  8
0
 62
7
  6
CONTINUOUS
 10
26.2593712963
 20
-298.8568200355
  0
VERTEX
  8
0
 62
7
  6
CONTINUOUS
 10
26.3389895617
 20
-298.9866680739
  0
VERTEX
  8
0
 62
7
  6
CONTINUOUS
 10
26.4225254362
 20
-299.1140308132
  0
VERTEX
  8
0
 62
7
  6
CONTINUOUS
 10
26.5099017689
 20
-299.238784614
  0
VERTEX
  8
0
 62
7
  6
CONTINUOUS
 10
26.6010372545
 20
-299.3608198058
  0
VERTEX
  8
0
 62
7
  6
CONTINUOUS
 10
26.6958456223
 20
-299.4800241567
  0
VERTEX
  8
0
 62
7
  6
CONTINUOUS
 10
26.7942406016
 20
-299.5962854347
  0
VERTEX
  8
0
 62
7
  6
CONTINUOUS
 10
26.8961302658
 20
-299.7094895582
  0
VERTEX
  8
0
 62
7
  6
CONTINUOUS
 10
27.001420776
 20
-299.8195378221
  0
VERTEX
  8
0
 62
7
  6
CONTINUOUS
 10
27.1100128732
 20
-299.9263294662
  0
VERTEX
  8
0
 62
7
  6
CONTINUOUS
 10
27.2218072983
 20
-300.0297637299
  0
VERTEX
  8
0
 62
7
  6
CONTINUOUS
 10
27.3366989417
 20
-300.1297386592
  0
VERTEX
  8
0
 62
7
  6
CONTINUOUS
 10
27.4545826948
 20
-300.2261676829
  0
VERTEX
  8
0
 62
7
  6
CONTINUOUS
 10
27.5753478083
 20
-300.3189628025
  0
VERTEX
  8
0
 62
7
  6
CONTINUOUS
 10
27.6988835327
 20
-300.4080360196
  0
VERTEX
  8
0
 62
7
  6
CONTINUOUS
 10
27.8250733723
 20
-300.4932990313
  0
VERTEX
  8
0
 62
7
  6
CONTINUOUS
 10
27.9538020943
 20
-300.5746785215
  0
VERTEX
  8
0
 62
7
  6
CONTINUOUS
 10
28.0849488892
 20
-300.6521006263
  0
VERTEX
  8
0
 62
7
  6
CONTINUOUS
 10
28.2183929477
 20
-300.7254914822
  0
VERTEX
  8
0
 62
7
  6
CONTINUOUS
 10
28.3540083675
 20
-300.794777871
  0
VERTEX
  8
0
 62
7
  6
CONTINUOUS
 10
28.4916718359
 20
-300.859900741
  0
VERTEX
  8
0
 62
7
  6
CONTINUOUS
 10
28.6312550696
 20
-300.9208014554
  0
VERTEX
  8
0
 62
7
  6
CONTINUOUS
 10
28.7726297855
 20
-300.9774213772
  0
VERTEX
  8
0
 62
7
  6
CONTINUOUS
 10
28.9156630105
 20
-301.0297034168
  0
VERTEX
  8
0
 62
7
  6
CONTINUOUS
 10
29.0602225348
 20
-301.0776036988
  0
VERTEX
  8
0
 62
7
  6
CONTINUOUS
 10
29.2061715342
 20
-301.121079698
  0
VERTEX
  8
0
 62
7
  6
CONTINUOUS
 10
29.3533731847
 20
-301.1600888892
  0
VERTEX
  8
0
 62
7
  6
CONTINUOUS
 10
29.5016890564
 20
-301.1945910256
  0
VERTEX
  8
0
 62
7
  6
CONTINUOUS
 10
29.6509884893
 20
-301.2245581983
  0
VERTEX
  8
0
 62
7
  6
CONTINUOUS
 10
29.8011392532
 20
-301.2499646329
  0
VERTEX
  8
0
 62
7
  6
CONTINUOUS
 10
29.9520091182
 20
-301.2707845551
  0
VERTEX
  8
0
 62
7
  6
CONTINUOUS
 10
30.1034587998
 20
-301.2869949331
  0
VERTEX
  8
0
 62
7
  6
CONTINUOUS
 10
30.2553282578
 20
-301.2985844652
  0
VERTEX
  8
0
 62
7
  6
CONTINUOUS
 10
30.4074504073
 20
-301.3055445167
  0
VERTEX
  8
0
 62
7
  6
CONTINUOUS
 10
30.5596581637
 20
-301.3078664527
  0
SEQEND
  0
LINE
  8
0
 62
7
  6
CONTINUOUS
 10
155.0613518301
 20
608.1655938157
 11
154.4007076072
 21
606.3508018057
  0
POLYLINE
  8
0
 62
7
  6
CONTINUOUS
 66
1
 70
0
  0
VERTEX
  8
0
 62
7
  6
CONTINUOUS
 10
366.8748349762
 20
167.6921335473
  0
VERTEX
  8
0
 62
7
  6
CONTINUOUS
 10
367.1136768426
 20
167.6957050163
  0
VERTEX
  8
0
 62
7
  6
CONTINUOUS
 10
367.3523896259
 20
167.7064109263
  0
VERTEX
  8
0
 62
7
  6
CONTINUOUS
 10
367.590721376
 20
167.7242385324
  0
VERTEX
  8
0
 62
7
  6
CONTINUOUS
 10
367.8284201432
 20
167.7491750895
  0
VERTEX
  8
0
 62
7
  6
CONTINUOUS
 10
368.0652430311
 20
167.7812036823
  0
VERTEX
  8
0
 62
7
  6
CONTINUOUS
 10
368.3009814572
 20
167.8202904471
  0
VERTEX
  8
0
 62
7
  6
CONTINUOUS
 10
368.535435895
 20
167.8663973312
  0
VERTEX
  8
0
 62
7
  6
CONTINUOUS
 10
368.768406818
 20
167.9194862817
  0
VERTEX
  8
0
 62
7
  6
CONTINUOUS
 10
368.9996941
 20
167.9795152836
  0
VERTEX
  8
0
 62
7
  6
CONTINUOUS
 10
369.2290916101
 20
168.0464255185
  0
VERTEX
  8
0
 62
7
  6
CONTINUOUS
 10
369.4563926268
 20
168.1201541697
  0
VERTEX
  8
0
 62
7
  6
CONTINUOUS
 10
369.6813904283
 20
168.2006384206
  0
VERTEX
  8
0
 62
7
  6
CONTINUOUS
 10
369.9038811969
 20
168.2878118133
  0
VERTEX
  8
0
 62
7
  6
CONTINUOUS
 10
370.1236677806
 20
168.3815913568
  0
VERTEX
  8
0
 62
7
  6
CONTINUOUS
 10
370.34055595
 20
168.4818903691
  0
VERTEX
  8
0
 62
7
  6
CONTINUOUS
 10
370.5543514758
 20
168.5886221683
  0
VERTEX
  8
0
 62
7
  6
CONTINUOUS
 10
370.7648628897
 20
168.7016968379
  0
VERTEX
  8
0
 62
7
  6
CONTINUOUS
 10
370.9719039491
 20
168.821008361
  0
VERTEX
  8
0
 62
7
  6
CONTINUOUS
 10
371.1752912028
 20
168.9464474274
  0
VERTEX
  8
0
 62
7
  6
CONTINUOUS
 10
371.3748411994
 20
169.077904727
  0
VERTEX
  8
0
 62
7
  6
CONTINUOUS
 10
371.5703739384
 20
169.2152681778
  0
VERTEX
  8
0
 62
7
  6
CONTINUOUS
 10
371.7617170715
 20
169.3584102436
  0
VERTEX
  8
0
 62
7
  6
CONTINUOUS
 10
371.9487017436
 20
169.507200554
  0
VERTEX
  8
0
 62
7
  6
CONTINUOUS
 10
372.1311590993
 20
169.6615087387
  0
VERTEX
  8
0
 62
7
  6
CONTINUOUS
 10
372.308924046
 20
169.8212021336
  0
VERTEX
  8
0
 62
7
  6
CONTINUOUS
 10
372.4818405934
 20
169.9861335009
  0
VERTEX
  8
0
 62
7
  6
CONTINUOUS
 10
372.6497565666
 20
170.1561532488
  0
VERTEX
  8
0
 62
7
  6
CONTINUOUS
 10
372.8125197906
 20
170.3311117854
  0
VERTEX
  8
0
 62
7
  6
CONTINUOUS
 10
372.9699821174
 20
170.51085771
  0
VERTEX
  8
0
 62
7
  6
CONTINUOUS
 10
373.1220062216
 20
170.6952262935
  0
VERTEX
  8
0
 62
7
  6
CONTINUOUS
 10
373.2684588644
 20
170.8840509438
  0
VERTEX
  8
0
 62
7
  6
CONTINUOUS
 10
373.4092068072
 20
171.0771650692
  0
VERTEX
  8
0
 62
7
  6
CONTINUOUS
 10
373.5441209821
 20
171.2744006491
  0
VERTEX
  8
0
 62
7
  6
CONTINUOUS
 10
373.6730847221
 20
171.4755776192
  0
VERTEX
  8
0
 62
7
  6
CONTINUOUS
 10
373.7959855935
 20
171.6805144427
  0
VERTEX
  8
0
 62
7
  6
CONTINUOUS
 10
373.9127111623
 20
171.8890295829
  0
VERTEX
  8
0
 62
7
  6
CONTINUOUS
 10
374.023153241
 20
172.1009406541
  0
VERTEX
  8
0
 62
7
  6
CONTINUOUS
 10
374.1272175226
 20
172.3160558458
  0
VERTEX
  8
0
 62
7
  6
CONTINUOUS
 10
374.2248140059
 20
172.5341824667
  0
VERTEX
  8
0
 62
7
  6
CONTINUOUS
 10
374.3158526895
 20
172.7551278253
  0
VERTEX
  8
0
 62
7
  6
CONTINUOUS
 10
374.4002478241
 20
172.9786979503
  0
VERTEX
  8
0
 62
7
  6
CONTINUOUS
 10
374.4779287386
 20
173.2046885597
  0
VERTEX
  8
0
 62
7
  6
CONTINUOUS
 10
374.548829065
 20
173.4328940709
  0
VERTEX
  8
0
 62
7
  6
CONTINUOUS
 10
374.6128824352
 20
173.6631089017
  0
VERTEX
  8
0
 62
7
  6
CONTINUOUS
 10
374.6700267753
 20
173.8951292446
  0
VERTEX
  8
0
 62
7
  6
CONTINUOUS
 10
374.720216255
 20
174.1287545242
  0
VERTEX
  8
0
 62
7
  6
CONTINUOUS
 10
374.7634093762
 20
174.3637859301
  0
VERTEX
  8
0
 62
7
  6
CONTINUOUS
 10
374.7995646408
 20
174.6000246518
  0
VERTEX
  8
0
 62
7
  6
CONTINUOUS
 10
374.8286446516
 20
174.8372634353
  0
VERTEX
  8
0
 62
7
  6
CONTINUOUS
 10
374.8506281581
 20
175.0752590731
  0
VERTEX
  8
0
 62
7
  6
CONTINUOUS
 10
374.8654980323
 20
175.3137599113
  0
VERTEX
  8
0
 62
7
  6
CONTINUOUS
 10
374.8732371461
 20
175.5525142958
  0
SEQEND
  0
POLYLINE
  8
0
 62
7
  6
CONTINUOUS
 66
1
 70
0
  0
VERTEX
  8
0
 62
7
  6
CONTINUOUS
 10
164.3063674833
 20
613.8026533352
  0
VERTEX
  8
0
 62
7
  6
CONTINUOUS
 10
164.3095190682
 20
613.7841545144
  0
VERTEX
  8
0
 62
7
  6
CONTINUOUS
 10
164.3184793485
 20
613.7701765445
  0
VERTEX
  8
0
 62
7
  6
CONTINUOUS
 10
164.3325066126
 20
613.7601672118
  0
VERTEX
  8
0
 62
7
  6
CONTINUOUS
 10
164.350859149
 20
613.7535743024
  0
VERTEX
  8
0
 62
7
  6
CONTINUOUS
 10
164.3727952462
 20
613.7498456026
  0
VERTEX
  8
0
 62
7
  6
CONTINUOUS
 10
164.4041247989
 20
613.7483712592
  0
VERTEX
  8
0
 62
7
  6
CONTINUOUS
 10
164.4384460855
 20
613.7494308666
  0
VERTEX
  8
0
 62
7
  6
CONTINUOUS
 10
164.4743104508
 20
613.751945882
  0
VERTEX
  8
0
 62
7
  6
CONTINUOUS
 10
164.5102692394
 20
613.7548377629
  0
VERTEX
  8
0
 62
7
  6
CONTINUOUS
 10
164.5766748477
 20
613.7588399792
  0
VERTEX
  8
0
 62
7
  6
CONTINUOUS
 10
164.6385023799
 20
613.7604822891
  0
VERTEX
  8
0
 62
7
  6
CONTINUOUS
 10
164.6962631925
 20
613.7600418071
  0
VERTEX
  8
0
 62
7
  6
CONTINUOUS
 10
164.7504686418
 20
613.7577956476
  0
VERTEX
  8
0
 62
7
  6
CONTINUOUS
 10
164.818095835
 20
613.7524708998
  0
VERTEX
  8
0
 62
7
  6
CONTINUOUS
 10
164.8815235644
 20
613.7450855704
  0
VERTEX
  8
0
 62
7
  6
CONTINUOUS
 10
164.9419639343
 20
613.7362965234
  0
VERTEX
  8
0
 62
7
  6
CONTINUOUS
 10
165.0296746672
 20
613.7219178718
  0
VERTEX
  8
0
 62
7
  6
CONTINUOUS
 10
165.1174819262
 20
613.7080757146
  0
VERTEX
  8
0
 62
7
  6
CONTINUOUS
 10
165.2301540573
 20
613.6942781441
  0
VERTEX
  8
0
 62
7
  6
CONTINUOUS
 10
165.3481843257
 20
613.6840363195
  0
VERTEX
  8
0
 62
7
  6
CONTINUOUS
 10
165.4706038021
 20
613.6767456242
  0
VERTEX
  8
0
 62
7
  6
CONTINUOUS
 10
165.5964435574
 20
613.6718014414
  0
VERTEX
  8
0
 62
7
  6
CONTINUOUS
 10
165.7247346624
 20
613.6685991544
  0
VERTEX
  8
0
 62
7
  6
CONTINUOUS
 10
165.8545081879
 20
613.6665341465
  0
VERTEX
  8
0
 62
7
  6
CONTINUOUS
 10
165.9847952047
 20
613.6650018012
  0
VERTEX
  8
0
 62
7
  6
CONTINUOUS
 10
166.1146267836
 20
613.6633975015
  0
VERTEX
  8
0
 62
7
  6
CONTINUOUS
 10
166.3945234875
 20
613.6578966551
  0
VERTEX
  8
0
 62
7
  6
CONTINUOUS
 10
166.6692880073
 20
613.6500691876
  0
VERTEX
  8
0
 62
7
  6
CONTINUOUS
 10
166.9406148617
 20
613.6408311455
  0
VERTEX
  8
0
 62
7
  6
CONTINUOUS
 10
167.2101985693
 20
613.6310985749
  0
VERTEX
  8
0
 62
7
  6
CONTINUOUS
 10
167.4797336489
 20
613.6217875221
  0
VERTEX
  8
0
 62
7
  6
CONTINUOUS
 10
168.0442138985
 20
613.6060696265
  0
VERTEX
  8
0
 62
7
  6
CONTINUOUS
 10
168.6128598337
 20
613.5941788634
  0
VERTEX
  8
0
 62
7
  6
CONTINUOUS
 10
169.1827250264
 20
613.5841625719
  0
VERTEX
  8
0
 62
7
  6
CONTINUOUS
 10
170.1853953026
 20
613.5671249685
  0
VERTEX
  8
0
 62
7
  6
CONTINUOUS
 10
171.1860787872
 20
613.551351644
  0
VERTEX
  8
0
 62
7
  6
CONTINUOUS
 10
172.3155363411
 20
613.5364414931
  0
VERTEX
  8
0
 62
7
  6
CONTINUOUS
 10
173.4456548969
 20
613.524077664
  0
VERTEX
  8
0
 62
7
  6
CONTINUOUS
 10
175.9116707812
 20
613.5029415415
  0
SEQEND
  0
LINE
  8
0
 62
7
  6
CONTINUOUS
 10
210.5687851562
 20
608.1655938157
 11
211.2294293791
 21
606.3508018057
  0
POLYLINE
  8
0
 62
7
  6
CONTINUOUS
 66
1
 70
0
  0
VERTEX
  8
0
 62
7
  6
CONTINUOUS
 10
381.5770092075
 20
558.6921335473
  0
VERTEX
  8
0
 62
7
  6
CONTINUOUS
 10
381.5749680505
 20
558.8348308604
  0
VERTEX
  8
0
 62
7
  6
CONTINUOUS
 10
381.5688501214
 20
558.9774744558
  0
VERTEX
  8
0
 62
7
  6
CONTINUOUS
 10
381.5586637331
 20
559.1199268138
  0
VERTEX
  8
0
 62
7
  6
CONTINUOUS
 10
381.5444171986
 20
559.2620504147
  0
VERTEX
  8
0
 62
7
  6
CONTINUOUS
 10
381.5261188308
 20
559.4037077387
  0
VERTEX
  8
0
 62
7
  6
CONTINUOUS
 10
381.5037797319
 20
559.5447658835
  0
VERTEX
  8
0
 62
7
  6
CONTINUOUS
 10
381.4774218978
 20
559.6851120246
  0
VERTEX
  8
0
 62
7
  6
CONTINUOUS
 10
381.4470700982
 20
559.8246379526
  0
VERTEX
  8
0
 62
7
  6
CONTINUOUS
 10
381.4127491031
 20
559.963235458
  0
VERTEX
  8
0
 62
7
  6
CONTINUOUS
 10
381.3744836821
 20
560.1007963316
  0
VERTEX
  8
0
 62
7
  6
CONTINUOUS
 10
381.3323014252
 20
560.2372114449
  0
VERTEX
  8
0
 62
7
  6
CONTINUOUS
 10
381.2862402655
 20
560.3723709774
  0
VERTEX
  8
0
 62
7
  6
CONTINUOUS
 10
381.2363409276
 20
560.5061641814
  0
VERTEX
  8
0
 62
7
  6
CONTINUOUS
 10
381.1826441361
 20
560.638480309
  0
VERTEX
  8
0
 62
7
  6
CONTINUOUS
 10
381.1251906156
 20
560.7692086124
  0
VERTEX
  8
0
 62
7
  6
CONTINUOUS
 10
381.064023933
 20
560.8982391629
  0
VERTEX
  8
0
 62
7
  6
CONTINUOUS
 10
380.9991971331
 20
561.0254692496
  0
VERTEX
  8
0
 62
7
  6
CONTINUOUS
 10
380.9307660648
 20
561.1507969632
  0
VERTEX
  8
0
 62
7
  6
CONTINUOUS
 10
380.8587865772
 20
561.2741203946
  0
VERTEX
  8
0
 62
7
  6
CONTINUOUS
 10
380.7833145193
 20
561.3953376346
  0
VERTEX
  8
0
 62
7
  6
CONTINUOUS
 10
380.704408569
 20
561.5143474613
  0
VERTEX
  8
0
 62
7
  6
CONTINUOUS
 10
380.622135791
 20
561.6310557737
  0
VERTEX
  8
0
 62
7
  6
CONTINUOUS
 10
380.5365660367
 20
561.745369131
  0
VERTEX
  8
0
 62
7
  6
CONTINUOUS
 10
380.4477691575
 20
561.8571940924
  0
VERTEX
  8
0
 62
7
  6
CONTINUOUS
 10
380.3558150047
 20
561.9664372171
  0
VERTEX
  8
0
 62
7
  6
CONTINUOUS
 10
380.2607761643
 20
562.0730061987
  0
VERTEX
  8
0
 62
7
  6
CONTINUOUS
 10
380.1627323298
 20
562.1768175242
  0
VERTEX
  8
0
 62
7
  6
CONTINUOUS
 10
380.0617658878
 20
562.277788779
  0
VERTEX
  8
0
 62
7
  6
CONTINUOUS
 10
379.9579592253
 20
562.3758375488
  0
VERTEX
  8
0
 62
7
  6
CONTINUOUS
 10
379.851394729
 20
562.4708814191
  0
VERTEX
  8
0
 62
7
  6
CONTINUOUS
 10
379.7421573638
 20
562.5628394598
  0
VERTEX
  8
0
 62
7
  6
CONTINUOUS
 10
379.6303380096
 20
562.6516403435
  0
VERTEX
  8
0
 62
7
  6
CONTINUOUS
 10
379.5160300885
 20
562.7372141863
  0
VERTEX
  8
0
 62
7
  6
CONTINUOUS
 10
379.3993270227
 20
562.8194911037
  0
VERTEX
  8
0
 62
7
  6
CONTINUOUS
 10
379.2803222345
 20
562.8984012115
  0
VERTEX
  8
0
 62
7
  6
CONTINUOUS
 10
379.1591113103
 20
562.9738765063
  0
VERTEX
  8
0
 62
7
  6
CONTINUOUS
 10
379.0357940143
 20
563.0458592672
  0
VERTEX
  8
0
 62
7
  6
CONTINUOUS
 10
378.9104722481
 20
563.114293612
  0
VERTEX
  8
0
 62
7
  6
CONTINUOUS
 10
378.7832479129
 20
563.1791236584
  0
VERTEX
  8
0
 62
7
  6
CONTINUOUS
 10
378.6542229102
 20
563.2402935241
  0
VERTEX
  8
0
 62
7
  6
CONTINUOUS
 10
378.5235012878
 20
563.2977495647
  0
VERTEX
  8
0
 62
7
  6
CONTINUOUS
 10
378.3911916677
 20
563.3514488273
  0
VERTEX
  8
0
 62
7
  6
CONTINUOUS
 10
378.2574048012
 20
563.4013505586
  0
VERTEX
  8
0
 62
7
  6
CONTINUOUS
 10
378.1222514392
 20
563.4474140057
  0
VERTEX
  8
0
 62
7
  6
CONTINUOUS
 10
377.985842333
 20
563.4895984154
  0
VERTEX
  8
0
 62
7
  6
CONTINUOUS
 10
377.8482883159
 20
563.5278655629
  0
VERTEX
  8
0
 62
7
  6
CONTINUOUS
 10
377.7096975342
 20
563.5621881597
  0
VERTEX
  8
0
 62
7
  6
CONTINUOUS
 10
377.5701782081
 20
563.5925414169
  0
VERTEX
  8
0
 62
7
  6
CONTINUOUS
 10
377.4298385579
 20
563.6189005455
  0
VERTEX
  8
0
 62
7
  6
CONTINUOUS
 10
377.2887868039
 20
563.6412407567
  0
VERTEX
  8
0
 62
7
  6
CONTINUOUS
 10
377.1471363226
 20
563.6595399755
  0
VERTEX
  8
0
 62
7
  6
CONTINUOUS
 10
377.0050194989
 20
563.6737871837
  0
VERTEX
  8
0
 62
7
  6
CONTINUOUS
 10
376.8625738718
 20
563.6839740615
  0
VERTEX
  8
0
 62
7
  6
CONTINUOUS
 10
376.7199369803
 20
563.6900922893
  0
VERTEX
  8
0
 62
7
  6
CONTINUOUS
 10
376.5772463633
 20
563.6921335473
  0
SEQEND
  0
LINE
  8
0
 62
7
  6
CONTINUOUS
 10
374.8732371461
 20
175.5525142958
 11
377.7345581761
 21
340.9034057782
  0
LINE
  8
0
 62
7
  6
CONTINUOUS
 10
377.7345581761
 20
340.9034057782
 11
378.140525001
 21
364.3639052631
  0
POLYLINE
  8
0
 62
7
  6
CONTINUOUS
 66
1
 70
0
  0
VERTEX
  8
0
 62
7
  6
CONTINUOUS
 10
378.140525001
 20
364.3639052631
  0
VERTEX
  8
0
 62
7
  6
CONTINUOUS
 10
378.2654944965
 20
371.5783290557
  0
VERTEX
  8
0
 62
7
  6
CONTINUOUS
 10
378.3163441191
 20
374.5101870264
  0
VERTEX
  8
0
 62
7
  6
CONTINUOUS
 10
378.3728624094
 20
377.7664070205
  0
VERTEX
  8
0
 62
7
  6
CONTINUOUS
 10
378.4353356301
 20
381.3626826963
  0
VERTEX
  8
0
 62
7
  6
CONTINUOUS
 10
378.5045144309
 20
385.3412645234
  0
VERTEX
  8
0
 62
7
  6
CONTINUOUS
 10
378.5814447879
 20
389.7610964456
  0
VERTEX
  8
0
 62
7
  6
CONTINUOUS
 10
378.6675055233
 20
394.6998257281
  0
VERTEX
  8
0
 62
7
  6
CONTINUOUS
 10
378.7642241594
 20
400.2430624611
  0
VERTEX
  8
0
 62
7
  6
CONTINUOUS
 10
378.8748384325
 20
406.5735104367
  0
VERTEX
  8
0
 62
7
  6
CONTINUOUS
 10
378.9951432441
 20
413.4474664067
  0
VERTEX
  8
0
 62
7
  6
CONTINUOUS
 10
379.1109959275
 20
420.0561768239
  0
VERTEX
  8
0
 62
7
  6
CONTINUOUS
 10
379.2165700837
 20
426.0693216864
  0
VERTEX
  8
0
 62
7
  6
CONTINUOUS
 10
379.3128155242
 20
431.5434930557
  0
VERTEX
  8
0
 62
7
  6
CONTINUOUS
 10
379.4007100219
 20
436.536343719
  0
VERTEX
  8
0
 62
7
  6
CONTINUOUS
 10
379.4810869664
 20
441.0968780738
  0
VERTEX
  8
0
 62
7
  6
CONTINUOUS
 10
379.5546820869
 20
445.2682056872
  0
VERTEX
  8
0
 62
7
  6
CONTINUOUS
 10
379.6221453118
 20
449.0882880272
  0
VERTEX
  8
0
 62
7
  6
CONTINUOUS
 10
379.6840508095
 20
452.5905661721
  0
VERTEX
  8
0
 62
7
  6
CONTINUOUS
 10
379.7409003931
 20
455.8042015203
  0
SEQEND
  0
LINE
  8
0
 62
7
  6
CONTINUOUS
 10
380.5865684404
 20
503.3176909735
 11
381.5762477194
 21
558.6048715152
  0
POLYLINE
  8
0
 62
7
  6
CONTINUOUS
 66
1
 70
0
  0
VERTEX
  8
0
 62
7
  6
CONTINUOUS
 10
379.7409003931
 20
455.8042015203
  0
VERTEX
  8
0
 62
7
  6
CONTINUOUS
 10
380.4001513195
 20
492.8903686415
  0
VERTEX
  8
0
 62
7
  6
CONTINUOUS
 10
380.4191488171
 20
493.9541936212
  0
VERTEX
  8
0
 62
7
  6
CONTINUOUS
 10
380.4374276667
 20
494.9775198623
  0
VERTEX
  8
0
 62
7
  6
CONTINUOUS
 10
380.4549784526
 20
495.9598501568
  0
VERTEX
  8
0
 62
7
  6
CONTINUOUS
 10
380.471764599
 20
496.8991669564
  0
VERTEX
  8
0
 62
7
  6
CONTINUOUS
 10
380.4878153324
 20
497.7971341519
  0
VERTEX
  8
0
 62
7
  6
CONTINUOUS
 10
380.5031102117
 20
498.6526351515
  0
VERTEX
  8
0
 62
7
  6
CONTINUOUS
 10
380.5176159296
 20
499.4638335791
  0
VERTEX
  8
0
 62
7
  6
CONTINUOUS
 10
380.5313335427
 20
500.2308142827
  0
VERTEX
  8
0
 62
7
  6
CONTINUOUS
 10
380.5442368043
 20
500.9521344619
  0
VERTEX
  8
0
 62
7
  6
CONTINUOUS
 10
380.5563676437
 20
501.6301611059
  0
VERTEX
  8
0
 62
7
  6
CONTINUOUS
 10
380.567576804
 20
502.2565748162
  0
VERTEX
  8
0
 62
7
  6
CONTINUOUS
 10
380.5776658823
 20
502.8203135201
  0
VERTEX
  8
0
 62
7
  6
CONTINUOUS
 10
380.5865684404
 20
503.3176909735
  0
SEQEND
  0
POLYLINE
  8
0
 62
7
  6
CONTINUOUS
 66
1
 70
0
  0
VERTEX
  8
0
 62
7
  6
CONTINUOUS
 10
374.0094651989
 20
153.6921402136
  0
VERTEX
  8
0
 62
7
  6
CONTINUOUS
 10
373.9709399346
 20
151.5792312241
  0
VERTEX
  8
0
 62
7
  6
CONTINUOUS
 10
373.9277774862
 20
149.3315090718
  0
VERTEX
  8
0
 62
7
  6
CONTINUOUS
 10
373.8792905081
 20
146.9346952518
  0
VERTEX
  8
0
 62
7
  6
CONTINUOUS
 10
373.8257055035
 20
144.4200923786
  0
VERTEX
  8
0
 62
7
  6
CONTINUOUS
 10
373.7620099056
 20
141.5863994315
  0
VERTEX
  8
0
 62
7
  6
CONTINUOUS
 10
373.6860344131
 20
138.3922200006
  0
VERTEX
  8
0
 62
7
  6
CONTINUOUS
 10
373.59587142
 20
134.8202421583
  0
VERTEX
  8
0
 62
7
  6
CONTINUOUS
 10
373.4872774654
 20
130.7781163114
  0
VERTEX
  8
0
 62
7
  6
CONTINUOUS
 10
373.3562906357
 20
126.2113343578
  0
VERTEX
  8
0
 62
7
  6
CONTINUOUS
 10
373.1990457004
 20
121.0898668891
  0
VERTEX
  8
0
 62
7
  6
CONTINUOUS
 10
373.0082989775
 20
115.3005039589
  0
VERTEX
  8
0
 62
7
  6
CONTINUOUS
 10
372.7881039349
 20
109.0770282573
  0
VERTEX
  8
0
 62
7
  6
CONTINUOUS
 10
372.5558923143
 20
102.9407483913
  0
VERTEX
  8
0
 62
7
  6
CONTINUOUS
 10
372.3189425113
 20
97.0423173955
  0
VERTEX
  8
0
 62
7
  6
CONTINUOUS
 10
372.0815829632
 20
91.4329773993
  0
VERTEX
  8
0
 62
7
  6
CONTINUOUS
 10
371.8423746994
 20
86.0317959168
  0
VERTEX
  8
0
 62
7
  6
CONTINUOUS
 10
371.5999888864
 20
80.7768606848
  0
VERTEX
  8
0
 62
7
  6
CONTINUOUS
 10
371.3534773648
 20
75.6252033099
  0
VERTEX
  8
0
 62
7
  6
CONTINUOUS
 10
371.1039932651
 20
70.5826266842
  0
VERTEX
  8
0
 62
7
  6
CONTINUOUS
 10
370.8469406838
 20
65.544157821
  0
VERTEX
  8
0
 62
7
  6
CONTINUOUS
 10
370.5754648919
 20
60.3746595793
  0
VERTEX
  8
0
 62
7
  6
CONTINUOUS
 10
370.2797149773
 20
54.8987325228
  0
VERTEX
  8
0
 62
7
  6
CONTINUOUS
 10
369.9472326027
 20
48.9162901572
  0
VERTEX
  8
0
 62
7
  6
CONTINUOUS
 10
369.5605602658
 20
42.1673071273
  0
VERTEX
  8
0
 62
7
  6
CONTINUOUS
 10
369.1032689398
 20
34.4447517342
  0
VERTEX
  8
0
 62
7
  6
CONTINUOUS
 10
368.5617432207
 20
25.6213013406
  0
VERTEX
  8
0
 62
7
  6
CONTINUOUS
 10
367.9230768371
 20
15.6079580145
  0
VERTEX
  8
0
 62
7
  6
CONTINUOUS
 10
367.1790504828
 20
4.4091011949
  0
VERTEX
  8
0
 62
7
  6
CONTINUOUS
 10
366.3274724376
 20
-7.8682998574
  0
VERTEX
  8
0
 62
7
  6
CONTINUOUS
 10
365.4958850296
 20
-19.3656744305
  0
VERTEX
  8
0
 62
7
  6
CONTINUOUS
 10
364.7385904018
 20
-29.4592512884
  0
VERTEX
  8
0
 62
7
  6
CONTINUOUS
 10
364.0502314675
 20
-38.3527039971
  0
VERTEX
  8
0
 62
7
  6
CONTINUOUS
 10
363.4330424225
 20
-46.120857592
  0
VERTEX
  8
0
 62
7
  6
CONTINUOUS
 10
362.8809081708
 20
-52.920546444
  0
VERTEX
  8
0
 62
7
  6
CONTINUOUS
 10
362.379674443
 20
-58.9807632755
  0
VERTEX
  8
0
 62
7
  6
CONTINUOUS
 10
361.9203400529
 20
-64.4468485683
  0
VERTEX
  8
0
 62
7
  6
CONTINUOUS
 10
361.4816328271
 20
-69.5941916069
  0
VERTEX
  8
0
 62
7
  6
CONTINUOUS
 10
361.0632060308
 20
-74.4406956564
  0
VERTEX
  8
0
 62
7
  6
CONTINUOUS
 10
360.6889589417
 20
-78.7261816447
  0
VERTEX
  8
0
 62
7
  6
CONTINUOUS
 10
360.3565735401
 20
-82.495557545
  0
VERTEX
  8
0
 62
7
  6
CONTINUOUS
 10
360.0394309271
 20
-86.0626495966
  0
VERTEX
  8
0
 62
7
  6
CONTINUOUS
 10
359.7593887501
 20
-89.1906437215
  0
VERTEX
  8
0
 62
7
  6
CONTINUOUS
 10
359.4692760104
 20
-92.4113975552
  0
VERTEX
  8
0
 62
7
  6
CONTINUOUS
 10
359.1968817693
 20
-95.4187042898
  0
VERTEX
  8
0
 62
7
  6
CONTINUOUS
 10
358.9292525867
 20
-98.3589652049
  0
VERTEX
  8
0
 62
7
  6
CONTINUOUS
 10
358.651761159
 20
-101.3937937984
  0
VERTEX
  8
0
 62
7
  6
CONTINUOUS
 10
358.3933759967
 20
-104.208194125
  0
VERTEX
  8
0
 62
7
  6
CONTINUOUS
 10
358.1141220901
 20
-107.2386770167
  0
VERTEX
  8
0
 62
7
  6
CONTINUOUS
 10
357.8434678925
 20
-110.1658550959
  0
VERTEX
  8
0
 62
7
  6
CONTINUOUS
 10
357.5794730364
 20
-113.0126069531
  0
VERTEX
  8
0
 62
7
  6
CONTINUOUS
 10
357.2938842821
 20
-116.08402048
  0
VERTEX
  8
0
 62
7
  6
CONTINUOUS
 10
357.017407461
 20
-119.0504444093
  0
VERTEX
  8
0
 62
7
  6
CONTINUOUS
 10
356.7442261346
 20
-121.9758183599
  0
VERTEX
  8
0
 62
7
  6
CONTINUOUS
 10
356.4502034126
 20
-125.1192185405
  0
VERTEX
  8
0
 62
7
  6
CONTINUOUS
 10
356.154848376
 20
-128.2725670152
  0
VERTEX
  8
0
 62
7
  6
CONTINUOUS
 10
355.8610202439
 20
-131.4062820455
  0
VERTEX
  8
0
 62
7
  6
CONTINUOUS
 10
355.5627722346
 20
-134.5846821287
  0
VERTEX
  8
0
 62
7
  6
CONTINUOUS
 10
355.227430656
 20
-138.1566102177
  0
VERTEX
  8
0
 62
7
  6
CONTINUOUS
 10
354.8738041956
 20
-141.9226957991
  0
VERTEX
  8
0
 62
7
  6
CONTINUOUS
 10
354.5401557406
 20
-145.476836961
  0
VERTEX
  8
0
 62
7
  6
CONTINUOUS
 10
354.1596698357
 20
-149.5325994971
  0
VERTEX
  8
0
 62
7
  6
CONTINUOUS
 10
353.7558818862
 20
-153.8419990249
  0
VERTEX
  8
0
 62
7
  6
CONTINUOUS
 10
353.3705715631
 20
-157.961382789
  0
VERTEX
  8
0
 62
7
  6
CONTINUOUS
 10
352.9337518411
 20
-162.6426430871
  0
VERTEX
  8
0
 62
7
  6
CONTINUOUS
 10
352.4832203326
 20
-167.4864569436
  0
VERTEX
  8
0
 62
7
  6
CONTINUOUS
 10
352.0339530657
 20
-172.3336982328
  0
VERTEX
  8
0
 62
7
  6
CONTINUOUS
 10
351.5583153032
 20
-177.4814074829
  0
VERTEX
  8
0
 62
7
  6
CONTINUOUS
 10
351.1051338868
 20
-182.3984464087
  0
VERTEX
  8
0
 62
7
  6
CONTINUOUS
 10
350.6880275112
 20
-186.9322349849
  0
VERTEX
  8
0
 62
7
  6
CONTINUOUS
 10
350.3238015034
 20
-190.8958009935
  0
VERTEX
  8
0
 62
7
  6
CONTINUOUS
 10
349.9573914382
 20
-194.8858044046
  0
VERTEX
  8
0
 62
7
  6
CONTINUOUS
 10
349.575647409
 20
-199.0439391091
  0
VERTEX
  8
0
 62
7
  6
CONTINUOUS
 10
349.2435441911
 20
-202.6609473458
  0
VERTEX
  8
0
 62
7
  6
CONTINUOUS
 10
348.9155905825
 20
-206.231172888
  0
VERTEX
  8
0
 62
7
  6
CONTINUOUS
 10
348.5874123068
 20
-209.8011149924
  0
VERTEX
  8
0
 62
7
  6
CONTINUOUS
 10
348.2885797348
 20
-213.0481995192
  0
VERTEX
  8
0
 62
7
  6
CONTINUOUS
 10
348.0047136286
 20
-216.1280967413
  0
VERTEX
  8
0
 62
7
  6
CONTINUOUS
 10
347.7191982717
 20
-219.2201344571
  0
VERTEX
  8
0
 62
7
  6
CONTINUOUS
 10
347.4544336016
 20
-222.0812202333
  0
VERTEX
  8
0
 62
7
  6
CONTINUOUS
 10
347.2085739047
 20
-224.7317857236
  0
VERTEX
  8
0
 62
7
  6
CONTINUOUS
 10
346.9713179468
 20
-227.2831848722
  0
VERTEX
  8
0
 62
7
  6
CONTINUOUS
 10
346.7283734906
 20
-229.8885362489
  0
VERTEX
  8
0
 62
7
  6
CONTINUOUS
 10
346.4912008837
 20
-232.4242904347
  0
VERTEX
  8
0
 62
7
  6
CONTINUOUS
 10
346.2761377146
 20
-234.716560068
  0
VERTEX
  8
0
 62
7
  6
CONTINUOUS
 10
346.0446610363
 20
-237.1757009713
  0
VERTEX
  8
0
 62
7
  6
CONTINUOUS
 10
345.7920055496
 20
-239.8496686498
  0
VERTEX
  8
0
 62
7
  6
CONTINUOUS
 10
345.5601349333
 20
-242.2937615768
  0
VERTEX
  8
0
 62
7
  6
CONTINUOUS
 10
345.3078924425
 20
-244.9412336855
  0
VERTEX
  8
0
 62
7
  6
CONTINUOUS
 10
345.0481857384
 20
-247.6540601125
  0
VERTEX
  8
0
 62
7
  6
CONTINUOUS
 10
344.8009990813
 20
-250.2232963071
  0
VERTEX
  8
0
 62
7
  6
CONTINUOUS
 10
344.5165865867
 20
-253.1633437081
  0
VERTEX
  8
0
 62
7
  6
CONTINUOUS
 10
344.2207921047
 20
-256.2021461617
  0
VERTEX
  8
0
 62
7
  6
CONTINUOUS
 10
343.8958480213
 20
-259.5175041653
  0
VERTEX
  8
0
 62
7
  6
CONTINUOUS
 10
343.5549978419
 20
-262.9686243704
  0
VERTEX
  8
0
 62
7
  6
CONTINUOUS
 10
343.2002586075
 20
-266.530753351
  0
VERTEX
  8
0
 62
7
  6
CONTINUOUS
 10
342.8409872269
 20
-270.1068648341
  0
VERTEX
  8
0
 62
7
  6
CONTINUOUS
 10
342.4932007591
 20
-273.5378188573
  0
VERTEX
  8
0
 62
7
  6
CONTINUOUS
 10
342.1152589981
 20
-277.2312620088
  0
VERTEX
  8
0
 62
7
  6
CONTINUOUS
 10
341.6952120511
 20
-281.2927729141
  0
VERTEX
  8
0
 62
7
  6
CONTINUOUS
 10
341.2964219543
 20
-285.1059444382
  0
VERTEX
  8
0
 62
7
  6
CONTINUOUS
 10
340.9429477333
 20
-288.4506446517
  0
VERTEX
  8
0
 62
7
  6
CONTINUOUS
 10
340.6292748762
 20
-291.390893041
  0
VERTEX
  8
0
 62
7
  6
CONTINUOUS
 10
340.3310451356
 20
-294.1621009743
  0
VERTEX
  8
0
 62
7
  6
CONTINUOUS
 10
340.0396090359
 20
-296.8488658783
  0
SEQEND
  0
POLYLINE
  8
0
 62
7
  6
CONTINUOUS
 66
1
 70
0
  0
VERTEX
  8
0
 62
7
  6
CONTINUOUS
 10
-10.947109377
 20
563.6921335473
  0
VERTEX
  8
0
 62
7
  6
CONTINUOUS
 10
-11.089799994
 20
563.6900922893
  0
VERTEX
  8
0
 62
7
  6
CONTINUOUS
 10
-11.2324368855
 20
563.6839740615
  0
VERTEX
  8
0
 62
7
  6
CONTINUOUS
 10
-11.3748825126
 20
563.6737871837
  0
VERTEX
  8
0
 62
7
  6
CONTINUOUS
 10
-11.5169993363
 20
563.6595399755
  0
VERTEX
  8
0
 62
7
  6
CONTINUOUS
 10
-11.6586498176
 20
563.6412407567
  0
VERTEX
  8
0
 62
7
  6
CONTINUOUS
 10
-11.7997015716
 20
563.6189005455
  0
VERTEX
  8
0
 62
7
  6
CONTINUOUS
 10
-11.9400412218
 20
563.5925414169
  0
VERTEX
  8
0
 62
7
  6
CONTINUOUS
 10
-12.0795605479
 20
563.5621881597
  0
VERTEX
  8
0
 62
7
  6
CONTINUOUS
 10
-12.2181513296
 20
563.5278655629
  0
VERTEX
  8
0
 62
7
  6
CONTINUOUS
 10
-12.3557053467
 20
563.4895984154
  0
VERTEX
  8
0
 62
7
  6
CONTINUOUS
 10
-12.4921144529
 20
563.4474140057
  0
VERTEX
  8
0
 62
7
  6
CONTINUOUS
 10
-12.6272678149
 20
563.4013505586
  0
VERTEX
  8
0
 62
7
  6
CONTINUOUS
 10
-12.7610546814
 20
563.3514488273
  0
VERTEX
  8
0
 62
7
  6
CONTINUOUS
 10
-12.8933643015
 20
563.2977495647
  0
VERTEX
  8
0
 62
7
  6
CONTINUOUS
 10
-13.0240859239
 20
563.2402935241
  0
VERTEX
  8
0
 62
7
  6
CONTINUOUS
 10
-13.1531109266
 20
563.1791236584
  0
VERTEX
  8
0
 62
7
  6
CONTINUOUS
 10
-13.2803352618
 20
563.114293612
  0
VERTEX
  8
0
 62
7
  6
CONTINUOUS
 10
-13.405657028
 20
563.0458592672
  0
VERTEX
  8
0
 62
7
  6
CONTINUOUS
 10
-13.528974324
 20
562.9738765063
  0
VERTEX
  8
0
 62
7
  6
CONTINUOUS
 10
-13.6501852482
 20
562.8984012115
  0
VERTEX
  8
0
 62
7
  6
CONTINUOUS
 10
-13.7691900364
 20
562.8194911037
  0
VERTEX
  8
0
 62
7
  6
CONTINUOUS
 10
-13.8858931022
 20
562.7372141863
  0
VERTEX
  8
0
 62
7
  6
CONTINUOUS
 10
-14.0002010233
 20
562.6516403435
  0
VERTEX
  8
0
 62
7
  6
CONTINUOUS
 10
-14.1120203775
 20
562.5628394598
  0
VERTEX
  8
0
 62
7
  6
CONTINUOUS
 10
-14.2212577427
 20
562.4708814191
  0
VERTEX
  8
0
 62
7
  6
CONTINUOUS
 10
-14.327822239
 20
562.3758375488
  0
VERTEX
  8
0
 62
7
  6
CONTINUOUS
 10
-14.4316289015
 20
562.277788779
  0
VERTEX
  8
0
 62
7
  6
CONTINUOUS
 10
-14.5325953435
 20
562.1768175242
  0
VERTEX
  8
0
 62
7
  6
CONTINUOUS
 10
-14.630639178
 20
562.0730061987
  0
VERTEX
  8
0
 62
7
  6
CONTINUOUS
 10
-14.7256780184
 20
561.9664372171
  0
VERTEX
  8
0
 62
7
  6
CONTINUOUS
 10
-14.8176321712
 20
561.8571940924
  0
VERTEX
  8
0
 62
7
  6
CONTINUOUS
 10
-14.9064290504
 20
561.745369131
  0
VERTEX
  8
0
 62
7
  6
CONTINUOUS
 10
-14.9919988047
 20
561.6310557737
  0
VERTEX
  8
0
 62
7
  6
CONTINUOUS
 10
-15.0742715827
 20
561.5143474613
  0
VERTEX
  8
0
 62
7
  6
CONTINUOUS
 10
-15.153177533
 20
561.3953376346
  0
VERTEX
  8
0
 62
7
  6
CONTINUOUS
 10
-15.2286495909
 20
561.2741203946
  0
VERTEX
  8
0
 62
7
  6
CONTINUOUS
 10
-15.3006290785
 20
561.1507969632
  0
VERTEX
  8
0
 62
7
  6
CONTINUOUS
 10
-15.3690601468
 20
561.0254692496
  0
VERTEX
  8
0
 62
7
  6
CONTINUOUS
 10
-15.4338869467
 20
560.8982391629
  0
VERTEX
  8
0
 62
7
  6
CONTINUOUS
 10
-15.4950536293
 20
560.7692086124
  0
VERTEX
  8
0
 62
7
  6
CONTINUOUS
 10
-15.5525071498
 20
560.638480309
  0
VERTEX
  8
0
 62
7
  6
CONTINUOUS
 10
-15.6062039413
 20
560.5061641814
  0
VERTEX
  8
0
 62
7
  6
CONTINUOUS
 10
-15.6561032792
 20
560.3723709774
  0
VERTEX
  8
0
 62
7
  6
CONTINUOUS
 10
-15.7021644389
 20
560.2372114449
  0
VERTEX
  8
0
 62
7
  6
CONTINUOUS
 10
-15.7443466958
 20
560.1007963316
  0
VERTEX
  8
0
 62
7
  6
CONTINUOUS
 10
-15.7826121168
 20
559.963235458
  0
VERTEX
  8
0
 62
7
  6
CONTINUOUS
 10
-15.8169331119
 20
559.8246379526
  0
VERTEX
  8
0
 62
7
  6
CONTINUOUS
 10
-15.8472849115
 20
559.6851120246
  0
VERTEX
  8
0
 62
7
  6
CONTINUOUS
 10
-15.8736427456
 20
559.5447658835
  0
VERTEX
  8
0
 62
7
  6
CONTINUOUS
 10
-15.8959818445
 20
559.4037077387
  0
VERTEX
  8
0
 62
7
  6
CONTINUOUS
 10
-15.9142802123
 20
559.2620504147
  0
VERTEX
  8
0
 62
7
  6
CONTINUOUS
 10
-15.9285267468
 20
559.1199268138
  0
VERTEX
  8
0
 62
7
  6
CONTINUOUS
 10
-15.9387131351
 20
558.9774744558
  0
VERTEX
  8
0
 62
7
  6
CONTINUOUS
 10
-15.9448310642
 20
558.8348308604
  0
VERTEX
  8
0
 62
7
  6
CONTINUOUS
 10
-15.9468722212
 20
558.6921335473
  0
SEQEND
  0
LINE
  8
0
 62
7
  6
CONTINUOUS
 10
182.1446817046
 20
615.2022824501
 11
182.0440653935
 21
615.1723749182
  0
POLYLINE
  8
0
 62
7
  6
CONTINUOUS
 66
1
 70
0
  0
VERTEX
  8
0
 62
7
  6
CONTINUOUS
 10
155.7925202972
 20
608.8151180646
  0
VERTEX
  8
0
 62
7
  6
CONTINUOUS
 10
155.7586068159
 20
608.805422431
  0
VERTEX
  8
0
 62
7
  6
CONTINUOUS
 10
155.713205937
 20
608.7909020426
  0
VERTEX
  8
0
 62
7
  6
CONTINUOUS
 10
155.666566059
 20
608.7739474797
  0
SEQEND
  0
LINE
  8
0
 62
7
  6
CONTINUOUS
 10
27.2522359923
 20
-301.3080606069
 11
338.3779184454
 21
-301.3080606069
  0
POLYLINE
  8
0
 62
7
  6
CONTINUOUS
 66
1
 70
0
  0
VERTEX
  8
0
 62
7
  6
CONTINUOUS
 10
155.666566059
 20
608.7739474797
  0
VERTEX
  8
0
 62
7
  6
CONTINUOUS
 10
155.6149364702
 20
608.7525019564
  0
VERTEX
  8
0
 62
7
  6
CONTINUOUS
 10
155.5564610123
 20
608.724430095
  0
VERTEX
  8
0
 62
7
  6
CONTINUOUS
 10
155.4894035445
 20
608.6866536553
  0
VERTEX
  8
0
 62
7
  6
CONTINUOUS
 10
155.4118862186
 20
608.6343337043
  0
VERTEX
  8
0
 62
7
  6
CONTINUOUS
 10
155.3280844818
 20
608.565007796
  0
SEQEND
  0
POLYLINE
  8
0
 62
7
  6
CONTINUOUS
 66
1
 70
0
  0
VERTEX
  8
0
 62
7
  6
CONTINUOUS
 10
155.3280854941
 20
608.5650087276
  0
VERTEX
  8
0
 62
7
  6
CONTINUOUS
 10
155.2798249081
 20
608.517550768
  0
VERTEX
  8
0
 62
7
  6
CONTINUOUS
 10
155.2012630612
 20
608.4244499541
  0
VERTEX
  8
0
 62
7
  6
CONTINUOUS
 10
155.125850958
 20
608.3073957968
  0
VERTEX
  8
0
 62
7
  6
CONTINUOUS
 10
155.0613518301
 20
608.1653996615
  0
SEQEND
  0
LINE
  8
0
 62
7
  6
CONTINUOUS
 10
164.3080614065
 20
613.8068293196
 11
161.6749865526
 21
610.4104606827
  0
LINE
  8
0
 62
7
  6
CONTINUOUS
 10
174.7351156761
 20
610.9715815491
 11
174.1525003335
 21
609.9745465464
  0
POLYLINE
  8
0
 62
7
  6
CONTINUOUS
 66
1
 70
0
  0
VERTEX
  8
0
 62
7
  6
CONTINUOUS
 10
176.3323801871
 20
613.6751551296
  0
VERTEX
  8
0
 62
7
  6
CONTINUOUS
 10
175.8250556029
 20
612.8218858407
  0
VERTEX
  8
0
 62
7
  6
CONTINUOUS
 10
175.2926340992
 20
611.9206946472
  0
VERTEX
  8
0
 62
7
  6
CONTINUOUS
 10
174.7351156761
 20
610.9715815491
  0
SEQEND
  0
LINE
  8
0
 62
7
  6
CONTINUOUS
 10
-18.144164275
 20
591.9854285681
 11
-18.5492304765
 21
568.7792014253
  0
POLYLINE
  8
0
 62
7
  6
CONTINUOUS
 66
1
 70
0
  0
VERTEX
  8
0
 62
7
  6
CONTINUOUS
 10
-8.3794835555
 20
153.692005995
  0
VERTEX
  8
0
 62
7
  6
CONTINUOUS
 10
-7.9650036685
 20
134.7604862512
  0
VERTEX
  8
0
 62
7
  6
CONTINUOUS
 10
-7.3910479432
 20
115.6660441566
  0
VERTEX
  8
0
 62
7
  6
CONTINUOUS
 10
-6.6230174858
 20
95.4607776246
  0
VERTEX
  8
0
 62
7
  6
CONTINUOUS
 10
-6.3798795155
 20
89.7913566008
  0
SEQEND
  0
POLYLINE
  8
0
 62
7
  6
CONTINUOUS
 66
1
 70
0
  0
VERTEX
  8
0
 62
7
  6
CONTINUOUS
 10
-15.9470214163
 20
558.6024551188
  0
VERTEX
  8
0
 62
7
  6
CONTINUOUS
 10
-15.1126902197
 20
511.9935586263
  0
VERTEX
  8
0
 62
7
  6
CONTINUOUS
 10
-14.9065234144
 20
500.4755445605
  0
VERTEX
  8
0
 62
7
  6
CONTINUOUS
 10
-13.8700091629
 20
442.1235593721
  0
VERTEX
  8
0
 62
7
  6
CONTINUOUS
 10
-13.4138751484
 20
416.182185607
  0
VERTEX
  8
0
 62
7
  6
CONTINUOUS
 10
-13.4654150461
 20
419.1215357971
  0
VERTEX
  8
0
 62
7
  6
CONTINUOUS
 10
-13.3080084017
 20
410.1377809561
  0
VERTEX
  8
0
 62
7
  6
CONTINUOUS
 10
-13.1203417055
 20
399.4011977363
  0
VERTEX
  8
0
 62
7
  6
CONTINUOUS
 10
-12.8103873057
 20
381.6064567579
  0
VERTEX
  8
0
 62
7
  6
CONTINUOUS
 10
-12.4723378511
 20
362.1100401229
  0
SEQEND
  0
POLYLINE
  8
0
 62
7
  6
CONTINUOUS
 66
1
 70
0
  0
VERTEX
  8
0
 62
7
  6
CONTINUOUS
 10
-12.4723378511
 20
362.1100401229
  0
VERTEX
  8
0
 62
7
  6
CONTINUOUS
 10
-9.5759491021
 20
194.7320163829
  0
VERTEX
  8
0
 62
7
  6
CONTINUOUS
 10
-9.2440696532
 20
175.5535215023
  0
SEQEND
  0
POLYLINE
  8
0
 62
7
  6
CONTINUOUS
 66
1
 70
0
  0
VERTEX
  8
0
 62
7
  6
CONTINUOUS
 10
-8.4770503555
 20
159.5671665984
  0
VERTEX
  8
0
 62
7
  6
CONTINUOUS
 10
-8.4621665179
 20
158.6216237286
  0
VERTEX
  8
0
 62
7
  6
CONTINUOUS
 10
-8.444828658
 20
157.5424278235
  0
VERTEX
  8
0
 62
7
  6
CONTINUOUS
 10
-8.4276258253
 20
156.4954816445
  0
VERTEX
  8
0
 62
7
  6
CONTINUOUS
 10
-8.4105347426
 20
155.4789307844
  0
VERTEX
  8
0
 62
7
  6
CONTINUOUS
 10
-8.3936596981
 20
154.4982558029
  0
VERTEX
  8
0
 62
7
  6
CONTINUOUS
 10
-8.379481098
 20
153.6918680188
  0
SEQEND
  0
POLYLINE
  8
0
 62
7
  6
CONTINUOUS
 66
1
 70
0
  0
VERTEX
  8
0
 62
7
  6
CONTINUOUS
 10
-4.4906583128
 20
168.3826147564
  0
VERTEX
  8
0
 62
7
  6
CONTINUOUS
 10
-4.4938937085
 20
168.1260320331
  0
VERTEX
  8
0
 62
7
  6
CONTINUOUS
 10
-4.5017872869
 20
167.439170834
  0
VERTEX
  8
0
 62
7
  6
CONTINUOUS
 10
-4.5086815018
 20
166.7729362176
  0
VERTEX
  8
0
 62
7
  6
CONTINUOUS
 10
-4.5102710154
 20
166.5995849931
  0
SEQEND
  0
POLYLINE
  8
0
 62
7
  6
CONTINUOUS
 66
1
 70
0
  0
VERTEX
  8
0
 62
7
  6
CONTINUOUS
 10
182.5747747789
 20
615.467157014
  0
VERTEX
  8
0
 62
7
  6
CONTINUOUS
 10
182.5701732376
 20
615.440921104
  0
VERTEX
  8
0
 62
7
  6
CONTINUOUS
 10
182.5557084344
 20
615.4133581122
  0
VERTEX
  8
0
 62
7
  6
CONTINUOUS
 10
182.5301991316
 20
615.3842702363
  0
VERTEX
  8
0
 62
7
  6
CONTINUOUS
 10
182.4932256938
 20
615.3542951152
  0
VERTEX
  8
0
 62
7
  6
CONTINUOUS
 10
182.4450653574
 20
615.3239610065
  0
VERTEX
  8
0
 62
7
  6
CONTINUOUS
 10
182.3857462681
 20
615.2933968777
  0
VERTEX
  8
0
 62
7
  6
CONTINUOUS
 10
182.3158079463
 20
615.2628937481
  0
VERTEX
  8
0
 62
7
  6
CONTINUOUS
 10
182.235364703
 20
615.2324888518
  0
VERTEX
  8
0
 62
7
  6
CONTINUOUS
 10
182.1446817046
 20
615.2022824501
  0
SEQEND
  0
LINE
  8
0
 62
7
  6
CONTINUOUS
 10
182.0747747789
 20
615.1815030796
 11
182.0747747789
 21
616.065978451
  0
LINE
  8
0
 62
7
  6
CONTINUOUS
 10
182.5747747789
 20
616.2691576741
 11
182.5747747789
 21
615.4671569334
  0
POLYLINE
  8
0
 62
7
  6
CONTINUOUS
 66
1
 70
0
  0
VERTEX
  8
0
 62
7
  6
CONTINUOUS
 10
366.8842357321
 20
167.6919602404
  0
VERTEX
  8
0
 62
7
  6
CONTINUOUS
 10
367.3677760069
 20
167.7071223123
  0
VERTEX
  8
0
 62
7
  6
CONTINUOUS
 10
367.8495121623
 20
167.7514836326
  0
VERTEX
  8
0
 62
7
  6
CONTINUOUS
 10
368.3276813015
 20
167.8248810919
  0
VERTEX
  8
0
 62
7
  6
CONTINUOUS
 10
368.8005394763
 20
167.9270465174
  0
VERTEX
  8
0
 62
7
  6
CONTINUOUS
 10
369.2663618558
 20
168.0576076094
  0
VERTEX
  8
0
 62
7
  6
CONTINUOUS
 10
369.7234436161
 20
168.2160872116
  0
VERTEX
  8
0
 62
7
  6
CONTINUOUS
 10
370.1701134976
 20
168.4019064719
  0
VERTEX
  8
0
 62
7
  6
CONTINUOUS
 10
370.6047372506
 20
168.6143861274
  0
VERTEX
  8
0
 62
7
  6
CONTINUOUS
 10
371.0257251501
 20
168.8527495319
  0
VERTEX
  8
0
 62
7
  6
CONTINUOUS
 10
371.4315364633
 20
169.116124749
  0
VERTEX
  8
0
 62
7
  6
CONTINUOUS
 10
371.8206860676
 20
169.4035481146
  0
VERTEX
  8
0
 62
7
  6
CONTINUOUS
 10
372.1917507379
 20
169.7139685062
  0
VERTEX
  8
0
 62
7
  6
CONTINUOUS
 10
372.5433731042
 20
170.0462503922
  0
VERTEX
  8
0
 62
7
  6
CONTINUOUS
 10
372.8742673503
 20
170.3991786278
  0
VERTEX
  8
0
 62
7
  6
CONTINUOUS
 10
373.1832233172
 20
170.7714624045
  0
VERTEX
  8
0
 62
7
  6
CONTINUOUS
 10
373.4691112896
 20
171.1617403779
  0
VERTEX
  8
0
 62
7
  6
CONTINUOUS
 10
373.7308858516
 20
171.568585379
  0
VERTEX
  8
0
 62
7
  6
CONTINUOUS
 10
373.9675897
 20
171.9905095794
  0
VERTEX
  8
0
 62
7
  6
CONTINUOUS
 10
374.1783572344
 20
172.4259700578
  0
VERTEX
  8
0
 62
7
  6
CONTINUOUS
 10
374.3624176471
 20
172.87337429
  0
VERTEX
  8
0
 62
7
  6
CONTINUOUS
 10
374.5190978175
 20
173.3310860974
  0
VERTEX
  8
0
 62
7
  6
CONTINUOUS
 10
374.647824756
 20
173.7974315994
  0
VERTEX
  8
0
 62
7
  6
CONTINUOUS
 10
374.7481277034
 20
174.2707053421
  0
VERTEX
  8
0
 62
7
  6
CONTINUOUS
 10
374.8196398514
 20
174.7491765334
  0
VERTEX
  8
0
 62
7
  6
CONTINUOUS
 10
374.8620996841
 20
175.2310953658
  0
VERTEX
  8
0
 62
7
  6
CONTINUOUS
 10
374.8741867755
 20
175.5535226238
  0
SEQEND
  0
POLYLINE
  8
0
 62
7
  6
CONTINUOUS
 66
1
 70
0
  0
VERTEX
  8
0
 62
7
  6
CONTINUOUS
 10
-1.1514238651
 20
167.6635353301
  0
VERTEX
  8
0
 62
7
  6
CONTINUOUS
 10
-1.5843192984
 20
167.6150652721
  0
VERTEX
  8
0
 62
7
  6
CONTINUOUS
 10
-2.0139732684
 20
167.5430927241
  0
VERTEX
  8
0
 62
7
  6
CONTINUOUS
 10
-2.4390991177
 20
167.4478228813
  0
VERTEX
  8
0
 62
7
  6
CONTINUOUS
 10
-2.8584325346
 20
167.3295536684
  0
VERTEX
  8
0
 62
7
  6
CONTINUOUS
 10
-3.2707212362
 20
167.1886355795
  0
VERTEX
  8
0
 62
7
  6
CONTINUOUS
 10
-3.6747284578
 20
167.0254675026
  0
VERTEX
  8
0
 62
7
  6
CONTINUOUS
 10
-4.0692524596
 20
166.8405531398
  0
VERTEX
  8
0
 62
7
  6
CONTINUOUS
 10
-4.4531043042
 20
166.6344203957
  0
VERTEX
  8
0
 62
7
  6
CONTINUOUS
 10
-4.8251516721
 20
166.4077076885
  0
VERTEX
  8
0
 62
7
  6
CONTINUOUS
 10
-5.184311395
 20
166.1611144664
  0
VERTEX
  8
0
 62
7
  6
CONTINUOUS
 10
-5.5294994566
 20
165.8953458907
  0
VERTEX
  8
0
 62
7
  6
CONTINUOUS
 10
-5.8596862307
 20
165.611176643
  0
VERTEX
  8
0
 62
7
  6
CONTINUOUS
 10
-6.1739012507
 20
165.3094583628
  0
VERTEX
  8
0
 62
7
  6
CONTINUOUS
 10
-6.4712165548
 20
164.9911026262
  0
VERTEX
  8
0
 62
7
  6
CONTINUOUS
 10
-6.7507608595
 20
164.657064792
  0
VERTEX
  8
0
 62
7
  6
CONTINUOUS
 10
-7.0116789618
 20
164.3083296334
  0
VERTEX
  8
0
 62
7
  6
CONTINUOUS
 10
-7.2532076939
 20
163.9459581185
  0
VERTEX
  8
0
 62
7
  6
CONTINUOUS
 10
-7.4746197727
 20
163.5710243149
  0
VERTEX
  8
0
 62
7
  6
CONTINUOUS
 10
-7.6752634976
 20
163.1846610912
  0
VERTEX
  8
0
 62
7
  6
CONTINUOUS
 10
-7.8546051134
 20
162.7880057682
  0
VERTEX
  8
0
 62
7
  6
CONTINUOUS
 10
-8.0121047191
 20
162.3822105451
  0
VERTEX
  8
0
 62
7
  6
CONTINUOUS
 10
-8.1472809441
 20
161.968435322
  0
VERTEX
  8
0
 62
7
  6
CONTINUOUS
 10
-8.2597609201
 20
161.5478883047
  0
VERTEX
  8
0
 62
7
  6
CONTINUOUS
 10
-8.3491914307
 20
161.1217839178
  0
VERTEX
  8
0
 62
7
  6
CONTINUOUS
 10
-8.4153259075
 20
160.6913583216
  0
VERTEX
  8
0
 62
7
  6
CONTINUOUS
 10
-8.4579752544
 20
160.257863533
  0
VERTEX
  8
0
 62
7
  6
CONTINUOUS
 10
-8.476950744
 20
159.8225395221
  0
VERTEX
  8
0
 62
7
  6
CONTINUOUS
 10
-8.477031306
 20
159.5671836688
  0
SEQEND
  0
POLYLINE
  8
0
 62
7
  6
CONTINUOUS
 66
1
 70
0
  0
VERTEX
  8
0
 62
7
  6
CONTINUOUS
 10
-0.4779151904
 20
167.6919298307
  0
VERTEX
  8
0
 62
7
  6
CONTINUOUS
 10
-0.7165831728
 20
167.6883651127
  0
VERTEX
  8
0
 62
7
  6
CONTINUOUS
 10
-1.1514238651
 20
167.6635353301
  0
SEQEND
  0
LINE
  8
0
 62
7
  6
CONTINUOUS
 10
366.8771055001
 20
167.6919397154
 11
-1.2452562252
 21
167.6919393931
  0
POLYLINE
  8
0
 62
7
  6
CONTINUOUS
 66
1
 70
0
  0
VERTEX
  8
0
 62
7
  6
CONTINUOUS
 10
366.781345956
 20
167.6635534378
  0
VERTEX
  8
0
 62
7
  6
CONTINUOUS
 10
366.3464849282
 20
167.6883719505
  0
VERTEX
  8
0
 62
7
  6
CONTINUOUS
 10
366.1080519054
 20
167.6919296562
  0
SEQEND
  0
LINE
  8
0
 62
7
  6
CONTINUOUS
 10
367.2142606568
 20
167.6150926131
 11
366.781345956
 21
167.6635534378
  0
POLYLINE
  8
0
 62
7
  6
CONTINUOUS
 66
1
 70
0
  0
VERTEX
  8
0
 62
7
  6
CONTINUOUS
 10
370.1404062339
 20
166.5995839795
  0
VERTEX
  8
0
 62
7
  6
CONTINUOUS
 10
370.1381492848
 20
166.8410617176
  0
VERTEX
  8
0
 62
7
  6
CONTINUOUS
 10
370.1318364734
 20
167.4472038169
  0
VERTEX
  8
0
 62
7
  6
CONTINUOUS
 10
370.1246945193
 20
168.0705692951
  0
VERTEX
  8
0
 62
7
  6
CONTINUOUS
 10
370.1208184963
 20
168.3813992448
  0
SEQEND
  0
POLYLINE
  8
0
 62
7
  6
CONTINUOUS
 66
1
 70
0
  0
VERTEX
  8
0
 62
7
  6
CONTINUOUS
 10
374.1071679387
 20
159.5671826003
  0
VERTEX
  8
0
 62
7
  6
CONTINUOUS
 10
374.1070910994
 20
159.8223229085
  0
VERTEX
  8
0
 62
7
  6
CONTINUOUS
 10
374.0881262798
 20
160.2576668679
  0
VERTEX
  8
0
 62
7
  6
CONTINUOUS
 10
374.0454853709
 20
160.6911805645
  0
VERTEX
  8
0
 62
7
  6
CONTINUOUS
 10
373.9793574111
 20
161.1216243559
  0
VERTEX
  8
0
 62
7
  6
CONTINUOUS
 10
373.8899316754
 20
161.5477467628
  0
VERTEX
  8
0
 62
7
  6
CONTINUOUS
 10
373.777454919
 20
161.9683109404
  0
VERTEX
  8
0
 62
7
  6
CONTINUOUS
 10
373.6422802132
 20
162.3821027741
  0
VERTEX
  8
0
 62
7
  6
CONTINUOUS
 10
373.4847802077
 20
162.7879148153
  0
VERTEX
  8
0
 62
7
  6
CONTINUOUS
 10
373.3054364303
 20
163.1845868028
  0
VERTEX
  8
0
 62
7
  6
CONTINUOUS
 10
373.1047889368
 20
163.5709661905
  0
VERTEX
  8
0
 62
7
  6
CONTINUOUS
 10
372.8833716871
 20
163.9459151835
  0
VERTEX
  8
0
 62
7
  6
CONTINUOUS
 10
372.6418362774
 20
164.3083009668
  0
VERTEX
  8
0
 62
7
  6
CONTINUOUS
 10
372.3809097618
 20
164.6570497336
  0
VERTEX
  8
0
 62
7
  6
CONTINUOUS
 10
372.10135525
 20
164.9911005683
  0
VERTEX
  8
0
 62
7
  6
CONTINUOUS
 10
371.8040284971
 20
165.3094681685
  0
VERTEX
  8
0
 62
7
  6
CONTINUOUS
 10
371.4898015395
 20
165.6111964104
  0
VERTEX
  8
0
 62
7
  6
CONTINUOUS
 10
371.1596019208
 20
165.8953740464
  0
VERTEX
  8
0
 62
7
  6
CONTINUOUS
 10
370.8143998881
 20
166.161149706
  0
VERTEX
  8
0
 62
7
  6
CONTINUOUS
 10
370.4552253261
 20
166.4077486444
  0
VERTEX
  8
0
 62
7
  6
CONTINUOUS
 10
370.0831624417
 20
166.6344655428
  0
VERTEX
  8
0
 62
7
  6
CONTINUOUS
 10
369.6992950499
 20
166.8406005519
  0
VERTEX
  8
0
 62
7
  6
CONTINUOUS
 10
369.3047550907
 20
167.0255155685
  0
VERTEX
  8
0
 62
7
  6
CONTINUOUS
 10
368.9007316283
 20
167.1886827294
  0
VERTEX
  8
0
 62
7
  6
CONTINUOUS
 10
368.4884266886
 20
167.3295982057
  0
VERTEX
  8
0
 62
7
  6
CONTINUOUS
 10
368.0690764478
 20
167.4478632684
  0
VERTEX
  8
0
 62
7
  6
CONTINUOUS
 10
367.6439329723
 20
167.5431274088
  0
VERTEX
  8
0
 62
7
  6
CONTINUOUS
 10
367.2142606568
 20
167.6150926131
  0
SEQEND
  0
POLYLINE
  8
0
 62
7
  6
CONTINUOUS
 66
1
 70
0
  0
VERTEX
  8
0
 62
7
  6
CONTINUOUS
 10
374.8742066235
 20
175.5535205685
  0
VERTEX
  8
0
 62
7
  6
CONTINUOUS
 10
377.8474848888
 20
347.3743323248
  0
VERTEX
  8
0
 62
7
  6
CONTINUOUS
 10
378.2832695307
 20
372.5485374053
  0
VERTEX
  8
0
 62
7
  6
CONTINUOUS
 10
378.7157366079
 20
397.4104790256
  0
VERTEX
  8
0
 62
7
  6
CONTINUOUS
 10
379.0966518661
 20
419.1842381346
  0
VERTEX
  8
0
 62
7
  6
CONTINUOUS
 10
379.6361137252
 20
449.8249109751
  0
VERTEX
  8
0
 62
7
  6
CONTINUOUS
 10
380.2891364727
 20
486.6148411785
  0
VERTEX
  8
0
 62
7
  6
CONTINUOUS
 10
380.5451757524
 20
500.9513019125
  0
VERTEX
  8
0
 62
7
  6
CONTINUOUS
 10
380.6684784854
 20
507.8401778539
  0
VERTEX
  8
0
 62
7
  6
CONTINUOUS
 10
381.5771584077
 20
558.602455402
  0
SEQEND
  0
POLYLINE
  8
0
 62
7
  6
CONTINUOUS
 66
1
 70
0
  0
VERTEX
  8
0
 62
7
  6
CONTINUOUS
 10
374.0096193161
 20
153.6919373576
  0
VERTEX
  8
0
 62
7
  6
CONTINUOUS
 10
374.0237982872
 20
154.4983478116
  0
VERTEX
  8
0
 62
7
  6
CONTINUOUS
 10
374.0406721227
 20
155.4789539345
  0
VERTEX
  8
0
 62
7
  6
CONTINUOUS
 10
374.0577630788
 20
156.4954977763
  0
VERTEX
  8
0
 62
7
  6
CONTINUOUS
 10
374.0749659861
 20
157.542448865
  0
VERTEX
  8
0
 62
7
  6
CONTINUOUS
 10
374.0923037541
 20
158.6216394668
  0
VERTEX
  8
0
 62
7
  6
CONTINUOUS
 10
374.107187601
 20
159.5671831927
  0
SEQEND
  0
POLYLINE
  8
0
 62
7
  6
CONTINUOUS
 66
1
 70
0
  0
VERTEX
  8
0
 62
7
  6
CONTINUOUS
 10
372.0188592828
 20
89.9929457644
  0
VERTEX
  8
0
 62
7
  6
CONTINUOUS
 10
372.346232754
 20
97.7066044471
  0
VERTEX
  8
0
 62
7
  6
CONTINUOUS
 10
373.0824268806
 20
117.4855220248
  0
VERTEX
  8
0
 62
7
  6
CONTINUOUS
 10
373.620953871
 20
135.7612492817
  0
VERTEX
  8
0
 62
7
  6
CONTINUOUS
 10
374.0096193176
 20
153.6919370288
  0
SEQEND
  0
LINE
  8
0
 62
7
  6
CONTINUOUS
 10
201.4393014691
 20
613.9798459112
 11
201.4375969724
 21
613.9842433284
  0
LINE
  8
0
 62
7
  6
CONTINUOUS
 10
204.2780538601
 20
610.3178413753
 11
204.2760895597
 21
610.3229090578
  0
POLYLINE
  8
0
 62
7
  6
CONTINUOUS
 66
1
 70
0
  0
VERTEX
  8
0
 62
7
  6
CONTINUOUS
 10
383.7743005351
 20
591.9854282351
  0
VERTEX
  8
0
 62
7
  6
CONTINUOUS
 10
383.7545434044
 20
592.4629410853
  0
VERTEX
  8
0
 62
7
  6
CONTINUOUS
 10
383.6925053657
 20
593.0990923966
  0
VERTEX
  8
0
 62
7
  6
CONTINUOUS
 10
383.5899284868
 20
593.7301121505
  0
VERTEX
  8
0
 62
7
  6
CONTINUOUS
 10
383.4472121536
 20
594.353396532
  0
VERTEX
  8
0
 62
7
  6
CONTINUOUS
 10
383.2649236177
 20
594.9663782087
  0
VERTEX
  8
0
 62
7
  6
CONTINUOUS
 10
383.0437950861
 20
595.566533671
  0
VERTEX
  8
0
 62
7
  6
CONTINUOUS
 10
382.7847221005
 20
596.1513891744
  0
VERTEX
  8
0
 62
7
  6
CONTINUOUS
 10
382.4887564261
 20
596.71853888
  0
VERTEX
  8
0
 62
7
  6
CONTINUOUS
 10
382.1571052485
 20
597.2656461436
  0
VERTEX
  8
0
 62
7
  6
CONTINUOUS
 10
381.7911199494
 20
597.7904636942
  0
VERTEX
  8
0
 62
7
  6
CONTINUOUS
 10
381.3922947165
 20
598.2908340527
  0
VERTEX
  8
0
 62
7
  6
CONTINUOUS
 10
380.9622614093
 20
598.7646981848
  0
VERTEX
  8
0
 62
7
  6
CONTINUOUS
 10
380.5027811597
 20
599.2101066713
  0
VERTEX
  8
0
 62
7
  6
CONTINUOUS
 10
380.015737231
 20
599.6252275293
  0
VERTEX
  8
0
 62
7
  6
CONTINUOUS
 10
379.5031273106
 20
600.0083537592
  0
VERTEX
  8
0
 62
7
  6
CONTINUOUS
 10
378.9670549356
 20
600.3579106886
  0
VERTEX
  8
0
 62
7
  6
CONTINUOUS
 10
378.4097208948
 20
600.6724624085
  0
VERTEX
  8
0
 62
7
  6
CONTINUOUS
 10
377.8334138598
 20
600.9507178889
  0
VERTEX
  8
0
 62
7
  6
CONTINUOUS
 10
377.2405008748
 20
601.1915363167
  0
VERTEX
  8
0
 62
7
  6
CONTINUOUS
 10
376.6334175514
 20
601.3939318222
  0
VERTEX
  8
0
 62
7
  6
CONTINUOUS
 10
376.0146577059
 20
601.5570776546
  0
VERTEX
  8
0
 62
7
  6
CONTINUOUS
 10
375.3867630054
 20
601.6803095728
  0
VERTEX
  8
0
 62
7
  6
CONTINUOUS
 10
374.7523155895
 20
601.7631282749
  0
VERTEX
  8
0
 62
7
  6
CONTINUOUS
 10
374.261716417
 20
601.7991081431
  0
SEQEND
  0
LINE
  8
0
 62
7
  6
CONTINUOUS
 10
383.7743012615
 20
591.9854285607
 11
384.1793674628
 21
568.7792014253
  0
POLYLINE
  8
0
 62
7
  6
CONTINUOUS
 66
1
 70
0
  0
VERTEX
  8
0
 62
7
  6
CONTINUOUS
 10
210.5687851562
 20
608.1653996615
  0
VERTEX
  8
0
 62
7
  6
CONTINUOUS
 10
210.5044081516
 20
608.3071740574
  0
VERTEX
  8
0
 62
7
  6
CONTINUOUS
 10
210.4289240921
 20
608.4243827102
  0
VERTEX
  8
0
 62
7
  6
CONTINUOUS
 10
210.3499247124
 20
608.5179575381
  0
VERTEX
  8
0
 62
7
  6
CONTINUOUS
 10
210.3020525399
 20
608.5650077633
  0
SEQEND
  0
LINE
  8
0
 62
7
  6
CONTINUOUS
 10
201.4375969724
 20
613.9842433284
 11
204.2760895597
 21
610.3229090578
  0
POLYLINE
  8
0
 62
7
  6
CONTINUOUS
 66
1
 70
0
  0
VERTEX
  8
0
 62
7
  6
CONTINUOUS
 10
210.3020525045
 20
608.565007796
  0
VERTEX
  8
0
 62
7
  6
CONTINUOUS
 10
210.2182405498
 20
608.6343412852
  0
VERTEX
  8
0
 62
7
  6
CONTINUOUS
 10
210.1407726011
 20
608.6866296901
  0
VERTEX
  8
0
 62
7
  6
CONTINUOUS
 10
210.0738489605
 20
608.7243406332
  0
VERTEX
  8
0
 62
7
  6
CONTINUOUS
 10
210.0155555863
 20
608.7523440493
  0
VERTEX
  8
0
 62
7
  6
CONTINUOUS
 10
209.9641260938
 20
608.7737323349
  0
VERTEX
  8
0
 62
7
  6
CONTINUOUS
 10
209.9176885298
 20
608.7906437731
  0
VERTEX
  8
0
 62
7
  6
CONTINUOUS
 10
209.8724556751
 20
608.8051445819
  0
SEQEND
  0
POLYLINE
  8
0
 62
7
  6
CONTINUOUS
 66
1
 70
0
  0
VERTEX
  8
0
 62
7
  6
CONTINUOUS
 10
161.6730516273
 20
610.4054687849
  0
VERTEX
  8
0
 62
7
  6
CONTINUOUS
 10
161.7263189531
 20
610.3792929678
  0
VERTEX
  8
0
 62
7
  6
CONTINUOUS
 10
161.8858525162
 20
610.3532490507
  0
VERTEX
  8
0
 62
7
  6
CONTINUOUS
 10
162.150848427
 20
610.3274682689
  0
VERTEX
  8
0
 62
7
  6
CONTINUOUS
 10
162.5199713705
 20
610.3020805319
  0
VERTEX
  8
0
 62
7
  6
CONTINUOUS
 10
162.9913613359
 20
610.2772137683
  0
VERTEX
  8
0
 62
7
  6
CONTINUOUS
 10
163.5626429884
 20
610.252993282
  0
VERTEX
  8
0
 62
7
  6
CONTINUOUS
 10
164.230937639
 20
610.2295411199
  0
VERTEX
  8
0
 62
7
  6
CONTINUOUS
 10
164.9928777501
 20
610.2069754576
  0
VERTEX
  8
0
 62
7
  6
CONTINUOUS
 10
165.8446239044
 20
610.1854100034
  0
VERTEX
  8
0
 62
7
  6
CONTINUOUS
 10
166.781884152
 20
610.1649534257
  0
VERTEX
  8
0
 62
7
  6
CONTINUOUS
 10
167.799935637
 20
610.1457088053
  0
VERTEX
  8
0
 62
7
  6
CONTINUOUS
 10
168.8936483968
 20
610.1277731157
  0
VERTEX
  8
0
 62
7
  6
CONTINUOUS
 10
170.0575110711
 20
610.1112367368
  0
VERTEX
  8
0
 62
7
  6
CONTINUOUS
 10
171.2856593741
 20
610.09618299
  0
VERTEX
  8
0
 62
7
  6
CONTINUOUS
 10
172.5719051674
 20
610.0826877276
  0
VERTEX
  8
0
 62
7
  6
CONTINUOUS
 10
173.9097669844
 20
610.0708189565
  0
SEQEND
  0
LINE
  8
0
 62
7
  6
CONTINUOUS
 10
-13.5499920008
 20
563.6919393931
 11
379.1801289871
 21
563.6919393931
  0
LINE
  8
0
 62
7
  6
CONTINUOUS
 10
201.4375969724
 20
613.9842433284
 11
201.3932524638
 21
614.0026887999
  0
LINE
  8
0
 62
7
  6
CONTINUOUS
 10
161.6731246866
 20
610.4172944478
 11
155.7924605599
 21
608.8151017935
  0
POLYLINE
  8
0
 62
7
  6
CONTINUOUS
 66
1
 70
0
  0
VERTEX
  8
0
 62
7
  6
CONTINUOUS
 10
182.0440653935
 20
615.1723749182
  0
VERTEX
  8
0
 62
7
  6
CONTINUOUS
 10
181.9338535211
 20
615.1428663555
  0
VERTEX
  8
0
 62
7
  6
CONTINUOUS
 10
181.8144304921
 20
615.113855744
  0
VERTEX
  8
0
 62
7
  6
CONTINUOUS
 10
181.6862221946
 20
615.0854867059
  0
VERTEX
  8
0
 62
7
  6
CONTINUOUS
 10
181.5496485131
 20
615.0577226827
  0
SEQEND
  0
POLYLINE
  8
0
 62
7
  6
CONTINUOUS
 66
1
 70
0
  0
VERTEX
  8
0
 62
7
  6
CONTINUOUS
 10
164.3524853665
 20
613.8252480236
  0
VERTEX
  8
0
 62
7
  6
CONTINUOUS
 10
165.073334334
 20
613.9994518571
  0
VERTEX
  8
0
 62
7
  6
CONTINUOUS
 10
165.8284348716
 20
614.1740872039
  0
VERTEX
  8
0
 62
7
  6
CONTINUOUS
 10
166.6325822841
 20
614.3513004501
  0
VERTEX
  8
0
 62
7
  6
CONTINUOUS
 10
167.4417619798
 20
614.520559565
  0
VERTEX
  8
0
 62
7
  6
CONTINUOUS
 10
168.1877838321
 20
614.6686056192
  0
VERTEX
  8
0
 62
7
  6
CONTINUOUS
 10
168.9565611844
 20
614.8131844005
  0
VERTEX
  8
0
 62
7
  6
CONTINUOUS
 10
169.846855853
 20
614.97055084
  0
VERTEX
  8
0
 62
7
  6
CONTINUOUS
 10
170.7534876861
 20
615.1197693213
  0
VERTEX
  8
0
 62
7
  6
CONTINUOUS
 10
171.58483102
 20
615.2468647142
  0
VERTEX
  8
0
 62
7
  6
CONTINUOUS
 10
172.3970846028
 20
615.3620958015
  0
VERTEX
  8
0
 62
7
  6
CONTINUOUS
 10
173.2344511295
 20
615.4716758876
  0
VERTEX
  8
0
 62
7
  6
CONTINUOUS
 10
174.0414693837
 20
615.5684701432
  0
VERTEX
  8
0
 62
7
  6
CONTINUOUS
 10
174.7689229258
 20
615.6483346734
  0
VERTEX
  8
0
 62
7
  6
CONTINUOUS
 10
175.4424674895
 20
615.716056166
  0
VERTEX
  8
0
 62
7
  6
CONTINUOUS
 10
176.0682351735
 20
615.7736249232
  0
VERTEX
  8
0
 62
7
  6
CONTINUOUS
 10
176.6557418879
 20
615.8229950025
  0
VERTEX
  8
0
 62
7
  6
CONTINUOUS
 10
177.2201625241
 20
615.8661657425
  0
VERTEX
  8
0
 62
7
  6
CONTINUOUS
 10
177.7502018411
 20
615.9029128005
  0
VERTEX
  8
0
 62
7
  6
CONTINUOUS
 10
178.2367184154
 20
615.9334125449
  0
VERTEX
  8
0
 62
7
  6
CONTINUOUS
 10
178.6889913735
 20
615.9589959978
  0
VERTEX
  8
0
 62
7
  6
CONTINUOUS
 10
179.1126868991
 20
615.9805444195
  0
VERTEX
  8
0
 62
7
  6
CONTINUOUS
 10
179.5089709127
 20
615.9985830681
  0
VERTEX
  8
0
 62
7
  6
CONTINUOUS
 10
179.8802514962
 20
616.0136294059
  0
VERTEX
  8
0
 62
7
  6
CONTINUOUS
 10
180.2280746426
 20
616.0260987257
  0
VERTEX
  8
0
 62
7
  6
CONTINUOUS
 10
180.5548027523
 20
616.0363793949
  0
VERTEX
  8
0
 62
7
  6
CONTINUOUS
 10
180.8601930326
 20
616.0447345288
  0
VERTEX
  8
0
 62
7
  6
CONTINUOUS
 10
181.1450896436
 20
616.0514367913
  0
VERTEX
  8
0
 62
7
  6
CONTINUOUS
 10
181.4100559472
 20
616.0567242189
  0
VERTEX
  8
0
 62
7
  6
CONTINUOUS
 10
181.6565348587
 20
616.0608244116
  0
VERTEX
  8
0
 62
7
  6
CONTINUOUS
 10
181.8865200501
 20
616.0639390131
  0
VERTEX
  8
0
 62
7
  6
CONTINUOUS
 10
182.0747747789
 20
616.0659775081
  0
SEQEND
  0
POLYLINE
  8
0
 62
7
  6
CONTINUOUS
 66
1
 70
0
  0
VERTEX
  8
0
 62
7
  6
CONTINUOUS
 10
181.5496485131
 20
615.0577205654
  0
VERTEX
  8
0
 62
7
  6
CONTINUOUS
 10
180.7825646732
 20
614.9021042545
  0
VERTEX
  8
0
 62
7
  6
CONTINUOUS
 10
179.9741775881
 20
614.7181130525
  0
VERTEX
  8
0
 62
7
  6
CONTINUOUS
 10
179.1241882959
 20
614.5071997224
  0
VERTEX
  8
0
 62
7
  6
CONTINUOUS
 10
178.2334936824
 20
614.2650059756
  0
VERTEX
  8
0
 62
7
  6
CONTINUOUS
 10
177.3029906334
 20
613.9871735238
  0
VERTEX
  8
0
 62
7
  6
CONTINUOUS
 10
176.3323801871
 20
613.6751551296
  0
SEQEND
  0
POLYLINE
  8
0
 62
7
  6
CONTINUOUS
 66
1
 70
0
  0
VERTEX
  8
0
 62
7
  6
CONTINUOUS
 10
-8.6314684649
 20
601.7991136156
  0
VERTEX
  8
0
 62
7
  6
CONTINUOUS
 10
-9.1088636146
 20
601.7644258099
  0
VERTEX
  8
0
 62
7
  6
CONTINUOUS
 10
-9.7434257163
 20
601.6824552253
  0
VERTEX
  8
0
 62
7
  6
CONTINUOUS
 10
-10.3714884194
 20
601.5600622733
  0
VERTEX
  8
0
 62
7
  6
CONTINUOUS
 10
-10.9904690441
 20
601.3977428923
  0
VERTEX
  8
0
 62
7
  6
CONTINUOUS
 10
-11.5978251182
 20
601.196157994
  0
VERTEX
  8
0
 62
7
  6
CONTINUOUS
 10
-12.1910618068
 20
600.956131039
  0
VERTEX
  8
0
 62
7
  6
CONTINUOUS
 10
-12.7677422659
 20
600.6786446597
  0
VERTEX
  8
0
 62
7
  6
CONTINUOUS
 10
-13.3254980067
 20
600.3648364998
  0
VERTEX
  8
0
 62
7
  6
CONTINUOUS
 10
-13.8620387033
 20
600.015994503
  0
VERTEX
  8
0
 62
7
  6
CONTINUOUS
 10
-14.3751617077
 20
599.6335515874
  0
VERTEX
  8
0
 62
7
  6
CONTINUOUS
 10
-14.8627614218
 20
599.2190795467
  0
VERTEX
  8
0
 62
7
  6
CONTINUOUS
 10
-15.3228379026
 20
598.7742826268
  0
VERTEX
  8
0
 62
7
  6
CONTINUOUS
 10
-15.7535054415
 20
598.3009901978
  0
VERTEX
  8
0
 62
7
  6
CONTINUOUS
 10
-16.1530002817
 20
597.8011492192
  0
VERTEX
  8
0
 62
7
  6
CONTINUOUS
 10
-16.5196877709
 20
597.2768164258
  0
VERTEX
  8
0
 62
7
  6
CONTINUOUS
 10
-16.8520707509
 20
596.73014721
  0
VERTEX
  8
0
 62
7
  6
CONTINUOUS
 10
-17.1487947194
 20
596.1633869687
  0
VERTEX
  8
0
 62
7
  6
CONTINUOUS
 10
-17.4086492737
 20
595.5788705782
  0
VERTEX
  8
0
 62
7
  6
CONTINUOUS
 10
-17.6305792828
 20
594.979002364
  0
VERTEX
  8
0
 62
7
  6
CONTINUOUS
 10
-17.8136857355
 20
594.3662547109
  0
VERTEX
  8
0
 62
7
  6
CONTINUOUS
 10
-17.9572328372
 20
593.7431500254
  0
VERTEX
  8
0
 62
7
  6
CONTINUOUS
 10
-18.060649651
 20
593.1122547609
  0
VERTEX
  8
0
 62
7
  6
CONTINUOUS
 10
-18.1235330202
 20
592.4761720203
  0
VERTEX
  8
0
 62
7
  6
CONTINUOUS
 10
-18.1441635026
 20
591.9854282295
  0
SEQEND
  0
POLYLINE
  8
0
 62
7
  6
CONTINUOUS
 66
1
 70
0
  0
VERTEX
  8
0
 62
7
  6
CONTINUOUS
 10
182.5747747789
 20
616.2691596718
  0
VERTEX
  8
0
 62
7
  6
CONTINUOUS
 10
182.698251899
 20
616.2694450268
  0
VERTEX
  8
0
 62
7
  6
CONTINUOUS
 10
182.8954480874
 20
616.2694915266
  0
VERTEX
  8
0
 62
7
  6
CONTINUOUS
 10
183.0905060647
 20
616.2690423781
  0
VERTEX
  8
0
 62
7
  6
CONTINUOUS
 10
183.286695557
 20
616.2680938808
  0
VERTEX
  8
0
 62
7
  6
CONTINUOUS
 10
183.481767392
 20
616.2666568354
  0
VERTEX
  8
0
 62
7
  6
CONTINUOUS
 10
183.6824134632
 20
616.2646648449
  0
VERTEX
  8
0
 62
7
  6
CONTINUOUS
 10
183.8908023655
 20
616.2620442684
  0
VERTEX
  8
0
 62
7
  6
CONTINUOUS
 10
184.1106068581
 20
616.2586708777
  0
VERTEX
  8
0
 62
7
  6
CONTINUOUS
 10
184.3440437381
 20
616.2544032817
  0
VERTEX
  8
0
 62
7
  6
CONTINUOUS
 10
184.5937199414
 20
616.2490577512
  0
VERTEX
  8
0
 62
7
  6
CONTINUOUS
 10
184.8620281294
 20
616.2424132004
  0
VERTEX
  8
0
 62
7
  6
CONTINUOUS
 10
185.1497712076
 20
616.23425083
  0
VERTEX
  8
0
 62
7
  6
CONTINUOUS
 10
185.4598032772
 20
616.224255192
  0
VERTEX
  8
0
 62
7
  6
CONTINUOUS
 10
185.7869026426
 20
616.2123582352
  0
VERTEX
  8
0
 62
7
  6
CONTINUOUS
 10
186.1265622093
 20
616.1985355937
  0
VERTEX
  8
0
 62
7
  6
CONTINUOUS
 10
186.4774750061
 20
616.1826824321
  0
VERTEX
  8
0
 62
7
  6
CONTINUOUS
 10
186.8339116206
 20
616.1649425916
  0
VERTEX
  8
0
 62
7
  6
CONTINUOUS
 10
187.204575164
 20
616.1447434534
  0
VERTEX
  8
0
 62
7
  6
CONTINUOUS
 10
187.6099128406
 20
616.1206092686
  0
VERTEX
  8
0
 62
7
  6
CONTINUOUS
 10
188.0102850669
 20
616.0946710593
  0
VERTEX
  8
0
 62
7
  6
CONTINUOUS
 10
188.3469617573
 20
616.0712426197
  0
VERTEX
  8
0
 62
7
  6
CONTINUOUS
 10
188.6953999736
 20
616.0454389496
  0
VERTEX
  8
0
 62
7
  6
CONTINUOUS
 10
189.1489895005
 20
616.0094731091
  0
VERTEX
  8
0
 62
7
  6
CONTINUOUS
 10
189.5986059561
 20
615.9711676266
  0
VERTEX
  8
0
 62
7
  6
CONTINUOUS
 10
189.9343967243
 20
615.9408331643
  0
VERTEX
  8
0
 62
7
  6
CONTINUOUS
 10
190.2489732819
 20
615.9110741665
  0
VERTEX
  8
0
 62
7
  6
CONTINUOUS
 10
190.59940086
 20
615.8763943147
  0
VERTEX
  8
0
 62
7
  6
CONTINUOUS
 10
190.9841203705
 20
615.8364621911
  0
VERTEX
  8
0
 62
7
  6
CONTINUOUS
 10
191.4220284028
 20
615.7886382854
  0
VERTEX
  8
0
 62
7
  6
CONTINUOUS
 10
191.9089565137
 20
615.7324913091
  0
VERTEX
  8
0
 62
7
  6
CONTINUOUS
 10
192.4733401261
 20
615.6634915792
  0
VERTEX
  8
0
 62
7
  6
CONTINUOUS
 10
193.0360436342
 20
615.590494851
  0
VERTEX
  8
0
 62
7
  6
CONTINUOUS
 10
193.4947506585
 20
615.5278761898
  0
VERTEX
  8
0
 62
7
  6
CONTINUOUS
 10
193.9473272534
 20
615.4633470932
  0
VERTEX
  8
0
 62
7
  6
CONTINUOUS
 10
194.4752868009
 20
615.3846120079
  0
VERTEX
  8
0
 62
7
  6
CONTINUOUS
 10
195.0252603741
 20
615.2986223628
  0
VERTEX
  8
0
 62
7
  6
CONTINUOUS
 10
195.5522703245
 20
615.2124082043
  0
VERTEX
  8
0
 62
7
  6
CONTINUOUS
 10
196.1128080467
 20
615.1165973467
  0
VERTEX
  8
0
 62
7
  6
CONTINUOUS
 10
196.7846498521
 20
614.9961548288
  0
VERTEX
  8
0
 62
7
  6
CONTINUOUS
 10
197.4582568219
 20
614.8692308552
  0
VERTEX
  8
0
 62
7
  6
CONTINUOUS
 10
198.0123990158
 20
614.7601671506
  0
VERTEX
  8
0
 62
7
  6
CONTINUOUS
 10
198.5616106147
 20
614.6479132576
  0
VERTEX
  8
0
 62
7
  6
CONTINUOUS
 10
199.1872744056
 20
614.5149625504
  0
VERTEX
  8
0
 62
7
  6
CONTINUOUS
 10
199.8659827813
 20
614.3646012701
  0
VERTEX
  8
0
 62
7
  6
CONTINUOUS
 10
200.6019673734
 20
614.1942875947
  0
VERTEX
  8
0
 62
7
  6
CONTINUOUS
 10
201.3932524638
 20
614.0026887999
  0
SEQEND
  0
POLYLINE
  8
0
 62
7
  6
CONTINUOUS
 66
1
 70
0
  0
VERTEX
  8
0
 62
7
  6
CONTINUOUS
 10
176.3324868307
 20
613.6751335975
  0
VERTEX
  8
0
 62
7
  6
CONTINUOUS
 10
177.6425470269
 20
613.6675955457
  0
VERTEX
  8
0
 62
7
  6
CONTINUOUS
 10
178.9810276001
 20
613.6617702692
  0
VERTEX
  8
0
 62
7
  6
CONTINUOUS
 10
180.3405992976
 20
613.6576898725
  0
VERTEX
  8
0
 62
7
  6
CONTINUOUS
 10
181.7137704058
 20
613.6553769979
  0
VERTEX
  8
0
 62
7
  6
CONTINUOUS
 10
183.0929726178
 20
613.6548444154
  0
VERTEX
  8
0
 62
7
  6
CONTINUOUS
 10
184.4706500517
 20
613.6560950205
  0
VERTEX
  8
0
 62
7
  6
CONTINUOUS
 10
185.839243797
 20
613.6591219513
  0
VERTEX
  8
0
 62
7
  6
CONTINUOUS
 10
187.1912447826
 20
613.6639086002
  0
VERTEX
  8
0
 62
7
  6
CONTINUOUS
 10
188.519234977
 20
613.670428704
  0
VERTEX
  8
0
 62
7
  6
CONTINUOUS
 10
189.8159280892
 20
613.678646489
  0
VERTEX
  8
0
 62
7
  6
CONTINUOUS
 10
191.0742095455
 20
613.6885168666
  0
VERTEX
  8
0
 62
7
  6
CONTINUOUS
 10
192.2871755261
 20
613.6999856808
  0
VERTEX
  8
0
 62
7
  6
CONTINUOUS
 10
193.4481708437
 20
613.7129900058
  0
VERTEX
  8
0
 62
7
  6
CONTINUOUS
 10
194.5508254588
 20
613.7274584906
  0
VERTEX
  8
0
 62
7
  6
CONTINUOUS
 10
195.58908943
 20
613.7433117508
  0
VERTEX
  8
0
 62
7
  6
CONTINUOUS
 10
196.5572661085
 20
613.7604628044
  0
VERTEX
  8
0
 62
7
  6
CONTINUOUS
 10
197.4500433941
 20
613.7788175484
  0
VERTEX
  8
0
 62
7
  6
CONTINUOUS
 10
198.2625228804
 20
613.798275276
  0
VERTEX
  8
0
 62
7
  6
CONTINUOUS
 10
198.9902467317
 20
613.8187292281
  0
VERTEX
  8
0
 62
7
  6
CONTINUOUS
 10
199.6292221415
 20
613.8400671801
  0
VERTEX
  8
0
 62
7
  6
CONTINUOUS
 10
200.1759432398
 20
613.8621720568
  0
VERTEX
  8
0
 62
7
  6
CONTINUOUS
 10
200.6274103288
 20
613.8849225754
  0
VERTEX
  8
0
 62
7
  6
CONTINUOUS
 10
200.9811463415
 20
613.9081939103
  0
VERTEX
  8
0
 62
7
  6
CONTINUOUS
 10
201.2352104326
 20
613.9318583787
  0
VERTEX
  8
0
 62
7
  6
CONTINUOUS
 10
201.3882086272
 20
613.9557861405
  0
VERTEX
  8
0
 62
7
  6
CONTINUOUS
 10
201.4393014691
 20
613.9798459112
  0
SEQEND
  0
POLYLINE
  8
0
 62
7
  6
CONTINUOUS
 66
1
 70
0
  0
VERTEX
  8
0
 62
7
  6
CONTINUOUS
 10
174.1497677866
 20
609.9751460076
  0
VERTEX
  8
0
 62
7
  6
CONTINUOUS
 10
175.5659892871
 20
609.9652722717
  0
VERTEX
  8
0
 62
7
  6
CONTINUOUS
 10
177.0176954146
 20
609.9571840261
  0
VERTEX
  8
0
 62
7
  6
CONTINUOUS
 10
178.4972097384
 20
609.9509189688
  0
VERTEX
  8
0
 62
7
  6
CONTINUOUS
 10
179.9978759493
 20
609.9465014224
  0
VERTEX
  8
0
 62
7
  6
CONTINUOUS
 10
181.5129949885
 20
609.9439505634
  0
VERTEX
  8
0
 62
7
  6
CONTINUOUS
 10
183.0346629775
 20
609.9432802373
  0
VERTEX
  8
0
 62
7
  6
CONTINUOUS
 10
184.5552264872
 20
609.9444938157
  0
VERTEX
  8
0
 62
7
  6
CONTINUOUS
 10
186.0670376435
 20
609.9475851948
  0
VERTEX
  8
0
 62
7
  6
CONTINUOUS
 10
187.5624925937
 20
609.9525388259
  0
VERTEX
  8
0
 62
7
  6
CONTINUOUS
 10
189.0340697505
 20
609.9593297942
  0
VERTEX
  8
0
 62
7
  6
CONTINUOUS
 10
190.4743676231
 20
609.9679239436
  0
VERTEX
  8
0
 62
7
  6
CONTINUOUS
 10
191.8761420442
 20
609.9782780488
  0
VERTEX
  8
0
 62
7
  6
CONTINUOUS
 10
193.2323426051
 20
609.9903400323
  0
VERTEX
  8
0
 62
7
  6
CONTINUOUS
 10
194.5361481169
 20
610.0040492268
  0
VERTEX
  8
0
 62
7
  6
CONTINUOUS
 10
195.7810009184
 20
610.0193366802
  0
VERTEX
  8
0
 62
7
  6
CONTINUOUS
 10
196.9606398588
 20
610.0361255022
  0
VERTEX
  8
0
 62
7
  6
CONTINUOUS
 10
198.069131789
 20
610.0543312512
  0
VERTEX
  8
0
 62
7
  6
CONTINUOUS
 10
199.1009014033
 20
610.073862359
  0
VERTEX
  8
0
 62
7
  6
CONTINUOUS
 10
200.0507592807
 20
610.0946205914
  0
VERTEX
  8
0
 62
7
  6
CONTINUOUS
 10
200.9139279862
 20
610.116501542
  0
VERTEX
  8
0
 62
7
  6
CONTINUOUS
 10
201.6860660994
 20
610.1393951577
  0
VERTEX
  8
0
 62
7
  6
CONTINUOUS
 10
202.3632900502
 20
610.1631862921
  0
VERTEX
  8
0
 62
7
  6
CONTINUOUS
 10
202.9421936518
 20
610.1877552846
  0
VERTEX
  8
0
 62
7
  6
CONTINUOUS
 10
203.4198652323
 20
610.2129785622
  0
VERTEX
  8
0
 62
7
  6
CONTINUOUS
 10
203.7939022798
 20
610.2387292611
  0
VERTEX
  8
0
 62
7
  6
CONTINUOUS
 10
204.0624235258
 20
610.2648778648
  0
VERTEX
  8
0
 62
7
  6
CONTINUOUS
 10
204.2240784074
 20
610.2912928554
  0
VERTEX
  8
0
 62
7
  6
CONTINUOUS
 10
204.2780538601
 20
610.3178413753
  0
SEQEND
  0
LINE
  8
0
 62
7
  6
CONTINUOUS
 10
174.2073762441
 20
610.0684561977
 11
173.9097644345
 21
610.0708189771
  0
LINE
  8
0
 62
7
  6
CONTINUOUS
 10
204.2779796916
 20
610.32984657
 11
209.8376764264
 21
608.8151017935
  0
LINE
  8
0
 62
7
  6
CONTINUOUS
 10
209.8724556751
 20
608.8051445819
 11
209.8376225586
 21
608.8151164663
  0
ARC
  8
0
 62
7
  6
CONTINUOUS
 10
182.8150684931
 20
-3333.5798271405
 40
3940.0330882891
 50
89.5867960923
 51
90.4132039077
  0
ARC
  8
0
 62
7
  6
CONTINUOUS
 10
182.8150684931
 20
-3333.5800212948
 40
3940.0330882891
 50
90.0107653833
 51
92.785103405
  0
ARC
  8
0
 62
7
  6
CONTINUOUS
 10
182.8150684932
 20
-3333.5800212948
 40
3940.0330882891
 50
87.2148949704
 51
89.9999999446
  0
ARC
  8
0
 62
7
  6
CONTINUOUS
 10
-1.245255206
 20
175.6919393931
 40
8.0
 50
180.9913787848
 51
270.0000000001
  0
ARC
  8
0
 62
7
  6
CONTINUOUS
 10
376.5779597455
 20
558.6919393931
 40
5.0000002013
 50
358.9744898788
 51
89.9950473474
  0
ARC
  8
0
 62
7
  6
CONTINUOUS
 10
379.1801289871
 20
568.6919393931
 40
5.0
 50
270.0
 51
1.0
  0
ARC
  8
0
 62
7
  6
CONTINUOUS
 10
-13.5499920008
 20
568.6919393931
 40
5.0
 50
179.0
 51
270.0
  0
ARC
  8
0
 62
7
  6
CONTINUOUS
 10
-10.9478227592
 20
558.6919393931
 40
5.0
 50
90.0
 51
181.0255349389
  0
ARC
  8
0
 62
7
  6
CONTINUOUS
 10
27.2522185409
 20
-296.3080606069
 40
5.0
 50
187.5726492668
 51
269.9992941381
  0
ARC
  8
0
 62
7
  6
CONTINUOUS
 10
338.3779184454
 20
-296.3080606069
 40
5.0
 50
270.0000000015
 51
352.4273620503
  0
ENDSEC
  0
EOF
