999
DXF file: K:\Client\125_Heirloom\001\00\Final_Data\Drawings\TOILETS\heiko-374120s_1.dxf
999
Pro/ENGINEER 2017110 by Parametric Technology Corporation
  0
SECTION
  2
HEADER
  9
$EXTMAX
 10
420.0
 20
297.0
 30
0.0
  9
$EXTMIN
 10
0.0
 20
0.0
 30
0.0
  9
$LIMMIN
 10
0.0
 20
0.0
  9
$LIMMAX
 10
420.0
 20
297.0
  9
$VIEWCTR
 10
210.0
 20
148.5
  9
$VIEWSIZE
 40
297.0
  9
$CLAYER
  8
0
  9
$LTSCALE
 40
23.1
  9
$CELTYPE
  6
BYLAYER
  9
$DIMSCALE
 40
1.0
  9
$DIMASZ
 40
3.0
  9
$DIMEXO
 40
1.0
  9
$DIMDLI
 40
15.96
  9
$DIMEXE
 40
1.0
  9
$DIMCEN
 40
3.78
  9
$DIMLFAC
 40
1.0
  9
$DIMBLK
  1
_FILLED
  9
$DIMALT
 70
0
  9
$DIMALTF
 40
0.0393700787
  9
$DIMTXT
 40
3.0
  9
$AUNITS
 70
0
  9
$PDMODE
 70
3
  9
$PDSIZE
 40
5.0
  9
$TILEMODE
 70
1
  0
ENDSEC
  0
SECTION
  2
TABLES
  0
TABLE
  2
LTYPE
 70
6
  0
LTYPE
  2
BYBLOCK
 70
0
  3

 72
65
 73
0
 40
0.0
  0
LTYPE
  2
BYLAYER
 70
0
  3

 72
65
 73
0
 40
0.0
  0
LTYPE
  2
CONTINUOUS
 70
64
  3
Solid line
 72
65
 73
0
 40
0.0
  0
LTYPE
  2
CENTER
 70
64
  3
____ _ ____ _ ____ _ ____ _ ____ _ ____ _ ____
 72
65
 73
4
 40
0.6
 49
0.375
 49
-0.075
 49
0.075
 49
-0.075
  0
LTYPE
  2
HIDDEN
 70
64
  3
- - - - - - - - - - - - - - - - - - - -
 72
65
 73
2
 40
0.2
 49
0.1
 49
-0.1
  0
LTYPE
  2
PHANTOM
 70
64
  3
_____ _ _ _____ _ _ _____ _ _ _____
 72
65
 73
6
 40
0.8
 49
0.45
 49
-0.05
 49
0.1
 49
-0.05
 49
0.1
 49
-0.05
  0
LTYPE
  2
DOT
 70
64
  3
. . . . . . . . . . . . . . . . . . . .
 72
65
 73
2
 40
0.2
 49
0.1
 49
-0.1
  0
LTYPE
  2
DASHED
 70
64
  3
- - - - - - - - - - - - - - - - - - - -
 72
65
 73
2
 40
0.2
 49
0.1
 49
-0.1
  0
ENDTAB
  0
TABLE
  2
LAYER
 70
36
  0
LAYER
  2
0
 70
0
 62
7
  6
CONTINUOUS
  0
LAYER
  2
DEFAULT_1
 70
0
 62
7
  6
CENTER
  0
LAYER
  2
DEFAULT_2
 70
0
 62
8
  6
HIDDEN
  0
LAYER
  2
DEFAULT_3
 70
0
 62
7
  6
PHANTOM
  0
LAYER
  2
0000_BOM
 70
0
 62
7
  6
CONTINUOUS
  0
LAYER
  2
0000_REV_TABLE
 70
0
 62
7
  6
CONTINUOUS
  0
LAYER
  2
0000_STEVENS_NOTE
 70
0
 62
7
  6
CONTINUOUS
  0
LAYER
  2
01_DATUM_PLANES
 70
0
 62
7
  6
CONTINUOUS
  0
LAYER
  2
01_DEF_PLANES
 70
0
 62
7
  6
CONTINUOUS
  0
LAYER
  2
02_DATUM_COS
 70
0
 62
7
  6
CONTINUOUS
  0
LAYER
  2
90_IMP_FEAT
 70
0
 62
7
  6
CONTINUOUS
  0
LAYER
  2
95_STL
 70
0
 62
7
  6
CONTINUOUS
  0
LAYER
  2
99_SOLID
 70
0
 62
7
  6
CONTINUOUS
  0
LAYER
  2
CAD-MASTER_ZINC-PL
 70
0
 62
7
  6
CONTINUOUS
  0
LAYER
  2
CURVE
 70
0
 62
7
  6
CONTINUOUS
  0
LAYER
  2
SHELL
 70
0
 62
7
  6
CONTINUOUS
  0
LAYER
  2
SKEL
 70
0
 62
7
  6
CONTINUOUS
  0
LAYER
  2
SKETCH
 70
0
 62
7
  6
CONTINUOUS
  0
LAYER
  2
SURFACE
 70
0
 62
7
  6
CONTINUOUS
  0
ENDTAB
  0
TABLE
  2
STYLE
 70
1
  0
STYLE
  2
STANDARD
 70
0
 40
0.0
 41
0.75
 50
0.0
 71
0
 42
0.2
  3
txt
  4

  0
STYLE
  2
TEXTSTYLE_1
 70
0
 40
0.0
 41
0.8
 50
0.0
 71
0
 42
0.2
  3
gdt
  4

  0
ENDTAB
  0
ENDSEC
  0
SECTION
  2
BLOCKS
  0
BLOCK
  8
0
 62
5
  6
CONTINUOUS
  2
PLUMBING_BL1
 70
64
 10
184.2753920419
 20
-306.8147774712
  0
CIRCLE
  8
0
 62
5
  6
CONTINUOUS
 10
184.2753920419
 20
-306.8147774712
 40
12.5
  0
LINE
  8
0
 62
5
  6
CONTINUOUS
 10
196.7753920419
 20
-294.3147774712
 11
171.7753920419
 21
-319.3147774712
  0
LINE
  8
0
 62
5
  6
CONTINUOUS
 10
184.2753920419
 20
-306.8147774712
 11
171.7753920419
 21
-294.3147774712
  0
LINE
  8
0
 62
5
  6
CONTINUOUS
 10
184.2753920419
 20
-306.8147774712
 11
196.7753920419
 21
-319.3147774712
  0
ENDBLK
  8
0
  6
BYBLOCK
 62
0
  0
BLOCK
  8
0
 62
1
  6
CONTINUOUS
  2
PLUMBING_BL0
 70
64
 10
184.2753920419
 20
-126.8147774712
  0
CIRCLE
  8
0
 62
1
  6
CONTINUOUS
 10
184.2753920419
 20
-126.8147774712
 40
12.5
  0
LINE
  8
0
 62
1
  6
CONTINUOUS
 10
196.7753920419
 20
-114.3147774712
 11
171.7753920419
 21
-139.3147774712
  0
LINE
  8
0
 62
1
  6
CONTINUOUS
 10
184.2753920419
 20
-126.8147774712
 11
171.7753920419
 21
-114.3147774712
  0
LINE
  8
0
 62
1
  6
CONTINUOUS
 10
184.2753920419
 20
-126.8147774712
 11
196.7753920419
 21
-139.3147774712
  0
ENDBLK
  8
0
  6
BYBLOCK
 62
0
  0
ENDSEC
  0
SECTION
  2
ENTITIES
  0
INSERT
  8
0
 62
1
  6
CONTINUOUS
  2
PLUMBING_BL0
 10
184.2753920419
 20
-126.8147774712
  0
INSERT
  8
0
 62
5
  6
CONTINUOUS
  2
PLUMBING_BL1
 10
184.2753920419
 20
-306.8147774712
  0
POLYLINE
  8
0
 62
7
  6
CONTINUOUS
 66
1
 70
0
  0
VERTEX
  8
0
 62
7
  6
CONTINUOUS
 10
-6.9190046638
 20
148.1850350409
  0
VERTEX
  8
0
 62
7
  6
CONTINUOUS
 10
-6.8804793995
 20
146.0721260514
  0
VERTEX
  8
0
 62
7
  6
CONTINUOUS
 10
-6.8373169511
 20
143.8244038991
  0
VERTEX
  8
0
 62
7
  6
CONTINUOUS
 10
-6.788829973
 20
141.4275900791
  0
VERTEX
  8
0
 62
7
  6
CONTINUOUS
 10
-6.7352449684
 20
138.9129872059
  0
VERTEX
  8
0
 62
7
  6
CONTINUOUS
 10
-6.6715493705
 20
136.0792942588
  0
VERTEX
  8
0
 62
7
  6
CONTINUOUS
 10
-6.595573878
 20
132.8851148279
  0
VERTEX
  8
0
 62
7
  6
CONTINUOUS
 10
-6.5054108849
 20
129.3131369856
  0
VERTEX
  8
0
 62
7
  6
CONTINUOUS
 10
-6.3968169303
 20
125.2710111387
  0
VERTEX
  8
0
 62
7
  6
CONTINUOUS
 10
-6.2658301006
 20
120.7042291851
  0
VERTEX
  8
0
 62
7
  6
CONTINUOUS
 10
-6.1085851653
 20
115.5827617163
  0
VERTEX
  8
0
 62
7
  6
CONTINUOUS
 10
-5.9178384424
 20
109.7933987861
  0
VERTEX
  8
0
 62
7
  6
CONTINUOUS
 10
-5.6976433998
 20
103.5699230846
  0
VERTEX
  8
0
 62
7
  6
CONTINUOUS
 10
-5.4654317792
 20
97.4336432186
  0
VERTEX
  8
0
 62
7
  6
CONTINUOUS
 10
-5.2284819762
 20
91.5352122228
  0
VERTEX
  8
0
 62
7
  6
CONTINUOUS
 10
-4.9911224281
 20
85.9258722266
  0
VERTEX
  8
0
 62
7
  6
CONTINUOUS
 10
-4.7519141643
 20
80.524690744
  0
VERTEX
  8
0
 62
7
  6
CONTINUOUS
 10
-4.5095283513
 20
75.2697555121
  0
VERTEX
  8
0
 62
7
  6
CONTINUOUS
 10
-4.2630168297
 20
70.1180981371
  0
VERTEX
  8
0
 62
7
  6
CONTINUOUS
 10
-4.01353273
 20
65.0755215114
  0
VERTEX
  8
0
 62
7
  6
CONTINUOUS
 10
-3.7564801487
 20
60.0370526483
  0
VERTEX
  8
0
 62
7
  6
CONTINUOUS
 10
-3.4850043568
 20
54.8675544066
  0
VERTEX
  8
0
 62
7
  6
CONTINUOUS
 10
-3.1892544422
 20
49.39162735
  0
VERTEX
  8
0
 62
7
  6
CONTINUOUS
 10
-2.8567720676
 20
43.4091849844
  0
VERTEX
  8
0
 62
7
  6
CONTINUOUS
 10
-2.4700997307
 20
36.6602019545
  0
VERTEX
  8
0
 62
7
  6
CONTINUOUS
 10
-2.0128084047
 20
28.9376465615
  0
VERTEX
  8
0
 62
7
  6
CONTINUOUS
 10
-1.4712826856
 20
20.1141961679
  0
VERTEX
  8
0
 62
7
  6
CONTINUOUS
 10
-0.832616302
 20
10.1008528418
  0
VERTEX
  8
0
 62
7
  6
CONTINUOUS
 10
-0.0885899477
 20
-1.0980039778
  0
VERTEX
  8
0
 62
7
  6
CONTINUOUS
 10
0.7629880975
 20
-13.3754050301
  0
VERTEX
  8
0
 62
7
  6
CONTINUOUS
 10
1.5945755055
 20
-24.8727796032
  0
VERTEX
  8
0
 62
7
  6
CONTINUOUS
 10
2.3518701333
 20
-34.9663564611
  0
VERTEX
  8
0
 62
7
  6
CONTINUOUS
 10
3.0402290676
 20
-43.8598091698
  0
VERTEX
  8
0
 62
7
  6
CONTINUOUS
 10
3.6574181126
 20
-51.6279627647
  0
VERTEX
  8
0
 62
7
  6
CONTINUOUS
 10
4.2095523643
 20
-58.4276516168
  0
VERTEX
  8
0
 62
7
  6
CONTINUOUS
 10
4.7107860921
 20
-64.4878684482
  0
VERTEX
  8
0
 62
7
  6
CONTINUOUS
 10
5.1701204822
 20
-69.9539537411
  0
VERTEX
  8
0
 62
7
  6
CONTINUOUS
 10
5.608827708
 20
-75.1012967796
  0
VERTEX
  8
0
 62
7
  6
CONTINUOUS
 10
6.0272545043
 20
-79.9478008292
  0
VERTEX
  8
0
 62
7
  6
CONTINUOUS
 10
6.4015015934
 20
-84.2332868175
  0
VERTEX
  8
0
 62
7
  6
CONTINUOUS
 10
6.733886995
 20
-88.0026627177
  0
VERTEX
  8
0
 62
7
  6
CONTINUOUS
 10
7.051029608
 20
-91.5697547693
  0
VERTEX
  8
0
 62
7
  6
CONTINUOUS
 10
7.331071785
 20
-94.6977488943
  0
VERTEX
  8
0
 62
7
  6
CONTINUOUS
 10
7.6211845247
 20
-97.918502728
  0
VERTEX
  8
0
 62
7
  6
CONTINUOUS
 10
7.8935787658
 20
-100.9258094626
  0
VERTEX
  8
0
 62
7
  6
CONTINUOUS
 10
8.1612079484
 20
-103.8660703776
  0
VERTEX
  8
0
 62
7
  6
CONTINUOUS
 10
8.4386993761
 20
-106.9008989711
  0
VERTEX
  8
0
 62
7
  6
CONTINUOUS
 10
8.6970845384
 20
-109.7152992978
  0
VERTEX
  8
0
 62
7
  6
CONTINUOUS
 10
8.976338445
 20
-112.7457821895
  0
VERTEX
  8
0
 62
7
  6
CONTINUOUS
 10
9.2469926426
 20
-115.6729602686
  0
VERTEX
  8
0
 62
7
  6
CONTINUOUS
 10
9.5109874987
 20
-118.5197121258
  0
VERTEX
  8
0
 62
7
  6
CONTINUOUS
 10
9.796576253
 20
-121.5911256528
  0
VERTEX
  8
0
 62
7
  6
CONTINUOUS
 10
10.0730530741
 20
-124.557549582
  0
VERTEX
  8
0
 62
7
  6
CONTINUOUS
 10
10.3462344005
 20
-127.4829235327
  0
VERTEX
  8
0
 62
7
  6
CONTINUOUS
 10
10.6402571225
 20
-130.6263237132
  0
VERTEX
  8
0
 62
7
  6
CONTINUOUS
 10
10.9356121591
 20
-133.7796721879
  0
VERTEX
  8
0
 62
7
  6
CONTINUOUS
 10
11.2294402912
 20
-136.9133872182
  0
VERTEX
  8
0
 62
7
  6
CONTINUOUS
 10
11.5276883005
 20
-140.0917873014
  0
VERTEX
  8
0
 62
7
  6
CONTINUOUS
 10
11.8630298791
 20
-143.6637153904
  0
VERTEX
  8
0
 62
7
  6
CONTINUOUS
 10
12.2166563396
 20
-147.4298009719
  0
VERTEX
  8
0
 62
7
  6
CONTINUOUS
 10
12.5503047945
 20
-150.9839421337
  0
VERTEX
  8
0
 62
7
  6
CONTINUOUS
 10
12.9307906994
 20
-155.0397046698
  0
VERTEX
  8
0
 62
7
  6
CONTINUOUS
 10
13.3345786489
 20
-159.3491041977
  0
VERTEX
  8
0
 62
7
  6
CONTINUOUS
 10
13.719888972
 20
-163.4684879617
  0
VERTEX
  8
0
 62
7
  6
CONTINUOUS
 10
14.156708694
 20
-168.1497482598
  0
VERTEX
  8
0
 62
7
  6
CONTINUOUS
 10
14.6072402025
 20
-172.9935621163
  0
VERTEX
  8
0
 62
7
  6
CONTINUOUS
 10
15.0565074694
 20
-177.8408034056
  0
VERTEX
  8
0
 62
7
  6
CONTINUOUS
 10
15.5321452319
 20
-182.9885126556
  0
VERTEX
  8
0
 62
7
  6
CONTINUOUS
 10
15.9853266483
 20
-187.9055515814
  0
VERTEX
  8
0
 62
7
  6
CONTINUOUS
 10
16.4024330239
 20
-192.4393401576
  0
VERTEX
  8
0
 62
7
  6
CONTINUOUS
 10
16.7666590317
 20
-196.4029061662
  0
VERTEX
  8
0
 62
7
  6
CONTINUOUS
 10
17.1330690969
 20
-200.3929095773
  0
VERTEX
  8
0
 62
7
  6
CONTINUOUS
 10
17.5148131261
 20
-204.5510442818
  0
VERTEX
  8
0
 62
7
  6
CONTINUOUS
 10
17.846916344
 20
-208.1680525185
  0
VERTEX
  8
0
 62
7
  6
CONTINUOUS
 10
18.1748699526
 20
-211.7382780607
  0
VERTEX
  8
0
 62
7
  6
CONTINUOUS
 10
18.5030482283
 20
-215.3082201651
  0
VERTEX
  8
0
 62
7
  6
CONTINUOUS
 10
18.8018808003
 20
-218.555304692
  0
VERTEX
  8
0
 62
7
  6
CONTINUOUS
 10
19.0857469065
 20
-221.635201914
  0
VERTEX
  8
0
 62
7
  6
CONTINUOUS
 10
19.3712622634
 20
-224.7272396298
  0
VERTEX
  8
0
 62
7
  6
CONTINUOUS
 10
19.6360269335
 20
-227.5883254061
  0
VERTEX
  8
0
 62
7
  6
CONTINUOUS
 10
19.8818866304
 20
-230.2388908963
  0
VERTEX
  8
0
 62
7
  6
CONTINUOUS
 10
20.1191425883
 20
-232.7902900449
  0
VERTEX
  8
0
 62
7
  6
CONTINUOUS
 10
20.3620870445
 20
-235.3956414216
  0
VERTEX
  8
0
 62
7
  6
CONTINUOUS
 10
20.5992596514
 20
-237.9313956074
  0
VERTEX
  8
0
 62
7
  6
CONTINUOUS
 10
20.8143228205
 20
-240.2236652408
  0
VERTEX
  8
0
 62
7
  6
CONTINUOUS
 10
21.0457994988
 20
-242.682806144
  0
VERTEX
  8
0
 62
7
  6
CONTINUOUS
 10
21.2984549855
 20
-245.3567738225
  0
VERTEX
  8
0
 62
7
  6
CONTINUOUS
 10
21.5303256018
 20
-247.8008667495
  0
VERTEX
  8
0
 62
7
  6
CONTINUOUS
 10
21.7825680926
 20
-250.4483388582
  0
VERTEX
  8
0
 62
7
  6
CONTINUOUS
 10
22.0422747967
 20
-253.1611652852
  0
VERTEX
  8
0
 62
7
  6
CONTINUOUS
 10
22.2894614538
 20
-255.7304014799
  0
VERTEX
  8
0
 62
7
  6
CONTINUOUS
 10
22.5738739484
 20
-258.6704488808
  0
VERTEX
  8
0
 62
7
  6
CONTINUOUS
 10
22.8696684304
 20
-261.7092513344
  0
VERTEX
  8
0
 62
7
  6
CONTINUOUS
 10
23.1946125138
 20
-265.024609338
  0
VERTEX
  8
0
 62
7
  6
CONTINUOUS
 10
23.5354626932
 20
-268.4757295431
  0
VERTEX
  8
0
 62
7
  6
CONTINUOUS
 10
23.8902019276
 20
-272.0378585237
  0
VERTEX
  8
0
 62
7
  6
CONTINUOUS
 10
24.2494733082
 20
-275.6139700068
  0
VERTEX
  8
0
 62
7
  6
CONTINUOUS
 10
24.597259776
 20
-279.04492403
  0
VERTEX
  8
0
 62
7
  6
CONTINUOUS
 10
24.975201537
 20
-282.7383671816
  0
VERTEX
  8
0
 62
7
  6
CONTINUOUS
 10
25.395248484
 20
-286.7998780869
  0
VERTEX
  8
0
 62
7
  6
CONTINUOUS
 10
25.7940385808
 20
-290.6130496109
  0
VERTEX
  8
0
 62
7
  6
CONTINUOUS
 10
26.1475128018
 20
-293.9577498244
  0
VERTEX
  8
0
 62
7
  6
CONTINUOUS
 10
26.4611856589
 20
-296.8979982137
  0
VERTEX
  8
0
 62
7
  6
CONTINUOUS
 10
26.7594153995
 20
-299.669206147
  0
VERTEX
  8
0
 62
7
  6
CONTINUOUS
 10
27.0508514992
 20
-302.355971051
  0
SEQEND
  0
POLYLINE
  8
0
 62
7
  6
CONTINUOUS
 66
1
 70
0
  0
VERTEX
  8
0
 62
7
  6
CONTINUOUS
 10
341.4999325845
 20
-302.355971051
  0
VERTEX
  8
0
 62
7
  6
CONTINUOUS
 10
341.8173459968
 20
-299.4287396112
  0
VERTEX
  8
0
 62
7
  6
CONTINUOUS
 10
342.1223411909
 20
-296.5923068506
  0
VERTEX
  8
0
 62
7
  6
CONTINUOUS
 10
342.459143843
 20
-293.4312717902
  0
VERTEX
  8
0
 62
7
  6
CONTINUOUS
 10
342.8316386763
 20
-289.9001315812
  0
VERTEX
  8
0
 62
7
  6
CONTINUOUS
 10
343.2476073764
 20
-285.9135600268
  0
VERTEX
  8
0
 62
7
  6
CONTINUOUS
 10
343.6859699828
 20
-281.6634045897
  0
VERTEX
  8
0
 62
7
  6
CONTINUOUS
 10
344.098663386
 20
-277.6168339975
  0
VERTEX
  8
0
 62
7
  6
CONTINUOUS
 10
344.4781755142
 20
-273.8575039194
  0
VERTEX
  8
0
 62
7
  6
CONTINUOUS
 10
344.8377291642
 20
-270.2628522313
  0
VERTEX
  8
0
 62
7
  6
CONTINUOUS
 10
345.1942272496
 20
-266.6677333685
  0
VERTEX
  8
0
 62
7
  6
CONTINUOUS
 10
345.5403194597
 20
-263.1487600563
  0
VERTEX
  8
0
 62
7
  6
CONTINUOUS
 10
345.8669704113
 20
-259.8021812567
  0
VERTEX
  8
0
 62
7
  6
CONTINUOUS
 10
346.1736235942
 20
-256.6388357261
  0
VERTEX
  8
0
 62
7
  6
CONTINUOUS
 10
346.4627352452
 20
-253.6378954743
  0
VERTEX
  8
0
 62
7
  6
CONTINUOUS
 10
346.7379499818
 20
-250.765179866
  0
VERTEX
  8
0
 62
7
  6
CONTINUOUS
 10
347.0017842101
 20
-247.9972797753
  0
VERTEX
  8
0
 62
7
  6
CONTINUOUS
 10
347.2578870388
 20
-245.2980704139
  0
VERTEX
  8
0
 62
7
  6
CONTINUOUS
 10
347.5051856709
 20
-242.6806736455
  0
VERTEX
  8
0
 62
7
  6
CONTINUOUS
 10
347.7464477685
 20
-240.1173795318
  0
VERTEX
  8
0
 62
7
  6
CONTINUOUS
 10
347.9858242012
 20
-237.5651709829
  0
VERTEX
  8
0
 62
7
  6
CONTINUOUS
 10
348.2246944698
 20
-235.0100904575
  0
VERTEX
  8
0
 62
7
  6
CONTINUOUS
 10
348.4661840242
 20
-232.4192448229
  0
VERTEX
  8
0
 62
7
  6
CONTINUOUS
 10
348.7138559848
 20
-229.754685689
  0
VERTEX
  8
0
 62
7
  6
CONTINUOUS
 10
348.9706979091
 20
-226.9843710087
  0
VERTEX
  8
0
 62
7
  6
CONTINUOUS
 10
349.2387161984
 20
-224.0867187394
  0
VERTEX
  8
0
 62
7
  6
CONTINUOUS
 10
349.5199885738
 20
-221.0393959476
  0
VERTEX
  8
0
 62
7
  6
CONTINUOUS
 10
349.8157086634
 20
-217.8297825106
  0
VERTEX
  8
0
 62
7
  6
CONTINUOUS
 10
350.1270808898
 20
-214.4454180799
  0
VERTEX
  8
0
 62
7
  6
CONTINUOUS
 10
350.454012277
 20
-210.8882764225
  0
VERTEX
  8
0
 62
7
  6
CONTINUOUS
 10
350.7984529517
 20
-207.1380184411
  0
VERTEX
  8
0
 62
7
  6
CONTINUOUS
 10
351.1672124353
 20
-203.1214765741
  0
VERTEX
  8
0
 62
7
  6
CONTINUOUS
 10
351.5643387415
 20
-198.7960366222
  0
VERTEX
  8
0
 62
7
  6
CONTINUOUS
 10
351.9968313232
 20
-194.0877816866
  0
VERTEX
  8
0
 62
7
  6
CONTINUOUS
 10
352.4799855174
 20
-188.8340405688
  0
VERTEX
  8
0
 62
7
  6
CONTINUOUS
 10
353.0211035653
 20
-182.9618007224
  0
VERTEX
  8
0
 62
7
  6
CONTINUOUS
 10
353.608033333
 20
-176.6119635506
  0
VERTEX
  8
0
 62
7
  6
CONTINUOUS
 10
354.1887465604
 20
-170.3551458085
  0
VERTEX
  8
0
 62
7
  6
CONTINUOUS
 10
354.7331898436
 20
-164.5144336159
  0
VERTEX
  8
0
 62
7
  6
CONTINUOUS
 10
355.2329435925
 20
-159.1703300383
  0
VERTEX
  8
0
 62
7
  6
CONTINUOUS
 10
355.6862102439
 20
-154.3335843238
  0
VERTEX
  8
0
 62
7
  6
CONTINUOUS
 10
356.0974599975
 20
-149.9507070862
  0
VERTEX
  8
0
 62
7
  6
CONTINUOUS
 10
356.4704941376
 20
-145.9774895016
  0
VERTEX
  8
0
 62
7
  6
CONTINUOUS
 10
356.8138105905
 20
-142.3211524974
  0
VERTEX
  8
0
 62
7
  6
CONTINUOUS
 10
357.135279001
 20
-138.8964916523
  0
VERTEX
  8
0
 62
7
  6
CONTINUOUS
 10
357.4414024096
 20
-135.6332887896
  0
VERTEX
  8
0
 62
7
  6
CONTINUOUS
 10
357.7369739011
 20
-132.4797174578
  0
VERTEX
  8
0
 62
7
  6
CONTINUOUS
 10
358.0265733532
 20
-129.3862345529
  0
VERTEX
  8
0
 62
7
  6
CONTINUOUS
 10
358.3122350092
 20
-126.3303800387
  0
VERTEX
  8
0
 62
7
  6
CONTINUOUS
 10
358.593468173
 20
-123.3165280727
  0
VERTEX
  8
0
 62
7
  6
CONTINUOUS
 10
358.8714280847
 20
-120.331415454
  0
VERTEX
  8
0
 62
7
  6
CONTINUOUS
 10
359.1487478956
 20
-117.3457915696
  0
VERTEX
  8
0
 62
7
  6
CONTINUOUS
 10
359.4255312907
 20
-114.3574631631
  0
VERTEX
  8
0
 62
7
  6
CONTINUOUS
 10
359.7014160268
 20
-111.369259607
  0
VERTEX
  8
0
 62
7
  6
CONTINUOUS
 10
359.9771989189
 20
-108.3714220151
  0
VERTEX
  8
0
 62
7
  6
CONTINUOUS
 10
360.2515760567
 20
-105.3770021466
  0
VERTEX
  8
0
 62
7
  6
CONTINUOUS
 10
360.5276934142
 20
-102.3503776009
  0
VERTEX
  8
0
 62
7
  6
CONTINUOUS
 10
360.8100331048
 20
-99.2404595342
  0
VERTEX
  8
0
 62
7
  6
CONTINUOUS
 10
361.1021151869
 20
-96.0056021212
  0
VERTEX
  8
0
 62
7
  6
CONTINUOUS
 10
361.4118374758
 20
-92.5538780018
  0
VERTEX
  8
0
 62
7
  6
CONTINUOUS
 10
361.7474851788
 20
-88.7857409488
  0
VERTEX
  8
0
 62
7
  6
CONTINUOUS
 10
362.1193421041
 20
-84.5741945299
  0
VERTEX
  8
0
 62
7
  6
CONTINUOUS
 10
362.5276806602
 20
-79.90001062
  0
VERTEX
  8
0
 62
7
  6
CONTINUOUS
 10
362.9687685793
 20
-74.7886843398
  0
VERTEX
  8
0
 62
7
  6
CONTINUOUS
 10
363.4354938374
 20
-69.3056910686
  0
VERTEX
  8
0
 62
7
  6
CONTINUOUS
 10
363.9305961525
 20
-63.4000546976
  0
VERTEX
  8
0
 62
7
  6
CONTINUOUS
 10
364.4751097312
 20
-56.7912210399
  0
VERTEX
  8
0
 62
7
  6
CONTINUOUS
 10
365.0840691148
 20
-49.2472794
  0
VERTEX
  8
0
 62
7
  6
CONTINUOUS
 10
365.7628542135
 20
-40.6295686665
  0
VERTEX
  8
0
 62
7
  6
CONTINUOUS
 10
366.5110476353
 20
-30.8471235024
  0
VERTEX
  8
0
 62
7
  6
CONTINUOUS
 10
367.322048899
 20
-19.8708527369
  0
VERTEX
  8
0
 62
7
  6
CONTINUOUS
 10
368.1901551702
 20
-7.6419391981
  0
VERTEX
  8
0
 62
7
  6
CONTINUOUS
 10
369.0319149457
 20
4.7518074466
  0
VERTEX
  8
0
 62
7
  6
CONTINUOUS
 10
369.7454866351
 20
15.7288578341
  0
VERTEX
  8
0
 62
7
  6
CONTINUOUS
 10
370.3501345826
 20
25.4202999337
  0
VERTEX
  8
0
 62
7
  6
CONTINUOUS
 10
370.8632852244
 20
33.9685917785
  0
VERTEX
  8
0
 62
7
  6
CONTINUOUS
 10
371.2984689513
 20
41.4834427072
  0
VERTEX
  8
0
 62
7
  6
CONTINUOUS
 10
371.6663444746
 20
48.0503935646
  0
VERTEX
  8
0
 62
7
  6
CONTINUOUS
 10
371.982155196
 20
53.8630249167
  0
VERTEX
  8
0
 62
7
  6
CONTINUOUS
 10
372.262254167
 20
59.1697171557
  0
VERTEX
  8
0
 62
7
  6
CONTINUOUS
 10
372.5217448605
 20
64.2306161448
  0
VERTEX
  8
0
 62
7
  6
CONTINUOUS
 10
372.7716911511
 20
69.2555442472
  0
VERTEX
  8
0
 62
7
  6
CONTINUOUS
 10
373.0180026403
 20
74.3725327412
  0
VERTEX
  8
0
 62
7
  6
CONTINUOUS
 10
373.2625171086
 20
79.6393212752
  0
VERTEX
  8
0
 62
7
  6
CONTINUOUS
 10
373.5039087572
 20
85.0521410918
  0
VERTEX
  8
0
 62
7
  6
CONTINUOUS
 10
373.743704702
 20
90.6771438508
  0
VERTEX
  8
0
 62
7
  6
CONTINUOUS
 10
373.9826873126
 20
96.5785389454
  0
VERTEX
  8
0
 62
7
  6
CONTINUOUS
 10
374.2164708053
 20
102.7015624621
  0
VERTEX
  8
0
 62
7
  6
CONTINUOUS
 10
374.4388959678
 20
108.9268043625
  0
VERTEX
  8
0
 62
7
  6
CONTINUOUS
 10
374.6415707643
 20
115.0244139244
  0
VERTEX
  8
0
 62
7
  6
CONTINUOUS
 10
374.8157483132
 20
120.6750215052
  0
VERTEX
  8
0
 62
7
  6
CONTINUOUS
 10
374.9600940789
 20
125.723224241
  0
VERTEX
  8
0
 62
7
  6
CONTINUOUS
 10
375.0777736189
 20
130.148619927
  0
VERTEX
  8
0
 62
7
  6
CONTINUOUS
 10
375.1753265954
 20
134.0813103153
  0
VERTEX
  8
0
 62
7
  6
CONTINUOUS
 10
375.2571320942
 20
137.6080896685
  0
VERTEX
  8
0
 62
7
  6
CONTINUOUS
 10
375.3255863075
 20
140.7565737895
  0
VERTEX
  8
0
 62
7
  6
CONTINUOUS
 10
375.3828043648
 20
143.5563537875
  0
VERTEX
  8
0
 62
7
  6
CONTINUOUS
 10
375.430265436
 20
146.0187993565
  0
VERTEX
  8
0
 62
7
  6
CONTINUOUS
 10
375.469788748
 20
148.1850350409
  0
SEQEND
  0
LINE
  8
0
 62
7
  6
CONTINUOUS
 10
339.8382245428
 20
-306.8147774712
 11
34.3248777334
 21
-306.8147774712
  0
LINE
  8
0
 62
7
  6
CONTINUOUS
 10
34.3247689635
 20
-306.8147774712
 11
28.7125381239
 21
-306.8147774712
  0
LINE
  8
0
 62
7
  6
CONTINUOUS
 10
165.6528635627
 20
608.4775264641
 11
165.6972080713
 21
608.4959719356
  0
POLYLINE
  8
0
 62
7
  6
CONTINUOUS
 66
1
 70
0
  0
VERTEX
  8
0
 62
7
  6
CONTINUOUS
 10
156.7884080306
 20
603.0582909317
  0
VERTEX
  8
0
 62
7
  6
CONTINUOUS
 10
156.8722199853
 20
603.1276244209
  0
VERTEX
  8
0
 62
7
  6
CONTINUOUS
 10
156.949687934
 20
603.1799128258
  0
VERTEX
  8
0
 62
7
  6
CONTINUOUS
 10
157.0166115746
 20
603.2176237689
  0
VERTEX
  8
0
 62
7
  6
CONTINUOUS
 10
157.0749049488
 20
603.245627185
  0
VERTEX
  8
0
 62
7
  6
CONTINUOUS
 10
157.1263344413
 20
603.2670154706
  0
VERTEX
  8
0
 62
7
  6
CONTINUOUS
 10
157.1727720053
 20
603.2839269088
  0
VERTEX
  8
0
 62
7
  6
CONTINUOUS
 10
157.21800486
 20
603.2984277176
  0
VERTEX
  8
0
 62
7
  6
CONTINUOUS
 10
157.2528379765
 20
603.308399602
  0
SEQEND
  0
LINE
  8
0
 62
7
  6
CONTINUOUS
 10
165.6528635627
 20
608.4775264641
 11
162.8216957421
 21
604.8256403138
  0
LINE
  8
0
 62
7
  6
CONTINUOUS
 10
-16.6838407264
 20
586.4787116964
 11
-17.0889069277
 21
563.272484561
  0
POLYLINE
  8
0
 62
7
  6
CONTINUOUS
 66
1
 70
0
  0
VERTEX
  8
0
 62
7
  6
CONTINUOUS
 10
156.5216753789
 20
602.6586827972
  0
VERTEX
  8
0
 62
7
  6
CONTINUOUS
 10
156.5860523835
 20
602.8004571931
  0
VERTEX
  8
0
 62
7
  6
CONTINUOUS
 10
156.661536443
 20
602.9176658459
  0
VERTEX
  8
0
 62
7
  6
CONTINUOUS
 10
156.7405358227
 20
603.0112406738
  0
VERTEX
  8
0
 62
7
  6
CONTINUOUS
 10
156.7884079952
 20
603.058290899
  0
SEQEND
  0
POLYLINE
  8
0
 62
7
  6
CONTINUOUS
 66
1
 70
0
  0
VERTEX
  8
0
 62
7
  6
CONTINUOUS
 10
-7.7837262404
 20
170.0468057595
  0
VERTEX
  8
0
 62
7
  6
CONTINUOUS
 10
-7.771639149
 20
169.7243785015
  0
VERTEX
  8
0
 62
7
  6
CONTINUOUS
 10
-7.7291793163
 20
169.2424596691
  0
VERTEX
  8
0
 62
7
  6
CONTINUOUS
 10
-7.6576671683
 20
168.7639884778
  0
VERTEX
  8
0
 62
7
  6
CONTINUOUS
 10
-7.5573642209
 20
168.2907147351
  0
VERTEX
  8
0
 62
7
  6
CONTINUOUS
 10
-7.4286372824
 20
167.8243692331
  0
VERTEX
  8
0
 62
7
  6
CONTINUOUS
 10
-7.2719571121
 20
167.3666574257
  0
VERTEX
  8
0
 62
7
  6
CONTINUOUS
 10
-7.0878966993
 20
166.9192531935
  0
VERTEX
  8
0
 62
7
  6
CONTINUOUS
 10
-6.8771291649
 20
166.4837927151
  0
VERTEX
  8
0
 62
7
  6
CONTINUOUS
 10
-6.6404253165
 20
166.0618685147
  0
VERTEX
  8
0
 62
7
  6
CONTINUOUS
 10
-6.3786507545
 20
165.6550235137
  0
VERTEX
  8
0
 62
7
  6
CONTINUOUS
 10
-6.0927627822
 20
165.2647455403
  0
VERTEX
  8
0
 62
7
  6
CONTINUOUS
 10
-5.7838068152
 20
164.8924617636
  0
VERTEX
  8
0
 62
7
  6
CONTINUOUS
 10
-5.4529125691
 20
164.5395335279
  0
VERTEX
  8
0
 62
7
  6
CONTINUOUS
 10
-5.1012902029
 20
164.207251642
  0
VERTEX
  8
0
 62
7
  6
CONTINUOUS
 10
-4.7302255325
 20
163.8968312503
  0
VERTEX
  8
0
 62
7
  6
CONTINUOUS
 10
-4.3410759282
 20
163.6094078848
  0
VERTEX
  8
0
 62
7
  6
CONTINUOUS
 10
-3.9352646151
 20
163.3460326677
  0
VERTEX
  8
0
 62
7
  6
CONTINUOUS
 10
-3.5142767155
 20
163.1076692632
  0
VERTEX
  8
0
 62
7
  6
CONTINUOUS
 10
-3.0796529625
 20
162.8951896076
  0
VERTEX
  8
0
 62
7
  6
CONTINUOUS
 10
-3.0303462968
 20
162.874677528
  0
SEQEND
  0
POLYLINE
  8
0
 62
7
  6
CONTINUOUS
 66
1
 70
0
  0
VERTEX
  8
0
 62
7
  6
CONTINUOUS
 10
-6.9191587825
 20
148.1852201645
  0
VERTEX
  8
0
 62
7
  6
CONTINUOUS
 10
-6.5304933359
 20
130.2545324174
  0
VERTEX
  8
0
 62
7
  6
CONTINUOUS
 10
-5.9919663455
 20
111.9788051605
  0
VERTEX
  8
0
 62
7
  6
CONTINUOUS
 10
-5.2557722189
 20
92.1998875828
  0
VERTEX
  8
0
 62
7
  6
CONTINUOUS
 10
-4.9283987477
 20
84.4862289001
  0
SEQEND
  0
POLYLINE
  8
0
 62
7
  6
CONTINUOUS
 66
1
 70
0
  0
VERTEX
  8
0
 62
7
  6
CONTINUOUS
 10
-3.050845033
 20
154.5828911186
  0
VERTEX
  8
0
 62
7
  6
CONTINUOUS
 10
-3.0452664849
 20
154.3045516005
  0
VERTEX
  8
0
 62
7
  6
CONTINUOUS
 10
-3.0389962086
 20
154.0495930075
  0
VERTEX
  8
0
 62
7
  6
CONTINUOUS
 10
-3.0320047486
 20
153.81696295
  0
VERTEX
  8
0
 62
7
  6
CONTINUOUS
 10
-3.0241391281
 20
153.602725307
  0
VERTEX
  8
0
 62
7
  6
CONTINUOUS
 10
-3.015221806
 20
153.404714403
  0
VERTEX
  8
0
 62
7
  6
CONTINUOUS
 10
-3.0046677232
 20
153.2154155971
  0
VERTEX
  8
0
 62
7
  6
CONTINUOUS
 10
-2.991714509
 20
153.0304326685
  0
VERTEX
  8
0
 62
7
  6
CONTINUOUS
 10
-2.9741329159
 20
152.8344444843
  0
SEQEND
  0
POLYLINE
  8
0
 62
7
  6
CONTINUOUS
 66
1
 70
0
  0
VERTEX
  8
0
 62
7
  6
CONTINUOUS
 10
-14.4866978726
 20
553.0957385377
  0
VERTEX
  8
0
 62
7
  6
CONTINUOUS
 10
-13.5780179503
 20
502.3334609896
  0
VERTEX
  8
0
 62
7
  6
CONTINUOUS
 10
-13.4547152173
 20
495.4445850482
  0
VERTEX
  8
0
 62
7
  6
CONTINUOUS
 10
-13.1986759376
 20
481.1081243142
  0
VERTEX
  8
0
 62
7
  6
CONTINUOUS
 10
-12.5456531901
 20
444.3181941108
  0
VERTEX
  8
0
 62
7
  6
CONTINUOUS
 10
-12.006191331
 20
413.6775212703
  0
VERTEX
  8
0
 62
7
  6
CONTINUOUS
 10
-11.6252760728
 20
391.9037621613
  0
VERTEX
  8
0
 62
7
  6
CONTINUOUS
 10
-11.1928089956
 20
367.041820541
  0
VERTEX
  8
0
 62
7
  6
CONTINUOUS
 10
-10.7570243537
 20
341.8676154605
  0
SEQEND
  0
LINE
  8
0
 62
7
  6
CONTINUOUS
 10
-10.7570243537
 20
341.8676154605
 11
-7.7837460884
 21
170.0468037042
  0
POLYLINE
  8
0
 62
7
  6
CONTINUOUS
 66
1
 70
0
  0
VERTEX
  8
0
 62
7
  6
CONTINUOUS
 10
-7.0167270659
 20
154.0604663284
  0
VERTEX
  8
0
 62
7
  6
CONTINUOUS
 10
-7.001843219
 20
153.1149226025
  0
VERTEX
  8
0
 62
7
  6
CONTINUOUS
 10
-6.984505451
 20
152.0357320007
  0
VERTEX
  8
0
 62
7
  6
CONTINUOUS
 10
-6.9673025437
 20
150.988780912
  0
VERTEX
  8
0
 62
7
  6
CONTINUOUS
 10
-6.9502115876
 20
149.9722370702
  0
VERTEX
  8
0
 62
7
  6
CONTINUOUS
 10
-6.9333377521
 20
148.9916309473
  0
VERTEX
  8
0
 62
7
  6
CONTINUOUS
 10
-6.919158781
 20
148.1852204933
  0
SEQEND
  0
POLYLINE
  8
0
 62
7
  6
CONTINUOUS
 66
1
 70
0
  0
VERTEX
  8
0
 62
7
  6
CONTINUOUS
 10
-3.0662498878
 20
155.9524644587
  0
VERTEX
  8
0
 62
7
  6
CONTINUOUS
 10
-3.0634668284
 20
155.5705490808
  0
VERTEX
  8
0
 62
7
  6
CONTINUOUS
 10
-3.0599569175
 20
155.2153781598
  0
VERTEX
  8
0
 62
7
  6
CONTINUOUS
 10
-3.0557458877
 20
154.8863126524
  0
VERTEX
  8
0
 62
7
  6
CONTINUOUS
 10
-3.050845033
 20
154.5828911186
  0
SEQEND
  0
POLYLINE
  8
0
 62
7
  6
CONTINUOUS
 66
1
 70
0
  0
VERTEX
  8
0
 62
7
  6
CONTINUOUS
 10
-3.0663011805
 20
158.8175007667
  0
VERTEX
  8
0
 62
7
  6
CONTINUOUS
 10
-3.0684164215
 20
158.2721520997
  0
VERTEX
  8
0
 62
7
  6
CONTINUOUS
 10
-3.069645377
 20
157.7535484556
  0
VERTEX
  8
0
 62
7
  6
CONTINUOUS
 10
-3.0700148904
 20
157.262123404
  0
VERTEX
  8
0
 62
7
  6
CONTINUOUS
 10
-3.0695532444
 20
156.7980956023
  0
VERTEX
  8
0
 62
7
  6
CONTINUOUS
 10
-3.0682899213
 20
156.3615823296
  0
VERTEX
  8
0
 62
7
  6
CONTINUOUS
 10
-3.0662498878
 20
155.9524644587
  0
SEQEND
  0
POLYLINE
  8
0
 62
7
  6
CONTINUOUS
 66
1
 70
0
  0
VERTEX
  8
0
 62
7
  6
CONTINUOUS
 10
-2.9176619808
 20
169.4069413524
  0
VERTEX
  8
0
 62
7
  6
CONTINUOUS
 10
-2.9344106424
 20
168.6259844602
  0
VERTEX
  8
0
 62
7
  6
CONTINUOUS
 10
-2.9502529564
 20
167.8449529979
  0
VERTEX
  8
0
 62
7
  6
CONTINUOUS
 10
-2.9651500498
 20
167.0668481869
  0
VERTEX
  8
0
 62
7
  6
CONTINUOUS
 10
-2.979082813
 20
166.2945165146
  0
VERTEX
  8
0
 62
7
  6
CONTINUOUS
 10
-2.9920285355
 20
165.5306321315
  0
VERTEX
  8
0
 62
7
  6
CONTINUOUS
 10
-3.0039704968
 20
164.7777003928
  0
VERTEX
  8
0
 62
7
  6
CONTINUOUS
 10
-3.0149036071
 20
164.0380437709
  0
VERTEX
  8
0
 62
7
  6
CONTINUOUS
 10
-3.0248181837
 20
163.3138136001
  0
VERTEX
  8
0
 62
7
  6
CONTINUOUS
 10
-3.0337164958
 20
162.6069594294
  0
VERTEX
  8
0
 62
7
  6
CONTINUOUS
 10
-3.0416076507
 20
161.9192608203
  0
VERTEX
  8
0
 62
7
  6
CONTINUOUS
 10
-3.0484935118
 20
161.2522910937
  0
VERTEX
  8
0
 62
7
  6
CONTINUOUS
 10
-3.0543890135
 20
160.6074365615
  0
VERTEX
  8
0
 62
7
  6
CONTINUOUS
 10
-3.0593101038
 20
159.9859851686
  0
VERTEX
  8
0
 62
7
  6
CONTINUOUS
 10
-3.0632722022
 20
159.3890347845
  0
VERTEX
  8
0
 62
7
  6
CONTINUOUS
 10
-3.0663011805
 20
158.8175007667
  0
SEQEND
  0
LINE
  8
0
 62
7
  6
CONTINUOUS
 10
-2.9176619808
 20
169.4069413524
 11
-2.3802516689
 21
193.6103589364
  0
POLYLINE
  8
0
 62
7
  6
CONTINUOUS
 66
1
 70
0
  0
VERTEX
  8
0
 62
7
  6
CONTINUOUS
 10
-2.2438872089
 20
194.7543003784
  0
VERTEX
  8
0
 62
7
  6
CONTINUOUS
 10
-2.2769854923
 20
194.5920417785
  0
VERTEX
  8
0
 62
7
  6
CONTINUOUS
 10
-2.3427226199
 20
194.1595018811
  0
VERTEX
  8
0
 62
7
  6
CONTINUOUS
 10
-2.3766801734
 20
193.7231810752
  0
VERTEX
  8
0
 62
7
  6
CONTINUOUS
 10
-2.3802512368
 20
193.610358867
  0
SEQEND
  0
LINE
  8
0
 62
7
  6
CONTINUOUS
 10
-2.2438872089
 20
194.7543003784
 11
-2.2438730466
 21
194.754365165
  0
LINE
  8
0
 62
7
  6
CONTINUOUS
 10
156.5216753789
 20
602.6586827972
 11
155.8569941076
 21
600.8328010012
  0
POLYLINE
  8
0
 62
7
  6
CONTINUOUS
 66
1
 70
0
  0
VERTEX
  8
0
 62
7
  6
CONTINUOUS
 10
-2.9478261882
 20
152.6112904753
  0
VERTEX
  8
0
 62
7
  6
CONTINUOUS
 10
-2.9067961365
 20
152.3509451273
  0
VERTEX
  8
0
 62
7
  6
CONTINUOUS
 10
-2.8389758956
 20
152.0313309329
  0
VERTEX
  8
0
 62
7
  6
CONTINUOUS
 10
-2.7377833726
 20
151.6731098191
  0
VERTEX
  8
0
 62
7
  6
CONTINUOUS
 10
-2.5979283329
 20
151.2913284829
  0
VERTEX
  8
0
 62
7
  6
CONTINUOUS
 10
-2.4145526297
 20
150.8958755619
  0
VERTEX
  8
0
 62
7
  6
CONTINUOUS
 10
-2.1883843113
 20
150.503043269
  0
VERTEX
  8
0
 62
7
  6
CONTINUOUS
 10
-1.9153668142
 20
150.1162139876
  0
VERTEX
  8
0
 62
7
  6
CONTINUOUS
 10
-1.5939661683
 20
149.7429554273
  0
VERTEX
  8
0
 62
7
  6
CONTINUOUS
 10
-1.2243437013
 20
149.3917255416
  0
VERTEX
  8
0
 62
7
  6
CONTINUOUS
 10
-0.8080419848
 20
149.0709571976
  0
VERTEX
  8
0
 62
7
  6
CONTINUOUS
 10
-0.3481921817
 20
148.7889434337
  0
VERTEX
  8
0
 62
7
  6
CONTINUOUS
 10
0.1502297509
 20
148.5535976675
  0
VERTEX
  8
0
 62
7
  6
CONTINUOUS
 10
0.6822083942
 20
148.3714624045
  0
VERTEX
  8
0
 62
7
  6
CONTINUOUS
 10
1.2412860861
 20
148.2485277211
  0
VERTEX
  8
0
 62
7
  6
CONTINUOUS
 10
1.819656412
 20
148.1898486766
  0
VERTEX
  8
0
 62
7
  6
CONTINUOUS
 10
2.0309806698
 20
148.1852250419
  0
SEQEND
  0
LINE
  8
0
 62
7
  6
CONTINUOUS
 10
-2.9741329159
 20
152.8344444843
 11
-2.9478261882
 21
152.6112904753
  0
POLYLINE
  8
0
 62
7
  6
CONTINUOUS
 66
1
 70
0
  0
VERTEX
  8
0
 62
7
  6
CONTINUOUS
 10
-3.0499510554
 20
161.0928638512
  0
VERTEX
  8
0
 62
7
  6
CONTINUOUS
 10
-3.364764791
 20
160.9010317801
  0
VERTEX
  8
0
 62
7
  6
CONTINUOUS
 10
-3.723939353
 20
160.6544328417
  0
VERTEX
  8
0
 62
7
  6
CONTINUOUS
 10
-4.0691413857
 20
160.3886571822
  0
VERTEX
  8
0
 62
7
  6
CONTINUOUS
 10
-4.3993410044
 20
160.1044795461
  0
VERTEX
  8
0
 62
7
  6
CONTINUOUS
 10
-4.713567962
 20
159.8027513042
  0
VERTEX
  8
0
 62
7
  6
CONTINUOUS
 10
-5.0108947149
 20
159.484383704
  0
VERTEX
  8
0
 62
7
  6
CONTINUOUS
 10
-5.2904492267
 20
159.1503328693
  0
VERTEX
  8
0
 62
7
  6
CONTINUOUS
 10
-5.5513757423
 20
158.8015841025
  0
VERTEX
  8
0
 62
7
  6
CONTINUOUS
 10
-5.792911152
 20
158.4391983192
  0
VERTEX
  8
0
 62
7
  6
CONTINUOUS
 10
-6.0143284017
 20
158.0642493262
  0
VERTEX
  8
0
 62
7
  6
CONTINUOUS
 10
-6.2149758952
 20
157.6778699385
  0
VERTEX
  8
0
 62
7
  6
CONTINUOUS
 10
-6.3943196726
 20
157.281197951
  0
VERTEX
  8
0
 62
7
  6
CONTINUOUS
 10
-6.5518196781
 20
156.8753859098
  0
VERTEX
  8
0
 62
7
  6
CONTINUOUS
 10
-6.6869943839
 20
156.4615940761
  0
VERTEX
  8
0
 62
7
  6
CONTINUOUS
 10
-6.7994711403
 20
156.0410298985
  0
VERTEX
  8
0
 62
7
  6
CONTINUOUS
 10
-6.888896876
 20
155.6149074916
  0
VERTEX
  8
0
 62
7
  6
CONTINUOUS
 10
-6.9550248358
 20
155.1844637002
  0
VERTEX
  8
0
 62
7
  6
CONTINUOUS
 10
-6.9976657447
 20
154.7509500036
  0
VERTEX
  8
0
 62
7
  6
CONTINUOUS
 10
-7.0166305643
 20
154.3156060442
  0
VERTEX
  8
0
 62
7
  6
CONTINUOUS
 10
-7.0167074036
 20
154.060465736
  0
SEQEND
  0
LINE
  8
0
 62
7
  6
CONTINUOUS
 10
184.5156857562
 20
610.3013673858
 11
184.5156857562
 21
610.7624408098
  0
LINE
  8
0
 62
7
  6
CONTINUOUS
 10
185.0156857562
 20
610.5592615867
 11
185.0156857562
 21
610.0965687556
  0
POLYLINE
  8
0
 62
7
  6
CONTINUOUS
 66
1
 70
0
  0
VERTEX
  8
0
 62
7
  6
CONTINUOUS
 10
366.5219993111
 20
148.1852271859
  0
VERTEX
  8
0
 62
7
  6
CONTINUOUS
 10
366.8357865767
 20
148.1954498641
  0
VERTEX
  8
0
 62
7
  6
CONTINUOUS
 10
367.43994572
 20
148.2712494387
  0
VERTEX
  8
0
 62
7
  6
CONTINUOUS
 10
368.019316183
 20
148.4163428004
  0
VERTEX
  8
0
 62
7
  6
CONTINUOUS
 10
368.5659633531
 20
148.6243191311
  0
VERTEX
  8
0
 62
7
  6
CONTINUOUS
 10
369.0734432532
 20
148.8879723343
  0
VERTEX
  8
0
 62
7
  6
CONTINUOUS
 10
369.5370524498
 20
149.1998082286
  0
VERTEX
  8
0
 62
7
  6
CONTINUOUS
 10
369.9520019214
 20
149.5508863332
  0
VERTEX
  8
0
 62
7
  6
CONTINUOUS
 10
370.3155825872
 20
149.9320890678
  0
VERTEX
  8
0
 62
7
  6
CONTINUOUS
 10
370.6268325489
 20
150.3343974849
  0
VERTEX
  8
0
 62
7
  6
CONTINUOUS
 10
370.8866564329
 20
150.7497185501
  0
VERTEX
  8
0
 62
7
  6
CONTINUOUS
 10
371.0960226377
 20
151.168192161
  0
VERTEX
  8
0
 62
7
  6
CONTINUOUS
 10
371.2611578721
 20
151.5903528945
  0
VERTEX
  8
0
 62
7
  6
CONTINUOUS
 10
371.3777854817
 20
151.9832945099
  0
VERTEX
  8
0
 62
7
  6
CONTINUOUS
 10
371.4507558507
 20
152.3139823708
  0
VERTEX
  8
0
 62
7
  6
CONTINUOUS
 10
371.4959608978
 20
152.5919073359
  0
VERTEX
  8
0
 62
7
  6
CONTINUOUS
 10
371.5223302443
 20
152.8094245211
  0
VERTEX
  8
0
 62
7
  6
CONTINUOUS
 10
371.5396431306
 20
152.9949469474
  0
VERTEX
  8
0
 62
7
  6
CONTINUOUS
 10
371.5525746156
 20
153.170448162
  0
VERTEX
  8
0
 62
7
  6
CONTINUOUS
 10
371.5628240013
 20
153.343156788
  0
VERTEX
  8
0
 62
7
  6
CONTINUOUS
 10
371.5716992317
 20
153.5263337149
  0
VERTEX
  8
0
 62
7
  6
CONTINUOUS
 10
371.5794948998
 20
153.7219471303
  0
SEQEND
  0
LINE
  8
0
 62
7
  6
CONTINUOUS
 10
366.522000281
 20
148.1852261042
 11
2.034762192
 21
148.1852225288
  0
LINE
  8
0
 62
7
  6
CONTINUOUS
 10
2.034762192
 20
148.1852225288
 11
2.0309797092
 21
148.18522396
  0
POLYLINE
  8
0
 62
7
  6
CONTINUOUS
 66
1
 70
0
  0
VERTEX
  8
0
 62
7
  6
CONTINUOUS
 10
3.5954391875
 20
199.4401474082
  0
VERTEX
  8
0
 62
7
  6
CONTINUOUS
 10
3.0733325268
 20
199.4174768101
  0
VERTEX
  8
0
 62
7
  6
CONTINUOUS
 10
2.2399364673
 20
199.2856073652
  0
VERTEX
  8
0
 62
7
  6
CONTINUOUS
 10
1.431613279
 20
199.0375918151
  0
VERTEX
  8
0
 62
7
  6
CONTINUOUS
 10
0.6665674318
 20
198.6783267032
  0
VERTEX
  8
0
 62
7
  6
CONTINUOUS
 10
-0.0404328645
 20
198.2143794854
  0
VERTEX
  8
0
 62
7
  6
CONTINUOUS
 10
-0.6748696254
 20
197.6547659065
  0
VERTEX
  8
0
 62
7
  6
CONTINUOUS
 10
-1.2233140709
 20
197.0110960526
  0
VERTEX
  8
0
 62
7
  6
CONTINUOUS
 10
-1.6743225698
 20
196.2971593214
  0
VERTEX
  8
0
 62
7
  6
CONTINUOUS
 10
-2.0189536991
 20
195.5283909042
  0
VERTEX
  8
0
 62
7
  6
CONTINUOUS
 10
-2.2438724246
 20
194.7543647483
  0
SEQEND
  0
LINE
  8
0
 62
7
  6
CONTINUOUS
 10
3.5954097424
 20
199.4401466349
 11
364.9550183804
 21
199.4401469875
  0
LINE
  8
0
 62
7
  6
CONTINUOUS
 10
370.9310371079
 20
193.6102981789
 11
371.4661973461
 21
169.5085882795
  0
POLYLINE
  8
0
 62
7
  6
CONTINUOUS
 66
1
 70
0
  0
VERTEX
  8
0
 62
7
  6
CONTINUOUS
 10
371.6180290165
 20
158.5987718278
  0
VERTEX
  8
0
 62
7
  6
CONTINUOUS
 10
371.615648067
 20
159.1073641674
  0
VERTEX
  8
0
 62
7
  6
CONTINUOUS
 10
371.6125086854
 20
159.6366230318
  0
VERTEX
  8
0
 62
7
  6
CONTINUOUS
 10
371.608595227
 20
160.186049264
  0
VERTEX
  8
0
 62
7
  6
CONTINUOUS
 10
371.6038929985
 20
160.7550312236
  0
VERTEX
  8
0
 62
7
  6
CONTINUOUS
 10
371.5983886884
 20
161.342853192
  0
VERTEX
  8
0
 62
7
  6
CONTINUOUS
 10
371.5920696851
 20
161.9487430251
  0
VERTEX
  8
0
 62
7
  6
CONTINUOUS
 10
371.5849250213
 20
162.5718065251
  0
VERTEX
  8
0
 62
7
  6
CONTINUOUS
 10
371.5769452711
 20
163.2110618713
  0
VERTEX
  8
0
 62
7
  6
CONTINUOUS
 10
371.5681225692
 20
163.865417944
  0
VERTEX
  8
0
 62
7
  6
CONTINUOUS
 10
371.5584515531
 20
164.5336248873
  0
VERTEX
  8
0
 62
7
  6
CONTINUOUS
 10
371.5479294415
 20
165.2143139674
  0
VERTEX
  8
0
 62
7
  6
CONTINUOUS
 10
371.5365559044
 20
165.9059813567
  0
VERTEX
  8
0
 62
7
  6
CONTINUOUS
 10
371.5243335528
 20
166.606988247
  0
VERTEX
  8
0
 62
7
  6
CONTINUOUS
 10
371.5112685137
 20
167.3155519072
  0
VERTEX
  8
0
 62
7
  6
CONTINUOUS
 10
371.497369912
 20
168.0297471997
  0
VERTEX
  8
0
 62
7
  6
CONTINUOUS
 10
371.4826508433
 20
168.7474997153
  0
VERTEX
  8
0
 62
7
  6
CONTINUOUS
 10
371.4661972607
 20
169.5085921249
  0
SEQEND
  0
POLYLINE
  8
0
 62
7
  6
CONTINUOUS
 66
1
 70
0
  0
VERTEX
  8
0
 62
7
  6
CONTINUOUS
 10
375.5674918411
 20
154.0604668045
  0
VERTEX
  8
0
 62
7
  6
CONTINUOUS
 10
375.5674112791
 20
154.3158226578
  0
VERTEX
  8
0
 62
7
  6
CONTINUOUS
 10
375.5484357895
 20
154.7511466687
  0
VERTEX
  8
0
 62
7
  6
CONTINUOUS
 10
375.5057864426
 20
155.1846414573
  0
VERTEX
  8
0
 62
7
  6
CONTINUOUS
 10
375.4396519658
 20
155.6150670535
  0
VERTEX
  8
0
 62
7
  6
CONTINUOUS
 10
375.3502214552
 20
156.0411714404
  0
VERTEX
  8
0
 62
7
  6
CONTINUOUS
 10
375.2377414792
 20
156.4617184577
  0
VERTEX
  8
0
 62
7
  6
CONTINUOUS
 10
375.1025652542
 20
156.8754936808
  0
VERTEX
  8
0
 62
7
  6
CONTINUOUS
 10
374.9450656486
 20
157.2812889039
  0
VERTEX
  8
0
 62
7
  6
CONTINUOUS
 10
374.7657240327
 20
157.6779442269
  0
VERTEX
  8
0
 62
7
  6
CONTINUOUS
 10
374.5650803078
 20
158.0643074506
  0
VERTEX
  8
0
 62
7
  6
CONTINUOUS
 10
374.343668229
 20
158.4392412542
  0
VERTEX
  8
0
 62
7
  6
CONTINUOUS
 10
374.1021394969
 20
158.8016127691
  0
VERTEX
  8
0
 62
7
  6
CONTINUOUS
 10
373.8412213946
 20
159.1503479277
  0
VERTEX
  8
0
 62
7
  6
CONTINUOUS
 10
373.5616770899
 20
159.4843857619
  0
VERTEX
  8
0
 62
7
  6
CONTINUOUS
 10
373.2643617858
 20
159.8027414985
  0
VERTEX
  8
0
 62
7
  6
CONTINUOUS
 10
372.9501467658
 20
160.1044597787
  0
VERTEX
  8
0
 62
7
  6
CONTINUOUS
 10
372.6199599917
 20
160.3886290264
  0
VERTEX
  8
0
 62
7
  6
CONTINUOUS
 10
372.2747719301
 20
160.6543976021
  0
VERTEX
  8
0
 62
7
  6
CONTINUOUS
 10
371.9156122072
 20
160.9009908242
  0
VERTEX
  8
0
 62
7
  6
CONTINUOUS
 10
371.6007295136
 20
161.09286937
  0
SEQEND
  0
POLYLINE
  8
0
 62
7
  6
CONTINUOUS
 66
1
 70
0
  0
VERTEX
  8
0
 62
7
  6
CONTINUOUS
 10
371.6173114016
 20
155.9985896492
  0
VERTEX
  8
0
 62
7
  6
CONTINUOUS
 10
371.6191352655
 20
156.3774348626
  0
VERTEX
  8
0
 62
7
  6
CONTINUOUS
 10
371.6202982934
 20
156.7781440945
  0
VERTEX
  8
0
 62
7
  6
CONTINUOUS
 10
371.6207855997
 20
157.2007619607
  0
VERTEX
  8
0
 62
7
  6
CONTINUOUS
 10
371.62058099
 20
157.6451837595
  0
VERTEX
  8
0
 62
7
  6
CONTINUOUS
 10
371.6196677231
 20
158.1112739952
  0
VERTEX
  8
0
 62
7
  6
CONTINUOUS
 10
371.6180290165
 20
158.5987718278
  0
SEQEND
  0
POLYLINE
  8
0
 62
7
  6
CONTINUOUS
 66
1
 70
0
  0
VERTEX
  8
0
 62
7
  6
CONTINUOUS
 10
371.6035793023
 20
154.695679866
  0
VERTEX
  8
0
 62
7
  6
CONTINUOUS
 10
371.6079762846
 20
154.9905020869
  0
VERTEX
  8
0
 62
7
  6
CONTINUOUS
 10
371.6117327414
 20
155.3060836174
  0
VERTEX
  8
0
 62
7
  6
CONTINUOUS
 10
371.6148423649
 20
155.6417803233
  0
VERTEX
  8
0
 62
7
  6
CONTINUOUS
 10
371.6173114016
 20
155.9985896492
  0
SEQEND
  0
POLYLINE
  8
0
 62
7
  6
CONTINUOUS
 66
1
 70
0
  0
VERTEX
  8
0
 62
7
  6
CONTINUOUS
 10
376.3345301883
 20
170.0468046381
  0
VERTEX
  8
0
 62
7
  6
CONTINUOUS
 10
379.1925557912
 20
335.2072568069
  0
VERTEX
  8
0
 62
7
  6
CONTINUOUS
 10
379.5627983862
 20
356.6033232586
  0
VERTEX
  8
0
 62
7
  6
CONTINUOUS
 10
379.9008478408
 20
376.0997398936
  0
VERTEX
  8
0
 62
7
  6
CONTINUOUS
 10
380.2108022406
 20
393.894480872
  0
VERTEX
  8
0
 62
7
  6
CONTINUOUS
 10
380.3984689368
 20
404.6310640918
  0
VERTEX
  8
0
 62
7
  6
CONTINUOUS
 10
380.5558755812
 20
413.6148189328
  0
VERTEX
  8
0
 62
7
  6
CONTINUOUS
 10
380.5043356835
 20
410.6754687427
  0
VERTEX
  8
0
 62
7
  6
CONTINUOUS
 10
380.960469698
 20
436.6168425078
  0
VERTEX
  8
0
 62
7
  6
CONTINUOUS
 10
381.9969839495
 20
494.9688276962
  0
VERTEX
  8
0
 62
7
  6
CONTINUOUS
 10
382.2031507548
 20
506.486841762
  0
SEQEND
  0
POLYLINE
  8
0
 62
7
  6
CONTINUOUS
 66
1
 70
0
  0
VERTEX
  8
0
 62
7
  6
CONTINUOUS
 10
375.4699416331
 20
148.1851511545
  0
VERTEX
  8
0
 62
7
  6
CONTINUOUS
 10
375.4841202333
 20
148.9915389386
  0
VERTEX
  8
0
 62
7
  6
CONTINUOUS
 10
375.5009952777
 20
149.9722139201
  0
VERTEX
  8
0
 62
7
  6
CONTINUOUS
 10
375.5180863604
 20
150.9887647802
  0
VERTEX
  8
0
 62
7
  6
CONTINUOUS
 10
375.5352891931
 20
152.0357109592
  0
VERTEX
  8
0
 62
7
  6
CONTINUOUS
 10
375.552627053
 20
153.1149068643
  0
VERTEX
  8
0
 62
7
  6
CONTINUOUS
 10
375.5675108906
 20
154.0604497341
  0
SEQEND
  0
LINE
  8
0
 62
7
  6
CONTINUOUS
 10
382.2031507548
 20
506.486841762
 11
383.0374819514
 21
553.0957382545
  0
POLYLINE
  8
0
 62
7
  6
CONTINUOUS
 66
1
 70
0
  0
VERTEX
  8
0
 62
7
  6
CONTINUOUS
 10
371.5794948998
 20
153.7219471303
  0
VERTEX
  8
0
 62
7
  6
CONTINUOUS
 10
371.5865254021
 20
153.9355044588
  0
VERTEX
  8
0
 62
7
  6
CONTINUOUS
 10
371.5928508964
 20
154.1679764935
  0
VERTEX
  8
0
 62
7
  6
CONTINUOUS
 10
371.5985362523
 20
154.4213856355
  0
VERTEX
  8
0
 62
7
  6
CONTINUOUS
 10
371.6035793023
 20
154.695679866
  0
SEQEND
  0
POLYLINE
  8
0
 62
7
  6
CONTINUOUS
 66
1
 70
0
  0
VERTEX
  8
0
 62
7
  6
CONTINUOUS
 10
373.4703400506
 20
84.2846397365
  0
VERTEX
  8
0
 62
7
  6
CONTINUOUS
 10
373.7134780209
 20
89.9540607603
  0
VERTEX
  8
0
 62
7
  6
CONTINUOUS
 10
374.4815084783
 20
110.1593272923
  0
VERTEX
  8
0
 62
7
  6
CONTINUOUS
 10
375.0554642036
 20
129.2537693869
  0
VERTEX
  8
0
 62
7
  6
CONTINUOUS
 10
375.4699440906
 20
148.1852891307
  0
SEQEND
  0
LINE
  8
0
 62
7
  6
CONTINUOUS
 10
212.029108705
 20
602.6586827972
 11
212.6937899831
 21
600.8328009824
  0
POLYLINE
  8
0
 62
7
  6
CONTINUOUS
 66
1
 70
0
  0
VERTEX
  8
0
 62
7
  6
CONTINUOUS
 10
370.7944748879
 20
194.7551618698
  0
VERTEX
  8
0
 62
7
  6
CONTINUOUS
 10
370.6467276121
 20
195.3040700964
  0
VERTEX
  8
0
 62
7
  6
CONTINUOUS
 10
370.3482321305
 20
196.0544391976
  0
VERTEX
  8
0
 62
7
  6
CONTINUOUS
 10
369.9351248753
 20
196.7811408489
  0
VERTEX
  8
0
 62
7
  6
CONTINUOUS
 10
369.413465915
 20
197.4546863842
  0
VERTEX
  8
0
 62
7
  6
CONTINUOUS
 10
368.7932450295
 20
198.0531975389
  0
VERTEX
  8
0
 62
7
  6
CONTINUOUS
 10
368.0868016126
 20
198.559777018
  0
VERTEX
  8
0
 62
7
  6
CONTINUOUS
 10
367.314176394
 20
198.9583672945
  0
VERTEX
  8
0
 62
7
  6
CONTINUOUS
 10
366.4884531019
 20
199.2416902034
  0
VERTEX
  8
0
 62
7
  6
CONTINUOUS
 10
365.6318358931
 20
199.4020404267
  0
VERTEX
  8
0
 62
7
  6
CONTINUOUS
 10
364.9553901551
 20
199.4401473072
  0
SEQEND
  0
LINE
  8
0
 62
7
  6
CONTINUOUS
 10
370.7944803065
 20
194.7551682325
 11
370.7946738904
 21
194.7542885178
  0
POLYLINE
  8
0
 62
7
  6
CONTINUOUS
 66
1
 70
0
  0
VERTEX
  8
0
 62
7
  6
CONTINUOUS
 10
370.8964802206
 20
194.1330724894
  0
VERTEX
  8
0
 62
7
  6
CONTINUOUS
 10
370.8567587446
 20
194.4264792805
  0
VERTEX
  8
0
 62
7
  6
CONTINUOUS
 10
370.8025751971
 20
194.7175645674
  0
VERTEX
  8
0
 62
7
  6
CONTINUOUS
 10
370.7946738904
 20
194.7542885178
  0
SEQEND
  0
POLYLINE
  8
0
 62
7
  6
CONTINUOUS
 66
1
 70
0
  0
VERTEX
  8
0
 62
7
  6
CONTINUOUS
 10
385.2346240377
 20
586.4787113652
  0
VERTEX
  8
0
 62
7
  6
CONTINUOUS
 10
385.2139935553
 20
586.969455156
  0
VERTEX
  8
0
 62
7
  6
CONTINUOUS
 10
385.1511101861
 20
587.6055378966
  0
VERTEX
  8
0
 62
7
  6
CONTINUOUS
 10
385.0476933723
 20
588.2364331611
  0
VERTEX
  8
0
 62
7
  6
CONTINUOUS
 10
384.9041462706
 20
588.8595378466
  0
VERTEX
  8
0
 62
7
  6
CONTINUOUS
 10
384.7210398179
 20
589.4722854997
  0
VERTEX
  8
0
 62
7
  6
CONTINUOUS
 10
384.4991098088
 20
590.0721537139
  0
VERTEX
  8
0
 62
7
  6
CONTINUOUS
 10
384.2392552546
 20
590.6566701044
  0
VERTEX
  8
0
 62
7
  6
CONTINUOUS
 10
383.942531286
 20
591.2234303457
  0
VERTEX
  8
0
 62
7
  6
CONTINUOUS
 10
383.610148306
 20
591.7700995615
  0
VERTEX
  8
0
 62
7
  6
CONTINUOUS
 10
383.2434608168
 20
592.2944323549
  0
VERTEX
  8
0
 62
7
  6
CONTINUOUS
 10
382.8439659766
 20
592.7942733335
  0
VERTEX
  8
0
 62
7
  6
CONTINUOUS
 10
382.4132984377
 20
593.2675657625
  0
VERTEX
  8
0
 62
7
  6
CONTINUOUS
 10
381.9532219569
 20
593.7123626824
  0
VERTEX
  8
0
 62
7
  6
CONTINUOUS
 10
381.4656222428
 20
594.1268347231
  0
VERTEX
  8
0
 62
7
  6
CONTINUOUS
 10
380.9524992384
 20
594.5092776387
  0
VERTEX
  8
0
 62
7
  6
CONTINUOUS
 10
380.4159585418
 20
594.8581196355
  0
VERTEX
  8
0
 62
7
  6
CONTINUOUS
 10
379.858202801
 20
595.1719277954
  0
VERTEX
  8
0
 62
7
  6
CONTINUOUS
 10
379.2815223419
 20
595.4494141747
  0
VERTEX
  8
0
 62
7
  6
CONTINUOUS
 10
378.6882856533
 20
595.6894411297
  0
VERTEX
  8
0
 62
7
  6
CONTINUOUS
 10
378.0809295792
 20
595.891026028
  0
VERTEX
  8
0
 62
7
  6
CONTINUOUS
 10
377.4619489545
 20
596.053345409
  0
VERTEX
  8
0
 62
7
  6
CONTINUOUS
 10
376.8338862514
 20
596.175738361
  0
VERTEX
  8
0
 62
7
  6
CONTINUOUS
 10
376.1993241497
 20
596.2577089456
  0
VERTEX
  8
0
 62
7
  6
CONTINUOUS
 10
375.721929
 20
596.2923967513
  0
SEQEND
  0
LINE
  8
0
 62
7
  6
CONTINUOUS
 10
385.2346248101
 20
586.4787117038
 11
385.6396910116
 21
563.272484561
  0
LINE
  8
0
 62
7
  6
CONTINUOUS
 10
192.8226569722
 20
605.8396395303
 11
193.1806961006
 21
605.2334011074
  0
LINE
  8
0
 62
7
  6
CONTINUOUS
 10
191.2654049322
 20
607.942297142
 11
190.758080348
 21
608.7778583612
  0
POLYLINE
  8
0
 62
7
  6
CONTINUOUS
 66
1
 70
0
  0
VERTEX
  8
0
 62
7
  6
CONTINUOUS
 10
191.1787920259
 20
608.595454244
  0
VERTEX
  8
0
 62
7
  6
CONTINUOUS
 10
191.4879494917
 20
608.0810862583
  0
VERTEX
  8
0
 62
7
  6
CONTINUOUS
 10
191.806928189
 20
607.5483107693
  0
VERTEX
  8
0
 62
7
  6
CONTINUOUS
 10
192.135750567
 20
606.9971110691
  0
VERTEX
  8
0
 62
7
  6
CONTINUOUS
 10
192.4743492775
 20
606.4275372816
  0
VERTEX
  8
0
 62
7
  6
CONTINUOUS
 10
192.8226569722
 20
605.8396395303
  0
SEQEND
  0
POLYLINE
  8
0
 62
7
  6
CONTINUOUS
 66
1
 70
0
  0
VERTEX
  8
0
 62
7
  6
CONTINUOUS
 10
192.9379602016
 20
605.1533380764
  0
VERTEX
  8
0
 62
7
  6
CONTINUOUS
 10
192.355344859
 20
606.1300369996
  0
VERTEX
  8
0
 62
7
  6
CONTINUOUS
 10
191.7978264359
 20
607.0596900215
  0
VERTEX
  8
0
 62
7
  6
CONTINUOUS
 10
191.2654049322
 20
607.942297142
  0
SEQEND
  0
LINE
  8
0
 62
7
  6
CONTINUOUS
 10
202.7823991286
 20
608.3001124553
 11
205.4082587542
 21
604.9130506466
  0
POLYLINE
  8
0
 62
7
  6
CONTINUOUS
 66
1
 70
0
  0
VERTEX
  8
0
 62
7
  6
CONTINUOUS
 10
211.7623750411
 20
603.0582918633
  0
VERTEX
  8
0
 62
7
  6
CONTINUOUS
 10
211.810635627
 20
603.0108339037
  0
VERTEX
  8
0
 62
7
  6
CONTINUOUS
 10
211.8891974739
 20
602.9177330898
  0
VERTEX
  8
0
 62
7
  6
CONTINUOUS
 10
211.9646095771
 20
602.8006789325
  0
VERTEX
  8
0
 62
7
  6
CONTINUOUS
 10
212.029108705
 20
602.6586827972
  0
SEQEND
  0
LINE
  8
0
 62
7
  6
CONTINUOUS
 10
380.6404525359
 20
558.1852225288
 11
-12.089668452
 21
558.1852225288
  0
LINE
  8
0
 62
7
  6
CONTINUOUS
 10
202.7379751686
 20
608.3185311593
 11
202.7823991286
 21
608.3001124553
  0
LINE
  8
0
 62
7
  6
CONTINUOUS
 10
162.8563062204
 20
604.8350699723
 11
157.2527841087
 21
603.3083849292
  0
POLYLINE
  8
0
 62
7
  6
CONTINUOUS
 66
1
 70
0
  0
VERTEX
  8
0
 62
7
  6
CONTINUOUS
 10
162.8563062204
 20
604.8350699723
  0
VERTEX
  8
0
 62
7
  6
CONTINUOUS
 10
163.0280370093
 20
604.8640880215
  0
VERTEX
  8
0
 62
7
  6
CONTINUOUS
 10
163.2965582553
 20
604.8902366252
  0
VERTEX
  8
0
 62
7
  6
CONTINUOUS
 10
163.6705953028
 20
604.9159873241
  0
VERTEX
  8
0
 62
7
  6
CONTINUOUS
 10
164.1482668833
 20
604.9412106017
  0
VERTEX
  8
0
 62
7
  6
CONTINUOUS
 10
164.7271704849
 20
604.9657795942
  0
VERTEX
  8
0
 62
7
  6
CONTINUOUS
 10
165.4043944357
 20
604.9895707286
  0
VERTEX
  8
0
 62
7
  6
CONTINUOUS
 10
166.1765325489
 20
605.0124643444
  0
VERTEX
  8
0
 62
7
  6
CONTINUOUS
 10
167.0397012544
 20
605.0343452949
  0
VERTEX
  8
0
 62
7
  6
CONTINUOUS
 10
167.9895591318
 20
605.0551035273
  0
VERTEX
  8
0
 62
7
  6
CONTINUOUS
 10
169.0213287461
 20
605.0746346351
  0
VERTEX
  8
0
 62
7
  6
CONTINUOUS
 10
170.1298206763
 20
605.0928403841
  0
VERTEX
  8
0
 62
7
  6
CONTINUOUS
 10
171.3094596167
 20
605.1096292061
  0
VERTEX
  8
0
 62
7
  6
CONTINUOUS
 10
172.5543124182
 20
605.1249166595
  0
VERTEX
  8
0
 62
7
  6
CONTINUOUS
 10
173.85811793
 20
605.138625854
  0
VERTEX
  8
0
 62
7
  6
CONTINUOUS
 10
175.2143184909
 20
605.1506878375
  0
VERTEX
  8
0
 62
7
  6
CONTINUOUS
 10
176.616092912
 20
605.1610419427
  0
VERTEX
  8
0
 62
7
  6
CONTINUOUS
 10
178.0563907847
 20
605.1696360921
  0
VERTEX
  8
0
 62
7
  6
CONTINUOUS
 10
179.5279679414
 20
605.1764270604
  0
VERTEX
  8
0
 62
7
  6
CONTINUOUS
 10
181.0234228916
 20
605.1813806915
  0
VERTEX
  8
0
 62
7
  6
CONTINUOUS
 10
182.5352340479
 20
605.1844720706
  0
VERTEX
  8
0
 62
7
  6
CONTINUOUS
 10
184.0557975576
 20
605.185685649
  0
VERTEX
  8
0
 62
7
  6
CONTINUOUS
 10
185.5774655466
 20
605.1850153229
  0
VERTEX
  8
0
 62
7
  6
CONTINUOUS
 10
187.0925845858
 20
605.1824644639
  0
VERTEX
  8
0
 62
7
  6
CONTINUOUS
 10
188.5932507967
 20
605.1780469175
  0
VERTEX
  8
0
 62
7
  6
CONTINUOUS
 10
190.0727651205
 20
605.1717818603
  0
VERTEX
  8
0
 62
7
  6
CONTINUOUS
 10
191.524471248
 20
605.1636936146
  0
SEQEND
  0
POLYLINE
  8
0
 62
7
  6
CONTINUOUS
 66
1
 70
0
  0
VERTEX
  8
0
 62
7
  6
CONTINUOUS
 10
165.6972080713
 20
608.4959719356
  0
VERTEX
  8
0
 62
7
  6
CONTINUOUS
 10
165.8552501025
 20
608.5211165794
  0
VERTEX
  8
0
 62
7
  6
CONTINUOUS
 10
166.1093141936
 20
608.5447810478
  0
VERTEX
  8
0
 62
7
  6
CONTINUOUS
 10
166.4630502063
 20
608.5680523827
  0
VERTEX
  8
0
 62
7
  6
CONTINUOUS
 10
166.9145172953
 20
608.5908029012
  0
VERTEX
  8
0
 62
7
  6
CONTINUOUS
 10
167.4612383936
 20
608.612907778
  0
VERTEX
  8
0
 62
7
  6
CONTINUOUS
 10
168.1002138034
 20
608.6342457299
  0
VERTEX
  8
0
 62
7
  6
CONTINUOUS
 10
168.8279376547
 20
608.6546996821
  0
VERTEX
  8
0
 62
7
  6
CONTINUOUS
 10
169.640417141
 20
608.6741574096
  0
VERTEX
  8
0
 62
7
  6
CONTINUOUS
 10
170.5331944266
 20
608.6925121537
  0
VERTEX
  8
0
 62
7
  6
CONTINUOUS
 10
171.5013711051
 20
608.7096632073
  0
VERTEX
  8
0
 62
7
  6
CONTINUOUS
 10
172.5396350764
 20
608.7255164675
  0
VERTEX
  8
0
 62
7
  6
CONTINUOUS
 10
173.6422896914
 20
608.7399849523
  0
VERTEX
  8
0
 62
7
  6
CONTINUOUS
 10
174.803285009
 20
608.7529892773
  0
VERTEX
  8
0
 62
7
  6
CONTINUOUS
 10
176.0162509896
 20
608.7644580915
  0
VERTEX
  8
0
 62
7
  6
CONTINUOUS
 10
177.2745324459
 20
608.7743284691
  0
VERTEX
  8
0
 62
7
  6
CONTINUOUS
 10
178.5712255581
 20
608.7825462541
  0
VERTEX
  8
0
 62
7
  6
CONTINUOUS
 10
179.8992157526
 20
608.7890663579
  0
VERTEX
  8
0
 62
7
  6
CONTINUOUS
 10
181.2512167381
 20
608.7938530068
  0
VERTEX
  8
0
 62
7
  6
CONTINUOUS
 10
182.6198104834
 20
608.7968799376
  0
VERTEX
  8
0
 62
7
  6
CONTINUOUS
 10
183.9974879173
 20
608.7981305427
  0
VERTEX
  8
0
 62
7
  6
CONTINUOUS
 10
185.3766901294
 20
608.7975979602
  0
VERTEX
  8
0
 62
7
  6
CONTINUOUS
 10
186.7498612375
 20
608.7952850856
  0
VERTEX
  8
0
 62
7
  6
CONTINUOUS
 10
188.109432935
 20
608.7912046888
  0
VERTEX
  8
0
 62
7
  6
CONTINUOUS
 10
189.4479135082
 20
608.7853794124
  0
VERTEX
  8
0
 62
7
  6
CONTINUOUS
 10
190.7579737044
 20
608.7778413606
  0
SEQEND
  0
POLYLINE
  8
0
 62
7
  6
CONTINUOUS
 66
1
 70
0
  0
VERTEX
  8
0
 62
7
  6
CONTINUOUS
 10
-7.1712558819
 20
596.2923912788
  0
VERTEX
  8
0
 62
7
  6
CONTINUOUS
 10
-7.6618550544
 20
596.2564114106
  0
VERTEX
  8
0
 62
7
  6
CONTINUOUS
 10
-8.2963024703
 20
596.1735927085
  0
VERTEX
  8
0
 62
7
  6
CONTINUOUS
 10
-8.9241971708
 20
596.0503607903
  0
VERTEX
  8
0
 62
7
  6
CONTINUOUS
 10
-9.5429570163
 20
595.8872149579
  0
VERTEX
  8
0
 62
7
  6
CONTINUOUS
 10
-10.1500403397
 20
595.6848194524
  0
VERTEX
  8
0
 62
7
  6
CONTINUOUS
 10
-10.7429533247
 20
595.4440010247
  0
VERTEX
  8
0
 62
7
  6
CONTINUOUS
 10
-11.3192603597
 20
595.1657455442
  0
VERTEX
  8
0
 62
7
  6
CONTINUOUS
 10
-11.8765944005
 20
594.8511938243
  0
VERTEX
  8
0
 62
7
  6
CONTINUOUS
 10
-12.4126667755
 20
594.5016368949
  0
VERTEX
  8
0
 62
7
  6
CONTINUOUS
 10
-12.9252766959
 20
594.118510665
  0
VERTEX
  8
0
 62
7
  6
CONTINUOUS
 10
-13.4123206246
 20
593.703389807
  0
VERTEX
  8
0
 62
7
  6
CONTINUOUS
 10
-13.8718008742
 20
593.2579813205
  0
VERTEX
  8
0
 62
7
  6
CONTINUOUS
 10
-14.3018341814
 20
592.7841171884
  0
VERTEX
  8
0
 62
7
  6
CONTINUOUS
 10
-14.7006594143
 20
592.2837468299
  0
VERTEX
  8
0
 62
7
  6
CONTINUOUS
 10
-15.0666447134
 20
591.7589292793
  0
VERTEX
  8
0
 62
7
  6
CONTINUOUS
 10
-15.398295891
 20
591.2118220157
  0
VERTEX
  8
0
 62
7
  6
CONTINUOUS
 10
-15.6942615654
 20
590.6446723101
  0
VERTEX
  8
0
 62
7
  6
CONTINUOUS
 10
-15.953334551
 20
590.0598168067
  0
VERTEX
  8
0
 62
7
  6
CONTINUOUS
 10
-16.1744630826
 20
589.4596613444
  0
VERTEX
  8
0
 62
7
  6
CONTINUOUS
 10
-16.3567516185
 20
588.8466796677
  0
VERTEX
  8
0
 62
7
  6
CONTINUOUS
 10
-16.4994679517
 20
588.2233952862
  0
VERTEX
  8
0
 62
7
  6
CONTINUOUS
 10
-16.6020448306
 20
587.5923755323
  0
VERTEX
  8
0
 62
7
  6
CONTINUOUS
 10
-16.6640828693
 20
586.956224221
  0
VERTEX
  8
0
 62
7
  6
CONTINUOUS
 10
-16.68384
 20
586.4787113708
  0
SEQEND
  0
POLYLINE
  8
0
 62
7
  6
CONTINUOUS
 66
1
 70
0
  0
VERTEX
  8
0
 62
7
  6
CONTINUOUS
 10
184.5156857562
 20
610.7624428075
  0
VERTEX
  8
0
 62
7
  6
CONTINUOUS
 10
184.3922086361
 20
610.7627281625
  0
VERTEX
  8
0
 62
7
  6
CONTINUOUS
 10
184.1950124477
 20
610.7627746623
  0
VERTEX
  8
0
 62
7
  6
CONTINUOUS
 10
183.9999544704
 20
610.7623255138
  0
VERTEX
  8
0
 62
7
  6
CONTINUOUS
 10
183.8037649781
 20
610.7613770165
  0
VERTEX
  8
0
 62
7
  6
CONTINUOUS
 10
183.6086931431
 20
610.7599399711
  0
VERTEX
  8
0
 62
7
  6
CONTINUOUS
 10
183.4080470719
 20
610.7579479806
  0
VERTEX
  8
0
 62
7
  6
CONTINUOUS
 10
183.1996581696
 20
610.7553274041
  0
VERTEX
  8
0
 62
7
  6
CONTINUOUS
 10
182.979853677
 20
610.7519540134
  0
VERTEX
  8
0
 62
7
  6
CONTINUOUS
 10
182.746416797
 20
610.7476864174
  0
VERTEX
  8
0
 62
7
  6
CONTINUOUS
 10
182.4967405937
 20
610.7423408869
  0
VERTEX
  8
0
 62
7
  6
CONTINUOUS
 10
182.2284324057
 20
610.7356963361
  0
VERTEX
  8
0
 62
7
  6
CONTINUOUS
 10
181.9406893275
 20
610.7275339657
  0
VERTEX
  8
0
 62
7
  6
CONTINUOUS
 10
181.6306572579
 20
610.7175383278
  0
VERTEX
  8
0
 62
7
  6
CONTINUOUS
 10
181.3035578925
 20
610.7056413709
  0
VERTEX
  8
0
 62
7
  6
CONTINUOUS
 10
180.9638983258
 20
610.6918187294
  0
VERTEX
  8
0
 62
7
  6
CONTINUOUS
 10
180.612985529
 20
610.6759655678
  0
VERTEX
  8
0
 62
7
  6
CONTINUOUS
 10
180.2565489145
 20
610.6582257273
  0
VERTEX
  8
0
 62
7
  6
CONTINUOUS
 10
179.8858853711
 20
610.6380265891
  0
VERTEX
  8
0
 62
7
  6
CONTINUOUS
 10
179.4805476945
 20
610.6138924043
  0
VERTEX
  8
0
 62
7
  6
CONTINUOUS
 10
179.0801754682
 20
610.587954195
  0
VERTEX
  8
0
 62
7
  6
CONTINUOUS
 10
178.7434987778
 20
610.5645257554
  0
VERTEX
  8
0
 62
7
  6
CONTINUOUS
 10
178.3950605615
 20
610.5387220853
  0
VERTEX
  8
0
 62
7
  6
CONTINUOUS
 10
177.9414710346
 20
610.5027562448
  0
VERTEX
  8
0
 62
7
  6
CONTINUOUS
 10
177.491854579
 20
610.4644507623
  0
VERTEX
  8
0
 62
7
  6
CONTINUOUS
 10
177.1560638108
 20
610.4341163
  0
VERTEX
  8
0
 62
7
  6
CONTINUOUS
 10
176.8414872532
 20
610.4043573022
  0
VERTEX
  8
0
 62
7
  6
CONTINUOUS
 10
176.4910596751
 20
610.3696774504
  0
VERTEX
  8
0
 62
7
  6
CONTINUOUS
 10
176.1063401646
 20
610.3297453268
  0
VERTEX
  8
0
 62
7
  6
CONTINUOUS
 10
175.6684321323
 20
610.2819214211
  0
VERTEX
  8
0
 62
7
  6
CONTINUOUS
 10
175.1815040214
 20
610.2257744448
  0
VERTEX
  8
0
 62
7
  6
CONTINUOUS
 10
174.617120409
 20
610.1567747149
  0
VERTEX
  8
0
 62
7
  6
CONTINUOUS
 10
174.0544169009
 20
610.0837779867
  0
VERTEX
  8
0
 62
7
  6
CONTINUOUS
 10
173.5957098766
 20
610.0211593255
  0
VERTEX
  8
0
 62
7
  6
CONTINUOUS
 10
173.1431332817
 20
609.9566302289
  0
VERTEX
  8
0
 62
7
  6
CONTINUOUS
 10
172.6151737342
 20
609.8778951436
  0
VERTEX
  8
0
 62
7
  6
CONTINUOUS
 10
172.065200161
 20
609.7919054985
  0
VERTEX
  8
0
 62
7
  6
CONTINUOUS
 10
171.5381902106
 20
609.70569134
  0
VERTEX
  8
0
 62
7
  6
CONTINUOUS
 10
170.9776524884
 20
609.6098804824
  0
VERTEX
  8
0
 62
7
  6
CONTINUOUS
 10
170.305810683
 20
609.4894379645
  0
VERTEX
  8
0
 62
7
  6
CONTINUOUS
 10
169.6322037132
 20
609.3625139909
  0
VERTEX
  8
0
 62
7
  6
CONTINUOUS
 10
169.0780615193
 20
609.2534502863
  0
VERTEX
  8
0
 62
7
  6
CONTINUOUS
 10
168.5288499204
 20
609.1411963934
  0
VERTEX
  8
0
 62
7
  6
CONTINUOUS
 10
167.9031861295
 20
609.0082456861
  0
VERTEX
  8
0
 62
7
  6
CONTINUOUS
 10
167.2244777538
 20
608.8578844058
  0
VERTEX
  8
0
 62
7
  6
CONTINUOUS
 10
166.4884931617
 20
608.6875707304
  0
VERTEX
  8
0
 62
7
  6
CONTINUOUS
 10
165.6972080713
 20
608.4959719356
  0
SEQEND
  0
LINE
  8
0
 62
7
  6
CONTINUOUS
 10
191.524471248
 20
605.1636936146
 11
192.9406927485
 21
605.1538198787
  0
POLYLINE
  8
0
 62
7
  6
CONTINUOUS
 66
1
 70
0
  0
VERTEX
  8
0
 62
7
  6
CONTINUOUS
 10
191.178789754
 20
608.5954541104
  0
VERTEX
  8
0
 62
7
  6
CONTINUOUS
 10
192.4342998396
 20
608.5856856936
  0
VERTEX
  8
0
 62
7
  6
CONTINUOUS
 10
193.6448056383
 20
608.5743179879
  0
VERTEX
  8
0
 62
7
  6
CONTINUOUS
 10
194.8036300654
 20
608.561413701
  0
VERTEX
  8
0
 62
7
  6
CONTINUOUS
 10
195.9043817479
 20
608.5470440079
  0
VERTEX
  8
0
 62
7
  6
CONTINUOUS
 10
196.9409895471
 20
608.5312881646
  0
VERTEX
  8
0
 62
7
  6
CONTINUOUS
 10
197.9077355087
 20
608.51423308
  0
VERTEX
  8
0
 62
7
  6
CONTINUOUS
 10
198.7992871839
 20
608.495972828
  0
VERTEX
  8
0
 62
7
  6
CONTINUOUS
 10
199.6107268862
 20
608.4766081298
  0
VERTEX
  8
0
 62
7
  6
CONTINUOUS
 10
200.3375788166
 20
608.4562457986
  0
VERTEX
  8
0
 62
7
  6
CONTINUOUS
 10
200.9758337515
 20
608.4349981504
  0
VERTEX
  8
0
 62
7
  6
CONTINUOUS
 10
201.5219711573
 20
608.4129823846
  0
VERTEX
  8
0
 62
7
  6
CONTINUOUS
 10
201.9729786089
 20
608.3903199374
  0
VERTEX
  8
0
 62
7
  6
CONTINUOUS
 10
202.3263684062
 20
608.3671358119
  0
VERTEX
  8
0
 62
7
  6
CONTINUOUS
 10
202.5801912957
 20
608.343557889
  0
VERTEX
  8
0
 62
7
  6
CONTINUOUS
 10
202.7379751686
 20
608.3185311593
  0
SEQEND
  0
LINE
  8
0
 62
7
  6
CONTINUOUS
 10
193.1806961006
 20
605.2334017284
 11
192.8888182766
 21
605.2357198156
  0
POLYLINE
  8
0
 62
7
  6
CONTINUOUS
 66
1
 70
0
  0
VERTEX
  8
0
 62
7
  6
CONTINUOUS
 10
193.1806935507
 20
605.233401749
  0
VERTEX
  8
0
 62
7
  6
CONTINUOUS
 10
194.5185553677
 20
605.2215329779
  0
VERTEX
  8
0
 62
7
  6
CONTINUOUS
 10
195.804801161
 20
605.2080377155
  0
VERTEX
  8
0
 62
7
  6
CONTINUOUS
 10
197.032949464
 20
605.1929839687
  0
VERTEX
  8
0
 62
7
  6
CONTINUOUS
 10
198.1968121383
 20
605.1764475898
  0
VERTEX
  8
0
 62
7
  6
CONTINUOUS
 10
199.2905248981
 20
605.1585119002
  0
VERTEX
  8
0
 62
7
  6
CONTINUOUS
 10
200.3085763831
 20
605.1392672798
  0
VERTEX
  8
0
 62
7
  6
CONTINUOUS
 10
201.2458366307
 20
605.1188107021
  0
VERTEX
  8
0
 62
7
  6
CONTINUOUS
 10
202.097582785
 20
605.0972452479
  0
VERTEX
  8
0
 62
7
  6
CONTINUOUS
 10
202.8595228961
 20
605.0746795856
  0
VERTEX
  8
0
 62
7
  6
CONTINUOUS
 10
203.5278175467
 20
605.0512274235
  0
VERTEX
  8
0
 62
7
  6
CONTINUOUS
 10
204.0990991992
 20
605.0270069372
  0
VERTEX
  8
0
 62
7
  6
CONTINUOUS
 10
204.5704891646
 20
605.0021401736
  0
VERTEX
  8
0
 62
7
  6
CONTINUOUS
 10
204.9396121081
 20
604.9767524366
  0
VERTEX
  8
0
 62
7
  6
CONTINUOUS
 10
205.2046080189
 20
604.9509716548
  0
VERTEX
  8
0
 62
7
  6
CONTINUOUS
 10
205.3741658587
 20
604.9223392891
  0
SEQEND
  0
POLYLINE
  8
0
 62
7
  6
CONTINUOUS
 66
1
 70
0
  0
VERTEX
  8
0
 62
7
  6
CONTINUOUS
 10
185.540812022
 20
609.9783005509
  0
VERTEX
  8
0
 62
7
  6
CONTINUOUS
 10
185.4046995353
 20
610.0009495736
  0
VERTEX
  8
0
 62
7
  6
CONTINUOUS
 10
185.276927167
 20
610.0239251229
  0
VERTEX
  8
0
 62
7
  6
CONTINUOUS
 10
185.1579125478
 20
610.047276603
  0
SEQEND
  0
LINE
  8
0
 62
7
  6
CONTINUOUS
 10
186.3078960441
 20
609.8494745944
 11
185.540812022
 21
609.9783160224
  0
LINE
  8
0
 62
7
  6
CONTINUOUS
 10
185.1579125478
 20
610.047276603
 11
185.0480407847
 21
610.0708897622
  0
LINE
  8
0
 62
7
  6
CONTINUOUS
 10
185.0480407847
 20
610.0708897622
 11
184.9476590433
 21
610.0946965064
  0
POLYLINE
  8
0
 62
7
  6
CONTINUOUS
 66
1
 70
0
  0
VERTEX
  8
0
 62
7
  6
CONTINUOUS
 10
202.7379751686
 20
608.3185311593
  0
VERTEX
  8
0
 62
7
  6
CONTINUOUS
 10
202.0171262012
 20
608.4927349928
  0
VERTEX
  8
0
 62
7
  6
CONTINUOUS
 10
201.2620256635
 20
608.6673703396
  0
VERTEX
  8
0
 62
7
  6
CONTINUOUS
 10
200.457878251
 20
608.8445835858
  0
VERTEX
  8
0
 62
7
  6
CONTINUOUS
 10
199.6486985553
 20
609.0138427007
  0
VERTEX
  8
0
 62
7
  6
CONTINUOUS
 10
198.902676703
 20
609.1618887549
  0
VERTEX
  8
0
 62
7
  6
CONTINUOUS
 10
198.1338993507
 20
609.3064675362
  0
VERTEX
  8
0
 62
7
  6
CONTINUOUS
 10
197.2436046821
 20
609.4638339757
  0
VERTEX
  8
0
 62
7
  6
CONTINUOUS
 10
196.336972849
 20
609.613052457
  0
VERTEX
  8
0
 62
7
  6
CONTINUOUS
 10
195.5056295151
 20
609.7401478499
  0
VERTEX
  8
0
 62
7
  6
CONTINUOUS
 10
194.6933759323
 20
609.8553789372
  0
VERTEX
  8
0
 62
7
  6
CONTINUOUS
 10
193.8560094056
 20
609.9649590233
  0
VERTEX
  8
0
 62
7
  6
CONTINUOUS
 10
193.0489911514
 20
610.0617532789
  0
VERTEX
  8
0
 62
7
  6
CONTINUOUS
 10
192.3215376093
 20
610.1416178091
  0
VERTEX
  8
0
 62
7
  6
CONTINUOUS
 10
191.6479930456
 20
610.2093393017
  0
VERTEX
  8
0
 62
7
  6
CONTINUOUS
 10
191.0222253616
 20
610.2669080589
  0
VERTEX
  8
0
 62
7
  6
CONTINUOUS
 10
190.4347186472
 20
610.3162781382
  0
VERTEX
  8
0
 62
7
  6
CONTINUOUS
 10
189.870298011
 20
610.3594488782
  0
VERTEX
  8
0
 62
7
  6
CONTINUOUS
 10
189.340258694
 20
610.3961959362
  0
VERTEX
  8
0
 62
7
  6
CONTINUOUS
 10
188.8537421197
 20
610.4266956806
  0
VERTEX
  8
0
 62
7
  6
CONTINUOUS
 10
188.4014691616
 20
610.4522791335
  0
VERTEX
  8
0
 62
7
  6
CONTINUOUS
 10
187.977773636
 20
610.4738275552
  0
VERTEX
  8
0
 62
7
  6
CONTINUOUS
 10
187.5814896224
 20
610.4918662038
  0
VERTEX
  8
0
 62
7
  6
CONTINUOUS
 10
187.2102090389
 20
610.5069125416
  0
VERTEX
  8
0
 62
7
  6
CONTINUOUS
 10
186.8623858925
 20
610.5193818614
  0
VERTEX
  8
0
 62
7
  6
CONTINUOUS
 10
186.5356577828
 20
610.5296625306
  0
VERTEX
  8
0
 62
7
  6
CONTINUOUS
 10
186.2302675025
 20
610.5380176645
  0
VERTEX
  8
0
 62
7
  6
CONTINUOUS
 10
185.9453708915
 20
610.544719927
  0
VERTEX
  8
0
 62
7
  6
CONTINUOUS
 10
185.6804045879
 20
610.5500073546
  0
VERTEX
  8
0
 62
7
  6
CONTINUOUS
 10
185.4339256764
 20
610.5541075473
  0
VERTEX
  8
0
 62
7
  6
CONTINUOUS
 10
185.203940485
 20
610.5572221488
  0
VERTEX
  8
0
 62
7
  6
CONTINUOUS
 10
185.0156857562
 20
610.5592606438
  0
SEQEND
  0
POLYLINE
  8
0
 62
7
  6
CONTINUOUS
 66
1
 70
0
  0
VERTEX
  8
0
 62
7
  6
CONTINUOUS
 10
184.9476590433
 20
610.0946965064
  0
VERTEX
  8
0
 62
7
  6
CONTINUOUS
 10
184.8571305206
 20
610.1186099765
  0
VERTEX
  8
0
 62
7
  6
CONTINUOUS
 10
184.7767919928
 20
610.1425402731
  0
VERTEX
  8
0
 62
7
  6
CONTINUOUS
 10
184.7068300129
 20
610.1664307573
  0
VERTEX
  8
0
 62
7
  6
CONTINUOUS
 10
184.6473499433
 20
610.1902609103
  0
VERTEX
  8
0
 62
7
  6
CONTINUOUS
 10
184.5988610821
 20
610.2138331409
  0
VERTEX
  8
0
 62
7
  6
CONTINUOUS
 10
184.561432034
 20
610.2370660285
  0
VERTEX
  8
0
 62
7
  6
CONTINUOUS
 10
184.5354016697
 20
610.2595948902
  0
VERTEX
  8
0
 62
7
  6
CONTINUOUS
 10
184.5204785044
 20
610.2809741626
  0
VERTEX
  8
0
 62
7
  6
CONTINUOUS
 10
184.5156857562
 20
610.3013671789
  0
SEQEND
  0
LINE
  8
0
 62
7
  6
CONTINUOUS
 10
205.3741658587
 20
604.9223392891
 11
211.2979999752
 21
603.3083849292
  0
POLYLINE
  8
0
 62
7
  6
CONTINUOUS
 66
1
 70
0
  0
VERTEX
  8
0
 62
7
  6
CONTINUOUS
 10
211.2979402379
 20
603.3084012003
  0
VERTEX
  8
0
 62
7
  6
CONTINUOUS
 10
211.3318537192
 20
603.2987055667
  0
VERTEX
  8
0
 62
7
  6
CONTINUOUS
 10
211.3772545981
 20
603.2841851783
  0
VERTEX
  8
0
 62
7
  6
CONTINUOUS
 10
211.4238944761
 20
603.2672306154
  0
VERTEX
  8
0
 62
7
  6
CONTINUOUS
 10
211.4755240649
 20
603.2457850921
  0
VERTEX
  8
0
 62
7
  6
CONTINUOUS
 10
211.5339995228
 20
603.2177132307
  0
VERTEX
  8
0
 62
7
  6
CONTINUOUS
 10
211.6010569906
 20
603.179936791
  0
VERTEX
  8
0
 62
7
  6
CONTINUOUS
 10
211.6785743165
 20
603.12761684
  0
VERTEX
  8
0
 62
7
  6
CONTINUOUS
 10
211.7623760533
 20
603.0582909317
  0
SEQEND
  0
POLYLINE
  8
0
 62
7
  6
CONTINUOUS
 66
1
 70
0
  0
VERTEX
  8
0
 62
7
  6
CONTINUOUS
 10
190.758080348
 20
608.7778583612
  0
VERTEX
  8
0
 62
7
  6
CONTINUOUS
 10
189.7874700824
 20
609.0559977326
  0
VERTEX
  8
0
 62
7
  6
CONTINUOUS
 10
188.8569671422
 20
609.3013511243
  0
VERTEX
  8
0
 62
7
  6
CONTINUOUS
 10
187.9662725658
 20
609.5124553408
  0
VERTEX
  8
0
 62
7
  6
CONTINUOUS
 10
187.1162832382
 20
609.6936999686
  0
VERTEX
  8
0
 62
7
  6
CONTINUOUS
 10
186.3078960441
 20
609.8494745944
  0
SEQEND
  0
LINE
  8
0
 62
7
  6
CONTINUOUS
 10
190.802963777
 20
608.7039355634
 11
191.1787920259
 21
608.595454244
  0
ARC
  8
0
 62
7
  6
CONTINUOUS
 10
184.2753920419
 20
-3339.0867381591
 40
3940.0330882891
 50
87.214896595
 51
92.7851050296
  0
ARC
  8
0
 62
7
  6
CONTINUOUS
 10
368.3357157411
 20
170.1852225288
 40
8.0
 50
293.9414978624
 51
359.0086212148
  0
ARC
  8
0
 62
7
  6
CONTINUOUS
 10
-9.4874992104
 20
553.1852225288
 40
5.0000002013
 50
90.0049526526
 51
181.0255101212
  0
ARC
  8
0
 62
7
  6
CONTINUOUS
 10
-12.089668452
 20
563.1852225288
 40
5.0
 50
179.0
 51
270.0
  0
ARC
  8
0
 62
7
  6
CONTINUOUS
 10
380.6404525359
 20
563.1852225288
 40
5.0
 50
270.0
 51
1.0
  0
ARC
  8
0
 62
7
  6
CONTINUOUS
 10
378.0382832943
 20
553.1852225288
 40
5.0
 50
358.9744650611
 51
90.0
  0
ARC
  8
0
 62
7
  6
CONTINUOUS
 10
339.8382419942
 20
-301.8147774712
 40
5.0
 50
270.000705862
 51
352.4273507334
  0
ARC
  8
0
 62
7
  6
CONTINUOUS
 10
28.7125420897
 20
-301.8147774712
 40
5.0
 50
187.5726379499
 51
269.9999999986
  0
ENDSEC
  0
EOF
