999
DXF file: K:\Client\125_Heirloom\001\00\Final_Data\Drawings\TOILETS\heiko-374120s_2.dxf
999
Pro/ENGINEER 2017110 by Parametric Technology Corporation
  0
SECTION
  2
HEADER
  9
$EXTMAX
 10
420.0
 20
297.0
 30
0.0
  9
$EXTMIN
 10
0.0
 20
0.0
 30
0.0
  9
$LIMMIN
 10
0.0
 20
0.0
  9
$LIMMAX
 10
420.0
 20
297.0
  9
$VIEWCTR
 10
210.0
 20
148.5
  9
$VIEWSIZE
 40
297.0
  9
$CLAYER
  8
0
  9
$LTSCALE
 40
23.1
  9
$CELTYPE
  6
BYLAYER
  9
$DIMSCALE
 40
1.0
  9
$DIMASZ
 40
3.0
  9
$DIMEXO
 40
1.0
  9
$DIMDLI
 40
15.96
  9
$DIMEXE
 40
1.0
  9
$DIMCEN
 40
3.78
  9
$DIMLFAC
 40
1.0
  9
$DIMBLK
  1
_FILLED
  9
$DIMALT
 70
0
  9
$DIMALTF
 40
0.0393700787
  9
$DIMTXT
 40
3.0
  9
$AUNITS
 70
0
  9
$PDMODE
 70
3
  9
$PDSIZE
 40
5.0
  9
$TILEMODE
 70
1
  0
ENDSEC
  0
SECTION
  2
TABLES
  0
TABLE
  2
LTYPE
 70
6
  0
LTYPE
  2
BYBLOCK
 70
0
  3

 72
65
 73
0
 40
0.0
  0
LTYPE
  2
BYLAYER
 70
0
  3

 72
65
 73
0
 40
0.0
  0
LTYPE
  2
CONTINUOUS
 70
64
  3
Solid line
 72
65
 73
0
 40
0.0
  0
LTYPE
  2
CENTER
 70
64
  3
____ _ ____ _ ____ _ ____ _ ____ _ ____ _ ____
 72
65
 73
4
 40
0.6
 49
0.375
 49
-0.075
 49
0.075
 49
-0.075
  0
LTYPE
  2
HIDDEN
 70
64
  3
- - - - - - - - - - - - - - - - - - - -
 72
65
 73
2
 40
0.2
 49
0.1
 49
-0.1
  0
LTYPE
  2
PHANTOM
 70
64
  3
_____ _ _ _____ _ _ _____ _ _ _____
 72
65
 73
6
 40
0.8
 49
0.45
 49
-0.05
 49
0.1
 49
-0.05
 49
0.1
 49
-0.05
  0
LTYPE
  2
DOT
 70
64
  3
. . . . . . . . . . . . . . . . . . . .
 72
65
 73
2
 40
0.2
 49
0.1
 49
-0.1
  0
LTYPE
  2
DASHED
 70
64
  3
- - - - - - - - - - - - - - - - - - - -
 72
65
 73
2
 40
0.2
 49
0.1
 49
-0.1
  0
ENDTAB
  0
TABLE
  2
LAYER
 70
36
  0
LAYER
  2
0
 70
0
 62
7
  6
CONTINUOUS
  0
LAYER
  2
DEFAULT_1
 70
0
 62
7
  6
CENTER
  0
LAYER
  2
DEFAULT_2
 70
0
 62
8
  6
HIDDEN
  0
LAYER
  2
DEFAULT_3
 70
0
 62
7
  6
PHANTOM
  0
LAYER
  2
0000_BOM
 70
0
 62
7
  6
CONTINUOUS
  0
LAYER
  2
0000_REV_TABLE
 70
0
 62
7
  6
CONTINUOUS
  0
LAYER
  2
0000_STEVENS_NOTE
 70
0
 62
7
  6
CONTINUOUS
  0
LAYER
  2
01_DATUM_PLANES
 70
0
 62
7
  6
CONTINUOUS
  0
LAYER
  2
01_DEF_PLANES
 70
0
 62
7
  6
CONTINUOUS
  0
LAYER
  2
02_DATUM_COS
 70
0
 62
7
  6
CONTINUOUS
  0
LAYER
  2
90_IMP_FEAT
 70
0
 62
7
  6
CONTINUOUS
  0
LAYER
  2
95_STL
 70
0
 62
7
  6
CONTINUOUS
  0
LAYER
  2
99_SOLID
 70
0
 62
7
  6
CONTINUOUS
  0
LAYER
  2
CAD-MASTER_ZINC-PL
 70
0
 62
7
  6
CONTINUOUS
  0
LAYER
  2
CURVE
 70
0
 62
7
  6
CONTINUOUS
  0
LAYER
  2
SHELL
 70
0
 62
7
  6
CONTINUOUS
  0
LAYER
  2
SKEL
 70
0
 62
7
  6
CONTINUOUS
  0
LAYER
  2
SKETCH
 70
0
 62
7
  6
CONTINUOUS
  0
LAYER
  2
SURFACE
 70
0
 62
7
  6
CONTINUOUS
  0
ENDTAB
  0
TABLE
  2
STYLE
 70
1
  0
STYLE
  2
STANDARD
 70
0
 40
0.0
 41
0.75
 50
0.0
 71
0
 42
0.2
  3
txt
  4

  0
STYLE
  2
TEXTSTYLE_1
 70
0
 40
0.0
 41
0.8
 50
0.0
 71
0
 42
0.2
  3
gdt
  4

  0
ENDTAB
  0
ENDSEC
  0
SECTION
  2
BLOCKS
  0
BLOCK
  8
0
 62
1
  6
CONTINUOUS
  2
PLUMBING_BL1
 70
64
 10
315.8295890958
 20
-126.2079709643
  0
CIRCLE
  8
0
 62
1
  6
CONTINUOUS
 10
315.8295890958
 20
-126.2079709643
 40
12.5
  0
LINE
  8
0
 62
1
  6
CONTINUOUS
 10
328.3295890958
 20
-113.7079709643
 11
303.3295890958
 21
-138.7079709643
  0
LINE
  8
0
 62
1
  6
CONTINUOUS
 10
315.8295890958
 20
-126.2079709643
 11
303.3295890958
 21
-113.7079709643
  0
LINE
  8
0
 62
1
  6
CONTINUOUS
 10
315.8295890958
 20
-126.2079709643
 11
328.3295890958
 21
-138.7079709643
  0
ENDBLK
  8
0
  6
BYBLOCK
 62
0
  0
BLOCK
  8
0
 62
5
  6
CONTINUOUS
  2
PLUMBING_BL0
 70
64
 10
502.1501442492
 20
-306.2079709643
  0
CIRCLE
  8
0
 62
5
  6
CONTINUOUS
 10
502.1501442492
 20
-306.2079709643
 40
12.5
  0
LINE
  8
0
 62
5
  6
CONTINUOUS
 10
514.6501442492
 20
-293.7079709643
 11
489.6501442492
 21
-318.7079709643
  0
LINE
  8
0
 62
5
  6
CONTINUOUS
 10
502.1501442492
 20
-306.2079709643
 11
489.6501442492
 21
-293.7079709643
  0
LINE
  8
0
 62
5
  6
CONTINUOUS
 10
502.1501442492
 20
-306.2079709643
 11
514.6501442492
 21
-318.7079709643
  0
ENDBLK
  8
0
  6
BYBLOCK
 62
0
  0
ENDSEC
  0
SECTION
  2
ENTITIES
  0
INSERT
  8
0
 62
5
  6
CONTINUOUS
  2
PLUMBING_BL0
 10
502.1501442492
 20
-306.2079709643
  0
INSERT
  8
0
 62
1
  6
CONTINUOUS
  2
PLUMBING_BL1
 10
315.8295890958
 20
-126.2079709643
  0
LINE
  8
DEFAULT_2
 62
8
  6
HIDDEN
 10
265.8288196293
 20
-176.2077768101
 11
315.8288196293
 21
-176.2077768101
  0
LINE
  8
DEFAULT_2
 62
8
  6
HIDDEN
 10
265.8288196293
 20
-76.2077768101
 11
315.8288196293
 21
-76.2077768101
  0
LINE
  8
DEFAULT_2
 62
8
  6
HIDDEN
 10
315.8288196293
 20
-76.5723331052
 11
315.8288196293
 21
-175.843220515
  0
LINE
  8
0
 62
7
  6
CONTINUOUS
 10
497.1501442492
 20
-306.2079709643
 11
-5.5285235891
 21
-306.2079709643
  0
POLYLINE
  8
0
 62
7
  6
CONTINUOUS
 66
1
 70
0
  0
VERTEX
  8
0
 62
7
  6
CONTINUOUS
 10
-164.3113252831
 20
140.7618355538
  0
VERTEX
  8
0
 62
7
  6
CONTINUOUS
 10
-164.1105726831
 20
130.5539287411
  0
VERTEX
  8
0
 62
7
  6
CONTINUOUS
 10
-163.720989159
 20
120.2593351857
  0
VERTEX
  8
0
 62
7
  6
CONTINUOUS
 10
-163.1464087583
 20
110.0909950163
  0
VERTEX
  8
0
 62
7
  6
CONTINUOUS
 10
-162.3851457792
 20
99.9987309499
  0
VERTEX
  8
0
 62
7
  6
CONTINUOUS
 10
-161.4356215535
 20
89.9483388199
  0
VERTEX
  8
0
 62
7
  6
CONTINUOUS
 10
-160.2951253353
 20
79.9051683051
  0
VERTEX
  8
0
 62
7
  6
CONTINUOUS
 10
-158.9586651933
 20
69.8389574317
  0
VERTEX
  8
0
 62
7
  6
CONTINUOUS
 10
-157.4186229771
 20
59.703315353
  0
VERTEX
  8
0
 62
7
  6
CONTINUOUS
 10
-155.6675955286
 20
49.458676617
  0
VERTEX
  8
0
 62
7
  6
CONTINUOUS
 10
-153.6936952841
 20
39.0570302556
  0
VERTEX
  8
0
 62
7
  6
CONTINUOUS
 10
-151.4848150899
 20
28.4565554187
  0
VERTEX
  8
0
 62
7
  6
CONTINUOUS
 10
-149.0245704452
 20
17.599448637
  0
VERTEX
  8
0
 62
7
  6
CONTINUOUS
 10
-146.2969804253
 20
6.4406880459
  0
VERTEX
  8
0
 62
7
  6
CONTINUOUS
 10
-143.2750385534
 20
-5.1026929269
  0
VERTEX
  8
0
 62
7
  6
CONTINUOUS
 10
-139.919241825
 20
-17.146728666
  0
VERTEX
  8
0
 62
7
  6
CONTINUOUS
 10
-136.2361009084
 20
-29.639369791
  0
VERTEX
  8
0
 62
7
  6
CONTINUOUS
 10
-132.1882476446
 20
-42.6796395012
  0
VERTEX
  8
0
 62
7
  6
CONTINUOUS
 10
-127.8230318488
 20
-56.1034474493
  0
VERTEX
  8
0
 62
7
  6
CONTINUOUS
 10
-123.1949508751
 20
-69.7341522203
  0
VERTEX
  8
0
 62
7
  6
CONTINUOUS
 10
-118.3829677772
 20
-83.3249494883
  0
VERTEX
  8
0
 62
7
  6
CONTINUOUS
 10
-113.4708288293
 20
-96.6360310162
  0
VERTEX
  8
0
 62
7
  6
CONTINUOUS
 10
-108.4465085012
 20
-109.7050574021
  0
VERTEX
  8
0
 62
7
  6
CONTINUOUS
 10
-103.3646601601
 20
-122.3985855821
  0
VERTEX
  8
0
 62
7
  6
CONTINUOUS
 10
-98.1772483032
 20
-134.8456985404
  0
VERTEX
  8
0
 62
7
  6
CONTINUOUS
 10
-92.8844207616
 20
-147.0534078253
  0
VERTEX
  8
0
 62
7
  6
CONTINUOUS
 10
-87.3943538006
 20
-159.2351547393
  0
VERTEX
  8
0
 62
7
  6
CONTINUOUS
 10
-81.6839384379
 20
-171.4348824313
  0
VERTEX
  8
0
 62
7
  6
CONTINUOUS
 10
-75.5201032257
 20
-184.1390465677
  0
VERTEX
  8
0
 62
7
  6
CONTINUOUS
 10
-68.6315847389
 20
-197.8577717628
  0
VERTEX
  8
0
 62
7
  6
CONTINUOUS
 10
-61.1217078916
 20
-212.3840003263
  0
VERTEX
  8
0
 62
7
  6
CONTINUOUS
 10
-52.6789973791
 20
-228.3568308259
  0
VERTEX
  8
0
 62
7
  6
CONTINUOUS
 10
-44.102535342
 20
-244.2886660801
  0
VERTEX
  8
0
 62
7
  6
CONTINUOUS
 10
-36.1635960717
 20
-258.7512458344
  0
VERTEX
  8
0
 62
7
  6
CONTINUOUS
 10
-28.5570754611
 20
-272.2740707139
  0
VERTEX
  8
0
 62
7
  6
CONTINUOUS
 10
-21.3326117546
 20
-284.7496972604
  0
VERTEX
  8
0
 62
7
  6
CONTINUOUS
 10
-14.3029081312
 20
-296.4959019145
  0
VERTEX
  8
0
 62
7
  6
CONTINUOUS
 10
-9.7723657665
 20
-303.8519081344
  0
SEQEND
  0
LINE
  8
0
 62
7
  6
CONTINUOUS
 10
-162.0306047999
 20
176.0848854656
 11
-162.4182048918
 21
153.8792910679
  0
LINE
  8
0
 62
7
  6
CONTINUOUS
 10
422.2277130601
 20
605.8440330174
 11
421.9809955467
 21
605.7601445832
  0
POLYLINE
  8
0
 62
7
  6
CONTINUOUS
 66
1
 70
0
  0
VERTEX
  8
0
 62
7
  6
CONTINUOUS
 10
424.224473694
 20
609.3846648681
  0
VERTEX
  8
0
 62
7
  6
CONTINUOUS
 10
425.2000867515
 20
609.6628042395
  0
VERTEX
  8
0
 62
7
  6
CONTINUOUS
 10
426.1350140928
 20
609.9081576312
  0
VERTEX
  8
0
 62
7
  6
CONTINUOUS
 10
427.0295291847
 20
610.1192618477
  0
VERTEX
  8
0
 62
7
  6
CONTINUOUS
 10
427.8828116263
 20
610.3005064755
  0
VERTEX
  8
0
 62
7
  6
CONTINUOUS
 10
428.6940410166
 20
610.4562811012
  0
VERTEX
  8
0
 62
7
  6
CONTINUOUS
 10
429.4634908226
 20
610.5851225293
  0
SEQEND
  0
LINE
  8
0
 62
7
  6
CONTINUOUS
 10
423.0599038989
 20
609.4049732372
 11
420.1576633367
 21
605.7925117618
  0
POLYLINE
  8
0
 62
7
  6
CONTINUOUS
 66
1
 70
0
  0
VERTEX
  8
0
 62
7
  6
CONTINUOUS
 10
421.9809955467
 20
605.7601445832
  0
VERTEX
  8
0
 62
7
  6
CONTINUOUS
 10
422.580747981
 20
606.7368435065
  0
VERTEX
  8
0
 62
7
  6
CONTINUOUS
 10
423.1545784836
 20
607.6664965284
  0
VERTEX
  8
0
 62
7
  6
CONTINUOUS
 10
423.7024870546
 20
608.5491036489
  0
VERTEX
  8
0
 62
7
  6
CONTINUOUS
 10
424.224473694
 20
609.3846648681
  0
SEQEND
  0
POLYLINE
  8
0
 62
7
  6
CONTINUOUS
 66
1
 70
0
  0
VERTEX
  8
0
 62
7
  6
CONTINUOUS
 10
424.5077285476
 20
609.2022607509
  0
VERTEX
  8
0
 62
7
  6
CONTINUOUS
 10
424.1895456618
 20
608.6878927652
  0
VERTEX
  8
0
 62
7
  6
CONTINUOUS
 10
423.8612187444
 20
608.1551172762
  0
VERTEX
  8
0
 62
7
  6
CONTINUOUS
 10
423.522725051
 20
607.603917576
  0
VERTEX
  8
0
 62
7
  6
CONTINUOUS
 10
423.1741328149
 20
607.0343437884
  0
VERTEX
  8
0
 62
7
  6
CONTINUOUS
 10
422.8155102697
 20
606.4464460371
  0
VERTEX
  8
0
 62
7
  6
CONTINUOUS
 10
422.4468346709
 20
605.8402076143
  0
SEQEND
  0
LINE
  8
0
 62
7
  6
CONTINUOUS
 10
-155.8550349613
 20
148.7921009301
 11
-156.3814633321
 21
148.7830936341
  0
LINE
  8
0
 62
7
  6
CONTINUOUS
 10
-157.4189664161
 20
148.7920290357
 11
369.2671593892
 21
148.7920290357
  0
LINE
  8
0
 62
7
  6
CONTINUOUS
 10
302.0622882552
 20
156.7920290357
 11
311.4863813071
 21
156.7920290357
  0
LINE
  8
0
 62
7
  6
CONTINUOUS
 10
-157.3885507019
 20
148.7105219694
 11
-157.8688222489
 21
148.6471656516
  0
LINE
  8
0
 62
7
  6
CONTINUOUS
 10
-156.8926276361
 20
148.755873991
 11
-157.3885507019
 21
148.7105219694
  0
LINE
  8
0
 62
7
  6
CONTINUOUS
 10
-156.3814633321
 20
148.7830936341
 11
-156.8926276361
 21
148.755873991
  0
LINE
  8
0
 62
7
  6
CONTINUOUS
 10
-156.2729683564
 20
181.9753108943
 11
292.3209041592
 21
200.04209336
  0
LINE
  8
0
 62
7
  6
CONTINUOUS
 10
508.9900158569
 20
162.7920290357
 11
360.1977100418
 21
162.7920290357
  0
LINE
  8
0
 62
7
  6
CONTINUOUS
 10
413.8297053928
 20
603.7467909034
 11
412.8938146459
 21
601.3087121528
  0
POLYLINE
  8
0
 62
7
  6
CONTINUOUS
 66
1
 70
0
  0
VERTEX
  8
0
 62
7
  6
CONTINUOUS
 10
-157.8688222489
 20
148.6471656516
  0
VERTEX
  8
0
 62
7
  6
CONTINUOUS
 10
-158.3333790196
 20
148.5659209349
  0
VERTEX
  8
0
 62
7
  6
CONTINUOUS
 10
-158.7813698566
 20
148.4670970822
  0
VERTEX
  8
0
 62
7
  6
CONTINUOUS
 10
-159.2122926995
 20
148.3510607029
  0
VERTEX
  8
0
 62
7
  6
CONTINUOUS
 10
-159.6255136389
 20
148.2183333564
  0
VERTEX
  8
0
 62
7
  6
CONTINUOUS
 10
-160.0203164492
 20
148.0695599871
  0
VERTEX
  8
0
 62
7
  6
CONTINUOUS
 10
-160.3964427688
 20
147.9053025232
  0
VERTEX
  8
0
 62
7
  6
CONTINUOUS
 10
-160.7534507419
 20
147.7263083237
  0
VERTEX
  8
0
 62
7
  6
CONTINUOUS
 10
-161.0915654308
 20
147.5330842511
  0
VERTEX
  8
0
 62
7
  6
CONTINUOUS
 10
-161.4107536728
 20
147.3263104182
  0
VERTEX
  8
0
 62
7
  6
CONTINUOUS
 10
-161.7115619903
 20
147.1063068966
  0
VERTEX
  8
0
 62
7
  6
CONTINUOUS
 10
-161.9941257423
 20
146.8736469253
  0
VERTEX
  8
0
 62
7
  6
CONTINUOUS
 10
-162.2595421382
 20
146.6280072916
  0
VERTEX
  8
0
 62
7
  6
CONTINUOUS
 10
-162.5081844523
 20
146.369463267
  0
VERTEX
  8
0
 62
7
  6
CONTINUOUS
 10
-162.7415896414
 20
146.0965151219
  0
VERTEX
  8
0
 62
7
  6
CONTINUOUS
 10
-162.9606973668
 20
145.8075797267
  0
VERTEX
  8
0
 62
7
  6
CONTINUOUS
 10
-163.1658675824
 20
145.5011312903
  0
VERTEX
  8
0
 62
7
  6
CONTINUOUS
 10
-163.3576391404
 20
145.1745498821
  0
VERTEX
  8
0
 62
7
  6
CONTINUOUS
 10
-163.534630208
 20
144.8278460385
  0
VERTEX
  8
0
 62
7
  6
CONTINUOUS
 10
-163.6961525443
 20
144.4597192811
  0
VERTEX
  8
0
 62
7
  6
CONTINUOUS
 10
-163.8404577194
 20
144.0713918333
  0
VERTEX
  8
0
 62
7
  6
CONTINUOUS
 10
-163.9664549573
 20
143.6636549099
  0
VERTEX
  8
0
 62
7
  6
CONTINUOUS
 10
-164.0733013472
 20
143.2379054449
  0
VERTEX
  8
0
 62
7
  6
CONTINUOUS
 10
-164.1604205192
 20
142.7960481222
  0
VERTEX
  8
0
 62
7
  6
CONTINUOUS
 10
-164.22775273
 20
142.3389240728
  0
VERTEX
  8
0
 62
7
  6
CONTINUOUS
 10
-164.2753128873
 20
141.8680608741
  0
VERTEX
  8
0
 62
7
  6
CONTINUOUS
 10
-164.3033659253
 20
141.384237715
  0
VERTEX
  8
0
 62
7
  6
CONTINUOUS
 10
-164.3122472548
 20
140.8888726739
  0
VERTEX
  8
0
 62
7
  6
CONTINUOUS
 10
-164.3115064418
 20
140.7615078582
  0
SEQEND
  0
LINE
  8
0
 62
7
  6
CONTINUOUS
 10
311.4864107063
 20
156.7920290357
 11
311.4864107063
 21
148.7920290357
  0
LINE
  8
0
 62
7
  6
CONTINUOUS
 10
298.3762853757
 20
195.5295866748
 11
304.5704851825
 21
171.2399285768
  0
LINE
  8
0
 62
7
  6
CONTINUOUS
 10
349.2550531371
 20
553.5471928778
 11
352.0328794733
 21
496.8868146003
  0
POLYLINE
  8
0
 62
7
  6
CONTINUOUS
 66
1
 70
0
  0
VERTEX
  8
0
 62
7
  6
CONTINUOUS
 10
352.0328716436
 20
496.8868142164
  0
VERTEX
  8
0
 62
7
  6
CONTINUOUS
 10
352.3808951946
 20
489.5225892712
  0
VERTEX
  8
0
 62
7
  6
CONTINUOUS
 10
352.7318745917
 20
481.5126378253
  0
VERTEX
  8
0
 62
7
  6
CONTINUOUS
 10
353.080647927
 20
472.8106020957
  0
VERTEX
  8
0
 62
7
  6
CONTINUOUS
 10
353.4144520858
 20
463.554786951
  0
VERTEX
  8
0
 62
7
  6
CONTINUOUS
 10
353.7239783844
 20
453.8279009739
  0
VERTEX
  8
0
 62
7
  6
CONTINUOUS
 10
354.0000625913
 20
443.7509292714
  0
VERTEX
  8
0
 62
7
  6
CONTINUOUS
 10
354.2358239151
 20
433.4296473026
  0
VERTEX
  8
0
 62
7
  6
CONTINUOUS
 10
354.425855504
 20
422.9929491963
  0
VERTEX
  8
0
 62
7
  6
CONTINUOUS
 10
354.5664594774
 20
412.6278914238
  0
VERTEX
  8
0
 62
7
  6
CONTINUOUS
 10
354.6590939533
 20
402.2661244373
  0
VERTEX
  8
0
 62
7
  6
CONTINUOUS
 10
354.7038231983
 20
391.9012019427
  0
VERTEX
  8
0
 62
7
  6
CONTINUOUS
 10
354.7006093031
 20
381.5344616841
  0
VERTEX
  8
0
 62
7
  6
CONTINUOUS
 10
354.6497727277
 20
371.2136527929
  0
VERTEX
  8
0
 62
7
  6
CONTINUOUS
 10
354.5502193357
 20
360.7930956426
  0
VERTEX
  8
0
 62
7
  6
CONTINUOUS
 10
354.4190651644
 20
350.181163515
  0
SEQEND
  0
LINE
  8
0
 62
7
  6
CONTINUOUS
 10
354.4190651644
 20
350.181163515
 11
352.1983181864
 21
170.8905635398
  0
LINE
  8
0
 62
7
  6
CONTINUOUS
 10
348.7084500851
 20
586.7278561042
 11
348.3096268989
 21
563.8792910679
  0
LINE
  8
0
 62
7
  6
CONTINUOUS
 10
516.9200609516
 20
589.4734923263
 11
517.3668093963
 21
563.8792910679
  0
LINE
  8
0
 62
7
  6
CONTINUOUS
 10
502.1501442492
 20
-301.2079709643
 11
502.1501286891
 21
157.7925439817
  0
LINE
  8
0
 62
7
  6
CONTINUOUS
 10
502.1501456054
 20
157.7525477328
 11
502.1501442492
 21
157.7748760809
  0
LINE
  8
0
 62
7
  6
CONTINUOUS
 10
520.726909395
 20
553.7047670035
 11
513.9892543327
 21
167.7047670035
  0
LINE
  8
0
 62
7
  6
CONTINUOUS
 10
420.1576633367
 20
605.7925117618
 11
414.5167539706
 21
604.357557644
  0
POLYLINE
  8
0
 62
7
  6
CONTINUOUS
 66
1
 70
0
  0
VERTEX
  8
0
 62
7
  6
CONTINUOUS
 10
429.8143159899
 20
610.4257373037
  0
VERTEX
  8
0
 62
7
  6
CONTINUOUS
 10
429.0427903255
 20
610.2963705759
  0
VERTEX
  8
0
 62
7
  6
CONTINUOUS
 10
428.2257908884
 20
610.1389089876
  0
VERTEX
  8
0
 62
7
  6
CONTINUOUS
 10
427.3630256078
 20
609.9549683686
  0
VERTEX
  8
0
 62
7
  6
CONTINUOUS
 10
426.4553706963
 20
609.7397012293
  0
VERTEX
  8
0
 62
7
  6
CONTINUOUS
 10
425.5037023665
 20
609.4882600801
  0
VERTEX
  8
0
 62
7
  6
CONTINUOUS
 10
424.5077285476
 20
609.2022607509
  0
SEQEND
  0
POLYLINE
  8
0
 62
7
  6
CONTINUOUS
 66
1
 70
0
  0
VERTEX
  8
0
 62
7
  6
CONTINUOUS
 10
429.4634905526
 20
610.5851070577
  0
VERTEX
  8
0
 62
7
  6
CONTINUOUS
 10
429.6079553308
 20
610.6077560804
  0
VERTEX
  8
0
 62
7
  6
CONTINUOUS
 10
429.7599394455
 20
610.6307316297
  0
VERTEX
  8
0
 62
7
  6
CONTINUOUS
 10
429.9189612591
 20
610.6540831099
  0
VERTEX
  8
0
 62
7
  6
CONTINUOUS
 10
430.084520056
 20
610.677696269
  0
VERTEX
  8
0
 62
7
  6
CONTINUOUS
 10
430.2561138055
 20
610.7015030133
  0
VERTEX
  8
0
 62
7
  6
CONTINUOUS
 10
430.4331381621
 20
610.7254164833
  0
VERTEX
  8
0
 62
7
  6
CONTINUOUS
 10
430.6149192488
 20
610.74934678
  0
VERTEX
  8
0
 62
7
  6
CONTINUOUS
 10
430.8010298359
 20
610.7732372642
  0
VERTEX
  8
0
 62
7
  6
CONTINUOUS
 10
430.9913420246
 20
610.7970674171
  0
VERTEX
  8
0
 62
7
  6
CONTINUOUS
 10
431.1842456143
 20
610.8206396478
  0
VERTEX
  8
0
 62
7
  6
CONTINUOUS
 10
431.3791409048
 20
610.8438725354
  0
VERTEX
  8
0
 62
7
  6
CONTINUOUS
 10
431.572619475
 20
610.866401397
  0
VERTEX
  8
0
 62
7
  6
CONTINUOUS
 10
431.7608947803
 20
610.8877806695
  0
SEQEND
  0
LINE
  8
0
 62
7
  6
CONTINUOUS
 10
353.3088662759
 20
558.7920290357
 11
515.7276709192
 21
558.7920290357
  0
LINE
  8
0
 62
7
  6
CONTINUOUS
 10
469.3298047318
 20
602.7780330659
 11
470.3681840691
 21
599.7623604995
  0
POLYLINE
  8
0
 62
7
  6
CONTINUOUS
 66
1
 70
0
  0
VERTEX
  8
0
 62
7
  6
CONTINUOUS
 10
431.9408056586
 20
610.7033752624
  0
VERTEX
  8
0
 62
7
  6
CONTINUOUS
 10
431.7912571061
 20
610.6867150948
  0
VERTEX
  8
0
 62
7
  6
CONTINUOUS
 10
431.6376732353
 20
610.6692496119
  0
VERTEX
  8
0
 62
7
  6
CONTINUOUS
 10
431.4803146557
 20
610.6509273294
  0
VERTEX
  8
0
 62
7
  6
CONTINUOUS
 10
431.3202851114
 20
610.6318697871
  0
VERTEX
  8
0
 62
7
  6
CONTINUOUS
 10
431.1584172388
 20
610.6121271134
  0
VERTEX
  8
0
 62
7
  6
CONTINUOUS
 10
430.99610617
 20
610.591856451
  0
VERTEX
  8
0
 62
7
  6
CONTINUOUS
 10
430.8348109235
 20
610.5712044158
  0
VERTEX
  8
0
 62
7
  6
CONTINUOUS
 10
430.6752313518
 20
610.55025169
  0
VERTEX
  8
0
 62
7
  6
CONTINUOUS
 10
430.5180285863
 20
610.5290598495
  0
VERTEX
  8
0
 62
7
  6
CONTINUOUS
 10
430.364812174
 20
610.5078322293
  0
VERTEX
  8
0
 62
7
  6
CONTINUOUS
 10
430.216933813
 20
610.4867540137
  0
VERTEX
  8
0
 62
7
  6
CONTINUOUS
 10
430.0753136643
 20
610.4659502116
  0
VERTEX
  8
0
 62
7
  6
CONTINUOUS
 10
429.9410759195
 20
610.4456381963
  0
VERTEX
  8
0
 62
7
  6
CONTINUOUS
 10
429.8143159899
 20
610.4257373037
  0
SEQEND
  0
LINE
  8
0
 62
7
  6
CONTINUOUS
 10
431.7608947803
 20
610.8877806695
 11
431.9443804284
 21
610.9081736857
  0
LINE
  8
0
 62
7
  6
CONTINUOUS
 10
420.1576633367
 20
605.7925117618
 11
421.9843753197
 21
605.7606263856
  0
LINE
  8
0
 62
7
  6
CONTINUOUS
 10
461.2503842543
 20
605.0752356501
 11
463.0770962373
 21
605.0433502739
  0
LINE
  8
0
 62
7
  6
CONTINUOUS
 10
422.2277130601
 20
605.8440330174
 11
461.0101055982
 21
605.1670838375
  0
LINE
  8
0
 62
7
  6
CONTINUOUS
 10
424.5077268558
 20
609.2022606172
 11
458.8486811783
 21
608.6028370298
  0
LINE
  8
0
 62
7
  6
CONTINUOUS
 10
423.0599038989
 20
609.4049732372
 11
424.2243435534
 21
609.3846478674
  0
LINE
  8
0
 62
7
  6
CONTINUOUS
 10
459.1382570745
 20
608.77522324
 11
460.302696729
 21
608.7548978703
  0
POLYLINE
  8
0
 62
7
  6
CONTINUOUS
 66
1
 70
0
  0
VERTEX
  8
0
 62
7
  6
CONTINUOUS
 10
451.4760933267
 20
610.5672466565
  0
VERTEX
  8
0
 62
7
  6
CONTINUOUS
 10
451.6550773529
 20
610.5410107466
  0
VERTEX
  8
0
 62
7
  6
CONTINUOUS
 10
451.8400397791
 20
610.5134477548
  0
VERTEX
  8
0
 62
7
  6
CONTINUOUS
 10
452.031545991
 20
610.4843598789
  0
VERTEX
  8
0
 62
7
  6
CONTINUOUS
 10
452.2253657797
 20
610.4543847578
  0
VERTEX
  8
0
 62
7
  6
CONTINUOUS
 10
452.4177404983
 20
610.4240506491
  0
VERTEX
  8
0
 62
7
  6
CONTINUOUS
 10
452.6078995555
 20
610.3934865202
  0
VERTEX
  8
0
 62
7
  6
CONTINUOUS
 10
452.7939800872
 20
610.3629833907
  0
VERTEX
  8
0
 62
7
  6
CONTINUOUS
 10
452.9757791148
 20
610.3325784943
  0
VERTEX
  8
0
 62
7
  6
CONTINUOUS
 10
453.1526993525
 20
610.3023720926
  0
VERTEX
  8
0
 62
7
  6
CONTINUOUS
 10
453.324150332
 20
610.2724645608
  0
VERTEX
  8
0
 62
7
  6
CONTINUOUS
 10
453.4895688943
 20
610.242955998
  0
VERTEX
  8
0
 62
7
  6
CONTINUOUS
 10
453.648396549
 20
610.2139453865
  0
VERTEX
  8
0
 62
7
  6
CONTINUOUS
 10
453.8000957245
 20
610.1855763485
  0
VERTEX
  8
0
 62
7
  6
CONTINUOUS
 10
453.9441973507
 20
610.1578123252
  0
SEQEND
  0
LINE
  8
0
 62
7
  6
CONTINUOUS
 10
460.302696729
 20
608.7548978703
 11
463.0770962373
 21
605.0433502739
  0
POLYLINE
  8
0
 62
7
  6
CONTINUOUS
 66
1
 70
0
  0
VERTEX
  8
0
 62
7
  6
CONTINUOUS
 10
459.1381276065
 20
608.7752447722
  0
VERTEX
  8
0
 62
7
  6
CONTINUOUS
 10
459.6306355997
 20
607.9219754833
  0
VERTEX
  8
0
 62
7
  6
CONTINUOUS
 10
460.1474078553
 20
607.0207842898
  0
VERTEX
  8
0
 62
7
  6
CONTINUOUS
 10
460.6884443733
 20
606.0716711917
  0
VERTEX
  8
0
 62
7
  6
CONTINUOUS
 10
461.2537451538
 20
605.0746361889
  0
SEQEND
  0
POLYLINE
  8
0
 62
7
  6
CONTINUOUS
 66
1
 70
0
  0
VERTEX
  8
0
 62
7
  6
CONTINUOUS
 10
460.7909839657
 20
605.1709079987
  0
VERTEX
  8
0
 62
7
  6
CONTINUOUS
 10
460.4436903699
 20
605.7896437104
  0
VERTEX
  8
0
 62
7
  6
CONTINUOUS
 10
460.1058036235
 20
606.3896990765
  0
VERTEX
  8
0
 62
7
  6
CONTINUOUS
 10
459.777301579
 20
606.9710915888
  0
VERTEX
  8
0
 62
7
  6
CONTINUOUS
 10
459.4582506789
 20
607.5337687725
  0
VERTEX
  8
0
 62
7
  6
CONTINUOUS
 10
459.1487173658
 20
608.0776781532
  0
VERTEX
  8
0
 62
7
  6
CONTINUOUS
 10
458.8486794922
 20
608.6028372225
  0
SEQEND
  0
POLYLINE
  8
0
 62
7
  6
CONTINUOUS
 66
1
 70
0
  0
VERTEX
  8
0
 62
7
  6
CONTINUOUS
 10
453.5880233955
 20
610.0107656973
  0
VERTEX
  8
0
 62
7
  6
CONTINUOUS
 10
453.4675933873
 20
610.0340156884
  0
VERTEX
  8
0
 62
7
  6
CONTINUOUS
 10
453.3399674544
 20
610.057954591
  0
VERTEX
  8
0
 62
7
  6
CONTINUOUS
 10
453.2051829957
 20
610.0826505566
  0
VERTEX
  8
0
 62
7
  6
CONTINUOUS
 10
453.064178633
 20
610.1078807884
  0
VERTEX
  8
0
 62
7
  6
CONTINUOUS
 10
452.9179694198
 20
610.1334672431
  0
VERTEX
  8
0
 62
7
  6
CONTINUOUS
 10
452.7669601153
 20
610.1593333964
  0
VERTEX
  8
0
 62
7
  6
CONTINUOUS
 10
452.6117525254
 20
610.1853767901
  0
VERTEX
  8
0
 62
7
  6
CONTINUOUS
 10
452.4529644242
 20
610.2114937991
  0
VERTEX
  8
0
 62
7
  6
CONTINUOUS
 10
452.2910438001
 20
610.2376096863
  0
VERTEX
  8
0
 62
7
  6
CONTINUOUS
 10
452.1272277192
 20
610.2635331324
  0
VERTEX
  8
0
 62
7
  6
CONTINUOUS
 10
451.9627218078
 20
610.2890761655
  0
VERTEX
  8
0
 62
7
  6
CONTINUOUS
 10
451.7982299304
 20
610.3141511871
  0
VERTEX
  8
0
 62
7
  6
CONTINUOUS
 10
451.6347008414
 20
610.3385943121
  0
VERTEX
  8
0
 62
7
  6
CONTINUOUS
 10
451.4725185519
 20
610.3624479457
  0
SEQEND
  0
POLYLINE
  8
0
 62
7
  6
CONTINUOUS
 66
1
 70
0
  0
VERTEX
  8
0
 62
7
  6
CONTINUOUS
 10
453.9441973137
 20
610.157810208
  0
VERTEX
  8
0
 62
7
  6
CONTINUOUS
 10
454.7086817092
 20
610.002193897
  0
VERTEX
  8
0
 62
7
  6
CONTINUOUS
 10
455.5139803559
 20
609.8182026951
  0
VERTEX
  8
0
 62
7
  6
CONTINUOUS
 10
456.3604176195
 20
609.607289365
  0
VERTEX
  8
0
 62
7
  6
CONTINUOUS
 10
457.2470204032
 20
609.3650956182
  0
VERTEX
  8
0
 62
7
  6
CONTINUOUS
 10
458.1728156103
 20
609.0872631663
  0
VERTEX
  8
0
 62
7
  6
CONTINUOUS
 10
459.1381276065
 20
608.7752447722
  0
SEQEND
  0
LINE
  8
0
 62
7
  6
CONTINUOUS
 10
463.0770962373
 20
605.0433502739
 11
468.6644901373
 21
603.4124053935
  0
POLYLINE
  8
0
 62
7
  6
CONTINUOUS
 66
1
 70
0
  0
VERTEX
  8
0
 62
7
  6
CONTINUOUS
 10
458.8486794922
 20
608.6028372225
  0
VERTEX
  8
0
 62
7
  6
CONTINUOUS
 10
457.8632938668
 20
608.9234212422
  0
VERTEX
  8
0
 62
7
  6
CONTINUOUS
 10
456.920980582
 20
609.2079219268
  0
VERTEX
  8
0
 62
7
  6
CONTINUOUS
 10
456.0213913539
 20
609.4547346272
  0
VERTEX
  8
0
 62
7
  6
CONTINUOUS
 10
455.1655710346
 20
609.6686732903
  0
VERTEX
  8
0
 62
7
  6
CONTINUOUS
 10
454.3545644765
 20
609.8545518634
  0
VERTEX
  8
0
 62
7
  6
CONTINUOUS
 10
453.5880233955
 20
610.0107656973
  0
SEQEND
  0
LINE
  8
0
 62
7
  6
CONTINUOUS
 10
461.2537451538
 20
605.0746361889
 11
461.0101055982
 21
605.1670838375
  0
ARC
  8
0
 62
7
  6
CONTINUOUS
 10
-5.5285257179
 20
-301.2079709643
 40
5.0
 50
211.9227201512
 51
270.0
  0
ARC
  8
0
 62
7
  6
CONTINUOUS
 10
-156.0315186289
 20
175.9801710269
 40
6.0
 50
92.3062982254
 51
179.0
  0
ARC
  8
0
 62
7
  6
CONTINUOUS
 10
-157.4189664161
 20
153.7920290357
 40
5.0
 50
179.0
 51
270.0
  0
ARC
  8
0
 62
7
  6
CONTINUOUS
 10
428.2833876223
 20
104.9488723926
 40
496.6042842443
 50
80.2044875417
 51
98.2205342256
  0
ARC
  8
0
 62
7
  6
CONTINUOUS
 10
497.1501442492
 20
-301.2079709643
 40
5.0
 50
270.0
 51
360.0
  0
ARC
  8
0
 62
7
  6
CONTINUOUS
 10
287.1286908461
 20
166.7920290357
 40
18.0
 50
270.0
 51
14.3062982254
  0
ARC
  8
0
 62
7
  6
CONTINUOUS
 10
360.197711027
 20
170.7920290357
 40
8.0000000028
 50
179.2903536189
 51
269.9999999999
  0
ARC
  8
0
 62
7
  6
CONTINUOUS
 10
368.7365987089
 20
154.7920290357
 40
8.0
 50
90.0
 51
172.8192442185
  0
ARC
  8
0
 62
7
  6
CONTINUOUS
 10
352.8620908425
 20
156.7920290357
 40
8.0
 50
270.0
 51
352.8192442185
  0
ARC
  8
0
 62
7
  6
CONTINUOUS
 10
292.5623539303
 20
194.0469534944
 40
6.0
 50
14.3062982254
 51
92.3062982254
  0
ARC
  8
0
 62
7
  6
CONTINUOUS
 10
358.7069270724
 20
586.5533320437
 40
9.9999999963
 50
98.2205210445
 51
179.0000000008
  0
ARC
  8
0
 62
7
  6
CONTINUOUS
 10
353.3088653747
 20
563.7920290357
 40
5.0
 50
179.0
 51
270.0
  0
ARC
  8
0
 62
7
  6
CONTINUOUS
 10
354.2490579342
 20
553.7920290357
 40
5.0
 50
89.9999999968
 51
182.8067365182
  0
ARC
  8
0
 62
7
  6
CONTINUOUS
 10
508.9900158697
 20
167.7920297655
 40
4.9999987836
 50
269.999999854
 51
358.9999916354
  0
ARC
  8
0
 62
7
  6
CONTINUOUS
 10
497.1501442492
 20
157.7920254727
 40
4.9999938261
 50
0.0
 51
90.0
  0
ARC
  8
0
 62
7
  6
CONTINUOUS
 10
440.3726320985
 20
534.1063837047
 40
77.2632392753
 50
97.8744770456
 51
102.9484663514
  0
ARC
  8
0
 62
7
  6
CONTINUOUS
 10
440.3726320985
 20
534.1063837047
 40
77.2632392753
 50
75.0515336486
 51
80.1255229544
  0
ARC
  8
0
 62
7
  6
CONTINUOUS
 10
440.3726320985
 20
534.1063837047
 40
77.2628656098
 50
81.7374036211
 51
96.2625963789
  0
ARC
  8
0
 62
7
  6
CONTINUOUS
 10
440.3726320985
 20
534.1063837047
 40
77.0596834461
 50
81.7181508037
 51
96.2818491963
  0
ARC
  8
0
 62
7
  6
CONTINUOUS
 10
512.3675709205
 20
563.7920290357
 40
5.0
 50
270.0
 51
1.0
  0
ARC
  8
0
 62
7
  6
CONTINUOUS
 10
515.7276709192
 20
553.7920290357
 40
5.0
 50
359.0
 51
90.0
  0
ARC
  8
0
 62
7
  6
CONTINUOUS
 10
511.9208224758
 20
589.3862302941
 40
4.9999999996
 50
0.9999999997
 51
80.2045285327
  0
ARC
  8
0
 62
7
  6
CONTINUOUS
 10
414.7632858193
 20
603.3884229539
 40
1.0
 50
104.2723793093
 51
159.0
  0
ARC
  8
0
 62
7
  6
CONTINUOUS
 10
468.3842861562
 20
602.4524649115
 40
1.0
 50
19.0
 51
73.7276206907
  0
ENDSEC
  0
EOF
