999
DXF file: K:\Client\125_Heirloom\001\00\Final_Data\Drawings\TOILETS\heiko-374120s_3.dxf
999
Pro/ENGINEER 2017110 by Parametric Technology Corporation
  0
SECTION
  2
HEADER
  9
$EXTMAX
 10
420.0
 20
297.0
 30
0.0
  9
$EXTMIN
 10
0.0
 20
0.0
 30
0.0
  9
$LIMMIN
 10
0.0
 20
0.0
  9
$LIMMAX
 10
420.0
 20
297.0
  9
$VIEWCTR
 10
210.0
 20
148.5
  9
$VIEWSIZE
 40
297.0
  9
$CLAYER
  8
0
  9
$LTSCALE
 40
23.1
  9
$CELTYPE
  6
BYLAYER
  9
$DIMSCALE
 40
1.0
  9
$DIMASZ
 40
3.0
  9
$DIMEXO
 40
1.0
  9
$DIMDLI
 40
15.96
  9
$DIMEXE
 40
1.0
  9
$DIMCEN
 40
3.78
  9
$DIMLFAC
 40
1.0
  9
$DIMBLK
  1
_FILLED
  9
$DIMALT
 70
0
  9
$DIMALTF
 40
0.0393700787
  9
$DIMTXT
 40
3.0
  9
$AUNITS
 70
0
  9
$PDMODE
 70
3
  9
$PDSIZE
 40
5.0
  9
$TILEMODE
 70
1
  0
ENDSEC
  0
SECTION
  2
TABLES
  0
TABLE
  2
LTYPE
 70
6
  0
LTYPE
  2
BYBLOCK
 70
0
  3

 72
65
 73
0
 40
0.0
  0
LTYPE
  2
BYLAYER
 70
0
  3

 72
65
 73
0
 40
0.0
  0
LTYPE
  2
CONTINUOUS
 70
64
  3
Solid line
 72
65
 73
0
 40
0.0
  0
LTYPE
  2
CENTER
 70
64
  3
____ _ ____ _ ____ _ ____ _ ____ _ ____ _ ____
 72
65
 73
4
 40
0.6
 49
0.375
 49
-0.075
 49
0.075
 49
-0.075
  0
LTYPE
  2
HIDDEN
 70
64
  3
- - - - - - - - - - - - - - - - - - - -
 72
65
 73
2
 40
0.2
 49
0.1
 49
-0.1
  0
LTYPE
  2
PHANTOM
 70
64
  3
_____ _ _ _____ _ _ _____ _ _ _____
 72
65
 73
6
 40
0.8
 49
0.45
 49
-0.05
 49
0.1
 49
-0.05
 49
0.1
 49
-0.05
  0
LTYPE
  2
DOT
 70
64
  3
. . . . . . . . . . . . . . . . . . . .
 72
65
 73
2
 40
0.2
 49
0.1
 49
-0.1
  0
LTYPE
  2
DASHED
 70
64
  3
- - - - - - - - - - - - - - - - - - - -
 72
65
 73
2
 40
0.2
 49
0.1
 49
-0.1
  0
ENDTAB
  0
TABLE
  2
LAYER
 70
36
  0
LAYER
  2
0
 70
0
 62
7
  6
CONTINUOUS
  0
LAYER
  2
DEFAULT_1
 70
0
 62
7
  6
CENTER
  0
LAYER
  2
DEFAULT_2
 70
0
 62
8
  6
HIDDEN
  0
LAYER
  2
DEFAULT_3
 70
0
 62
7
  6
PHANTOM
  0
LAYER
  2
0000_BOM
 70
0
 62
7
  6
CONTINUOUS
  0
LAYER
  2
0000_REV_TABLE
 70
0
 62
7
  6
CONTINUOUS
  0
LAYER
  2
0000_STEVENS_NOTE
 70
0
 62
7
  6
CONTINUOUS
  0
LAYER
  2
01_DATUM_PLANES
 70
0
 62
7
  6
CONTINUOUS
  0
LAYER
  2
01_DEF_PLANES
 70
0
 62
7
  6
CONTINUOUS
  0
LAYER
  2
02_DATUM_COS
 70
0
 62
7
  6
CONTINUOUS
  0
LAYER
  2
90_IMP_FEAT
 70
0
 62
7
  6
CONTINUOUS
  0
LAYER
  2
95_STL
 70
0
 62
7
  6
CONTINUOUS
  0
LAYER
  2
99_SOLID
 70
0
 62
7
  6
CONTINUOUS
  0
LAYER
  2
CAD-MASTER_ZINC-PL
 70
0
 62
7
  6
CONTINUOUS
  0
LAYER
  2
CURVE
 70
0
 62
7
  6
CONTINUOUS
  0
LAYER
  2
SHELL
 70
0
 62
7
  6
CONTINUOUS
  0
LAYER
  2
SKEL
 70
0
 62
7
  6
CONTINUOUS
  0
LAYER
  2
SKETCH
 70
0
 62
7
  6
CONTINUOUS
  0
LAYER
  2
SURFACE
 70
0
 62
7
  6
CONTINUOUS
  0
ENDTAB
  0
TABLE
  2
STYLE
 70
1
  0
STYLE
  2
STANDARD
 70
0
 40
0.0
 41
0.75
 50
0.0
 71
0
 42
0.2
  3
txt
  4

  0
STYLE
  2
TEXTSTYLE_1
 70
0
 40
0.0
 41
0.8
 50
0.0
 71
0
 42
0.2
  3
gdt
  4

  0
ENDTAB
  0
ENDSEC
  0
SECTION
  2
BLOCKS
  0
BLOCK
  8
0
 62
5
  6
CONTINUOUS
  2
PLUMBING_BL1
 70
64
 10
186.0327043836
 20
475.6552979888
  0
CIRCLE
  8
0
 62
5
  6
CONTINUOUS
 10
186.0327043836
 20
475.6552979888
 40
12.5
  0
LINE
  8
0
 62
5
  6
CONTINUOUS
 10
198.5327043836
 20
488.1552979888
 11
173.5327043836
 21
463.1552979888
  0
LINE
  8
0
 62
5
  6
CONTINUOUS
 10
186.0327043836
 20
475.6552979888
 11
173.5327043836
 21
488.1552979888
  0
LINE
  8
0
 62
5
  6
CONTINUOUS
 10
186.0327043836
 20
475.6552979888
 11
198.5327043836
 21
463.1552979888
  0
ENDBLK
  8
0
  6
BYBLOCK
 62
0
  0
BLOCK
  8
0
 62
1
  6
CONTINUOUS
  2
PLUMBING_BL0
 70
64
 10
186.0327043836
 20
289.3347428354
  0
CIRCLE
  8
0
 62
1
  6
CONTINUOUS
 10
186.0327043836
 20
289.3347428354
 40
12.5
  0
LINE
  8
0
 62
1
  6
CONTINUOUS
 10
198.5327043836
 20
301.8347428354
 11
173.5327043836
 21
276.8347428354
  0
LINE
  8
0
 62
1
  6
CONTINUOUS
 10
186.0327043836
 20
289.3347428354
 11
173.5327043836
 21
301.8347428354
  0
LINE
  8
0
 62
1
  6
CONTINUOUS
 10
186.0327043836
 20
289.3347428354
 11
198.5327043836
 21
276.8347428354
  0
ENDBLK
  8
0
  6
BYBLOCK
 62
0
  0
ENDSEC
  0
SECTION
  2
ENTITIES
  0
INSERT
  8
0
 62
1
  6
CONTINUOUS
  2
PLUMBING_BL0
 10
186.0327043836
 20
289.3347428354
  0
INSERT
  8
0
 62
5
  6
CONTINUOUS
  2
PLUMBING_BL1
 10
186.0327043836
 20
475.6552979888
  0
POLYLINE
  8
0
 62
7
  6
CONTINUOUS
 66
1
 70
0
  0
VERTEX
  8
0
 62
7
  6
CONTINUOUS
 10
7.749865659
 20
-38.0742992299
  0
VERTEX
  8
0
 62
7
  6
CONTINUOUS
 10
7.5134096012
 20
-36.1913818976
  0
VERTEX
  8
0
 62
7
  6
CONTINUOUS
 10
7.2588169938
 20
-34.1124617527
  0
VERTEX
  8
0
 62
7
  6
CONTINUOUS
 10
6.9948072794
 20
-31.8958124948
  0
VERTEX
  8
0
 62
7
  6
CONTINUOUS
 10
6.7294189931
 20
-29.5999070632
  0
VERTEX
  8
0
 62
7
  6
CONTINUOUS
 10
6.4700139392
 20
-27.2842985783
  0
VERTEX
  8
0
 62
7
  6
CONTINUOUS
 10
6.2242754363
 20
-25.0194659405
  0
VERTEX
  8
0
 62
7
  6
CONTINUOUS
 10
5.9990688326
 20
-22.8773327492
  0
VERTEX
  8
0
 62
7
  6
CONTINUOUS
 10
5.7972918677
 20
-20.8990965767
  0
VERTEX
  8
0
 62
7
  6
CONTINUOUS
 10
5.6195170154
 20
-19.1060166733
  0
VERTEX
  8
0
 62
7
  6
CONTINUOUS
 10
5.4610093731
 20
-17.464444246
  0
VERTEX
  8
0
 62
7
  6
CONTINUOUS
 10
5.3158149711
 20
-15.9226354977
  0
VERTEX
  8
0
 62
7
  6
CONTINUOUS
 10
5.1810392994
 20
-14.4564908502
  0
VERTEX
  8
0
 62
7
  6
CONTINUOUS
 10
5.0553990143
 20
-13.0572807798
  0
VERTEX
  8
0
 62
7
  6
CONTINUOUS
 10
4.9377113069
 20
-11.7163072751
  0
VERTEX
  8
0
 62
7
  6
CONTINUOUS
 10
4.8268593312
 20
-10.424607394
  0
VERTEX
  8
0
 62
7
  6
CONTINUOUS
 10
4.721857544
 20
-9.1738046618
  0
VERTEX
  8
0
 62
7
  6
CONTINUOUS
 10
4.6220781516
 20
-7.959042674
  0
VERTEX
  8
0
 62
7
  6
CONTINUOUS
 10
4.5270309716
 20
-6.7766650847
  0
VERTEX
  8
0
 62
7
  6
CONTINUOUS
 10
4.4363137647
 20
-5.6237425262
  0
VERTEX
  8
0
 62
7
  6
CONTINUOUS
 10
4.3496008682
 20
-4.498063671
  0
VERTEX
  8
0
 62
7
  6
CONTINUOUS
 10
4.2665717015
 20
-3.3973494127
  0
VERTEX
  8
0
 62
7
  6
CONTINUOUS
 10
4.1869071007
 20
-2.3190964326
  0
VERTEX
  8
0
 62
7
  6
CONTINUOUS
 10
4.1103014651
 20
-1.2607132794
  0
VERTEX
  8
0
 62
7
  6
CONTINUOUS
 10
4.0365523252
 20
-0.2208050771
  0
VERTEX
  8
0
 62
7
  6
CONTINUOUS
 10
3.9656012973
 20
0.8000923905
  0
VERTEX
  8
0
 62
7
  6
CONTINUOUS
 10
3.8973710793
 20
1.8017255427
  0
VERTEX
  8
0
 62
7
  6
CONTINUOUS
 10
3.8315861885
 20
2.7868644934
  0
VERTEX
  8
0
 62
7
  6
CONTINUOUS
 10
3.7679778468
 20
3.7584431728
  0
VERTEX
  8
0
 62
7
  6
CONTINUOUS
 10
3.7064115695
 20
4.7175528425
  0
VERTEX
  8
0
 62
7
  6
CONTINUOUS
 10
3.6469133536
 20
5.6628246944
  0
VERTEX
  8
0
 62
7
  6
CONTINUOUS
 10
3.5895069965
 20
6.5928433358
  0
VERTEX
  8
0
 62
7
  6
CONTINUOUS
 10
3.5340657055
 20
7.5086236073
  0
VERTEX
  8
0
 62
7
  6
CONTINUOUS
 10
3.4804388475
 20
8.411697869
  0
VERTEX
  8
0
 62
7
  6
CONTINUOUS
 10
3.4284862916
 20
9.303565141
  0
VERTEX
  8
0
 62
7
  6
CONTINUOUS
 10
3.3780721921
 20
10.185790139
  0
VERTEX
  8
0
 62
7
  6
CONTINUOUS
 10
3.3290986193
 20
11.0593970741
  0
VERTEX
  8
0
 62
7
  6
CONTINUOUS
 10
3.2815911379
 20
11.9232396524
  0
VERTEX
  8
0
 62
7
  6
CONTINUOUS
 10
3.2355853748
 20
12.7759099376
  0
VERTEX
  8
0
 62
7
  6
CONTINUOUS
 10
3.1910636275
 20
13.6169268112
  0
VERTEX
  8
0
 62
7
  6
CONTINUOUS
 10
3.1479124802
 20
14.4476541271
  0
VERTEX
  8
0
 62
7
  6
CONTINUOUS
 10
3.1060189517
 20
15.2695737648
  0
VERTEX
  8
0
 62
7
  6
CONTINUOUS
 10
3.0653115361
 20
16.0834624993
  0
VERTEX
  8
0
 62
7
  6
CONTINUOUS
 10
3.0257240256
 20
16.890062851
  0
VERTEX
  8
0
 62
7
  6
CONTINUOUS
 10
2.9871960956
 20
17.6900644456
  0
VERTEX
  8
0
 62
7
  6
CONTINUOUS
 10
2.9497122983
 20
18.4832630414
  0
VERTEX
  8
0
 62
7
  6
CONTINUOUS
 10
2.9132761924
 20
19.2690356819
  0
VERTEX
  8
0
 62
7
  6
CONTINUOUS
 10
2.8779196341
 20
20.0460950659
  0
VERTEX
  8
0
 62
7
  6
CONTINUOUS
 10
2.8436824005
 20
20.8128891996
  0
VERTEX
  8
0
 62
7
  6
CONTINUOUS
 10
2.8105236715
 20
21.5696207253
  0
VERTEX
  8
0
 62
7
  6
CONTINUOUS
 10
2.7782895256
 20
22.3191818879
  0
VERTEX
  8
0
 62
7
  6
CONTINUOUS
 10
2.7468425521
 20
23.0643075417
  0
VERTEX
  8
0
 62
7
  6
CONTINUOUS
 10
2.7161407745
 20
23.8056263608
  0
VERTEX
  8
0
 62
7
  6
CONTINUOUS
 10
2.6861760557
 20
24.5429810467
  0
VERTEX
  8
0
 62
7
  6
CONTINUOUS
 10
2.657010827
 20
25.2744208918
  0
VERTEX
  8
0
 62
7
  6
CONTINUOUS
 10
2.6287914396
 20
25.995685483
  0
VERTEX
  8
0
 62
7
  6
CONTINUOUS
 10
2.6015854843
 20
26.7042699093
  0
VERTEX
  8
0
 62
7
  6
CONTINUOUS
 10
2.5751680573
 20
27.4053292202
  0
VERTEX
  8
0
 62
7
  6
CONTINUOUS
 10
2.5492523452
 20
28.1060978759
  0
VERTEX
  8
0
 62
7
  6
CONTINUOUS
 10
2.5238040442
 20
28.8073441179
  0
VERTEX
  8
0
 62
7
  6
CONTINUOUS
 10
2.499042471
 20
29.5027050544
  0
VERTEX
  8
0
 62
7
  6
CONTINUOUS
 10
2.4751163135
 20
30.1873704952
  0
VERTEX
  8
0
 62
7
  6
CONTINUOUS
 10
2.4519236247
 20
30.8635555924
  0
VERTEX
  8
0
 62
7
  6
CONTINUOUS
 10
2.4293232986
 20
31.5348400556
  0
VERTEX
  8
0
 62
7
  6
CONTINUOUS
 10
2.4072567359
 20
32.2025696181
  0
VERTEX
  8
0
 62
7
  6
CONTINUOUS
 10
2.3857536053
 20
32.8654537413
  0
VERTEX
  8
0
 62
7
  6
CONTINUOUS
 10
2.3648168376
 20
33.5229591439
  0
VERTEX
  8
0
 62
7
  6
CONTINUOUS
 10
2.344423755
 20
34.1753489352
  0
VERTEX
  8
0
 62
7
  6
CONTINUOUS
 10
2.3245538413
 20
34.8228453147
  0
VERTEX
  8
0
 62
7
  6
CONTINUOUS
 10
2.3052126788
 20
35.4648226816
  0
VERTEX
  8
0
 62
7
  6
CONTINUOUS
 10
2.2864157264
 20
36.1002817171
  0
VERTEX
  8
0
 62
7
  6
CONTINUOUS
 10
2.2681441106
 20
36.7293535211
  0
VERTEX
  8
0
 62
7
  6
CONTINUOUS
 10
2.2503103942
 20
37.3546181798
  0
VERTEX
  8
0
 62
7
  6
CONTINUOUS
 10
2.2328295511
 20
37.9787708358
  0
VERTEX
  8
0
 62
7
  6
CONTINUOUS
 10
2.2157441335
 20
38.6000303696
  0
VERTEX
  8
0
 62
7
  6
CONTINUOUS
 10
2.199185014
 20
39.213185961
  0
VERTEX
  8
0
 62
7
  6
CONTINUOUS
 10
2.183198684
 20
39.8158632004
  0
VERTEX
  8
0
 62
7
  6
CONTINUOUS
 10
2.1676247142
 20
40.4135480412
  0
VERTEX
  8
0
 62
7
  6
CONTINUOUS
 10
2.1522842309
 20
41.0128694699
  0
VERTEX
  8
0
 62
7
  6
CONTINUOUS
 10
2.1371914892
 20
41.6131937002
  0
VERTEX
  8
0
 62
7
  6
CONTINUOUS
 10
2.122521622
 20
42.2072641378
  0
VERTEX
  8
0
 62
7
  6
CONTINUOUS
 10
2.1083669302
 20
42.790744013
  0
VERTEX
  8
0
 62
7
  6
CONTINUOUS
 10
2.0946551788
 20
43.3659671998
  0
VERTEX
  8
0
 62
7
  6
CONTINUOUS
 10
2.0812880065
 20
43.936581375
  0
VERTEX
  8
0
 62
7
  6
CONTINUOUS
 10
2.068161041
 20
44.5067700593
  0
VERTEX
  8
0
 62
7
  6
CONTINUOUS
 10
2.0551843086
 20
45.0803772587
  0
VERTEX
  8
0
 62
7
  6
CONTINUOUS
 10
2.0423632602
 20
45.6571901352
  0
VERTEX
  8
0
 62
7
  6
CONTINUOUS
 10
2.029969526
 20
46.2246786803
  0
VERTEX
  8
0
 62
7
  6
CONTINUOUS
 10
2.0182756591
 20
46.769384627
  0
VERTEX
  8
0
 62
7
  6
CONTINUOUS
 10
2.0071020366
 20
47.2985698801
  0
VERTEX
  8
0
 62
7
  6
CONTINUOUS
 10
1.9959729575
 20
47.8344141382
  0
VERTEX
  8
0
 62
7
  6
CONTINUOUS
 10
1.9846336295
 20
48.3897077794
  0
VERTEX
  8
0
 62
7
  6
CONTINUOUS
 10
1.973423977
 20
48.9482436128
  0
VERTEX
  8
0
 62
7
  6
CONTINUOUS
 10
1.9627219479
 20
49.4907125614
  0
VERTEX
  8
0
 62
7
  6
CONTINUOUS
 10
1.9525933012
 20
50.0127160581
  0
VERTEX
  8
0
 62
7
  6
CONTINUOUS
 10
1.9429039018
 20
50.5201776151
  0
VERTEX
  8
0
 62
7
  6
CONTINUOUS
 10
1.9334831319
 20
51.0214139528
  0
VERTEX
  8
0
 62
7
  6
CONTINUOUS
 10
1.9240635181
 20
51.5305754369
  0
VERTEX
  8
0
 62
7
  6
CONTINUOUS
 10
1.914421934
 20
52.060280509
  0
VERTEX
  8
0
 62
7
  6
CONTINUOUS
 10
1.904751288
 20
52.6005600021
  0
VERTEX
  8
0
 62
7
  6
CONTINUOUS
 10
1.8955359312
 20
53.1240531372
  0
VERTEX
  8
0
 62
7
  6
CONTINUOUS
 10
1.8870102869
 20
53.6161297343
  0
VERTEX
  8
0
 62
7
  6
CONTINUOUS
 10
1.8789458179
 20
54.0886692112
  0
VERTEX
  8
0
 62
7
  6
CONTINUOUS
 10
1.8710772967
 20
54.5565584356
  0
VERTEX
  8
0
 62
7
  6
CONTINUOUS
 10
1.8631929635
 20
55.0323516533
  0
VERTEX
  8
0
 62
7
  6
CONTINUOUS
 10
1.8551196115
 20
55.5269852266
  0
VERTEX
  8
0
 62
7
  6
CONTINUOUS
 10
1.846840038
 20
56.0422981376
  0
VERTEX
  8
0
 62
7
  6
CONTINUOUS
 10
1.8386626281
 20
56.5594896882
  0
VERTEX
  8
0
 62
7
  6
CONTINUOUS
 10
1.8309050874
 20
57.0579180368
  0
VERTEX
  8
0
 62
7
  6
CONTINUOUS
 10
1.82368677
 20
57.5287090261
  0
VERTEX
  8
0
 62
7
  6
CONTINUOUS
 10
1.8170266384
 20
57.9692458687
  0
VERTEX
  8
0
 62
7
  6
CONTINUOUS
 10
1.8108111754
 20
58.3858271362
  0
VERTEX
  8
0
 62
7
  6
CONTINUOUS
 10
1.8047333752
 20
58.798394593
  0
VERTEX
  8
0
 62
7
  6
CONTINUOUS
 10
1.7984973002
 20
59.2271840373
  0
VERTEX
  8
0
 62
7
  6
CONTINUOUS
 10
1.7919984332
 20
59.680083269
  0
VERTEX
  8
0
 62
7
  6
CONTINUOUS
 10
1.7852901375
 20
60.1542015997
  0
VERTEX
  8
0
 62
7
  6
CONTINUOUS
 10
1.7784993526
 20
60.641176078
  0
VERTEX
  8
0
 62
7
  6
CONTINUOUS
 10
1.7719502271
 20
61.1176847131
  0
VERTEX
  8
0
 62
7
  6
CONTINUOUS
 10
1.7659073609
 20
61.5634800275
  0
VERTEX
  8
0
 62
7
  6
CONTINUOUS
 10
1.7602787159
 20
61.9841206562
  0
VERTEX
  8
0
 62
7
  6
CONTINUOUS
 10
1.7548791097
 20
62.3926438803
  0
VERTEX
  8
0
 62
7
  6
CONTINUOUS
 10
1.749627671
 20
62.7947443081
  0
VERTEX
  8
0
 62
7
  6
CONTINUOUS
 10
1.7445307169
 20
63.189614324
  0
VERTEX
  8
0
 62
7
  6
CONTINUOUS
 10
1.7395789551
 20
63.5776513393
  0
VERTEX
  8
0
 62
7
  6
CONTINUOUS
 10
1.7346920838
 20
63.9649425826
  0
VERTEX
  8
0
 62
7
  6
CONTINUOUS
 10
1.7297772377
 20
64.3588706472
  0
VERTEX
  8
0
 62
7
  6
CONTINUOUS
 10
1.7247758211
 20
64.7643616366
  0
VERTEX
  8
0
 62
7
  6
CONTINUOUS
 10
1.7196642591
 20
65.183680232
  0
VERTEX
  8
0
 62
7
  6
CONTINUOUS
 10
1.714427971
 20
65.6184462739
  0
VERTEX
  8
0
 62
7
  6
CONTINUOUS
 10
1.7090801198
 20
66.0680101089
  0
VERTEX
  8
0
 62
7
  6
CONTINUOUS
 10
1.7036365248
 20
66.5314560836
  0
VERTEX
  8
0
 62
7
  6
CONTINUOUS
 10
1.6980606493
 20
67.0123578708
  0
VERTEX
  8
0
 62
7
  6
CONTINUOUS
 10
1.6922798114
 20
67.5176525246
  0
VERTEX
  8
0
 62
7
  6
CONTINUOUS
 10
1.6863604015
 20
68.0422441488
  0
VERTEX
  8
0
 62
7
  6
CONTINUOUS
 10
1.6805654782
 20
68.5629381792
  0
VERTEX
  8
0
 62
7
  6
CONTINUOUS
 10
1.6751012003
 20
69.0604643615
  0
VERTEX
  8
0
 62
7
  6
CONTINUOUS
 10
1.6699193234
 20
69.5382017483
  0
VERTEX
  8
0
 62
7
  6
CONTINUOUS
 10
1.6649242609
 20
70.0042191526
  0
VERTEX
  8
0
 62
7
  6
CONTINUOUS
 10
1.6599042246
 20
70.4780450294
  0
VERTEX
  8
0
 62
7
  6
CONTINUOUS
 10
1.6545233083
 20
70.9920635892
  0
VERTEX
  8
0
 62
7
  6
CONTINUOUS
 10
1.6484930136
 20
71.5756805587
  0
VERTEX
  8
0
 62
7
  6
CONTINUOUS
 10
1.641896082
 20
72.2233121851
  0
VERTEX
  8
0
 62
7
  6
CONTINUOUS
 10
1.6349992291
 20
72.9106268398
  0
VERTEX
  8
0
 62
7
  6
CONTINUOUS
 10
1.6279156942
 20
73.6273869781
  0
VERTEX
  8
0
 62
7
  6
CONTINUOUS
 10
1.6206356946
 20
74.3753621832
  0
VERTEX
  8
0
 62
7
  6
CONTINUOUS
 10
1.613123498
 20
75.1590514259
  0
VERTEX
  8
0
 62
7
  6
CONTINUOUS
 10
1.6053391078
 20
75.9835506404
  0
VERTEX
  8
0
 62
7
  6
CONTINUOUS
 10
1.5972835876
 20
76.8496435604
  0
VERTEX
  8
0
 62
7
  6
CONTINUOUS
 10
1.5889907806
 20
77.7543362623
  0
VERTEX
  8
0
 62
7
  6
CONTINUOUS
 10
1.5804921167
 20
78.6944722475
  0
VERTEX
  8
0
 62
7
  6
CONTINUOUS
 10
1.5718250606
 20
79.6657623743
  0
VERTEX
  8
0
 62
7
  6
CONTINUOUS
 10
1.5632018775
 20
80.6434883031
  0
VERTEX
  8
0
 62
7
  6
CONTINUOUS
 10
1.5549547938
 20
81.5878981731
  0
VERTEX
  8
0
 62
7
  6
CONTINUOUS
 10
1.5473809938
 20
82.4620782359
  0
VERTEX
  8
0
 62
7
  6
CONTINUOUS
 10
1.5406062869
 20
83.2486522312
  0
VERTEX
  8
0
 62
7
  6
CONTINUOUS
 10
1.5344181812
 20
83.9701808593
  0
VERTEX
  8
0
 62
7
  6
CONTINUOUS
 10
1.5285708952
 20
84.6540208133
  0
VERTEX
  8
0
 62
7
  6
CONTINUOUS
 10
1.5228259061
 20
85.327251365
  0
VERTEX
  8
0
 62
7
  6
CONTINUOUS
 10
1.5170784668
 20
86.0015333087
  0
VERTEX
  8
0
 62
7
  6
CONTINUOUS
 10
1.5114469112
 20
86.6624004843
  0
VERTEX
  8
0
 62
7
  6
CONTINUOUS
 10
1.5060204661
 20
87.2988500935
  0
VERTEX
  8
0
 62
7
  6
CONTINUOUS
 10
1.5008806321
 20
87.9009210044
  0
VERTEX
  8
0
 62
7
  6
CONTINUOUS
 10
1.496064994
 20
88.4639714184
  0
VERTEX
  8
0
 62
7
  6
CONTINUOUS
 10
1.4915670136
 20
88.9886688103
  0
VERTEX
  8
0
 62
7
  6
CONTINUOUS
 10
1.4873783785
 20
89.4759906693
  0
VERTEX
  8
0
 62
7
  6
CONTINUOUS
 10
1.4834897353
 20
89.9271112269
  0
VERTEX
  8
0
 62
7
  6
CONTINUOUS
 10
1.4798511143
 20
90.3479476609
  0
VERTEX
  8
0
 62
7
  6
CONTINUOUS
 10
1.472900502
 20
91.1479388222
  0
SEQEND
  0
POLYLINE
  8
0
 62
7
  6
CONTINUOUS
 66
1
 70
0
  0
VERTEX
  8
0
 62
7
  6
CONTINUOUS
 10
-0.2086770769
 20
191.6558154365
  0
VERTEX
  8
0
 62
7
  6
CONTINUOUS
 10
-0.2327915848
 20
192.685917867
  0
VERTEX
  8
0
 62
7
  6
CONTINUOUS
 10
-0.2574133522
 20
193.7369971213
  0
VERTEX
  8
0
 62
7
  6
CONTINUOUS
 10
-0.282467559
 20
194.8060555536
  0
SEQEND
  0
POLYLINE
  8
0
 62
7
  6
CONTINUOUS
 66
1
 70
0
  0
VERTEX
  8
0
 62
7
  6
CONTINUOUS
 10
-0.0887577058
 20
186.5156233201
  0
VERTEX
  8
0
 62
7
  6
CONTINUOUS
 10
-0.1051731073
 20
187.2215558065
  0
VERTEX
  8
0
 62
7
  6
CONTINUOUS
 10
-0.1230809449
 20
187.9906924873
  0
VERTEX
  8
0
 62
7
  6
CONTINUOUS
 10
-0.1424445422
 20
188.8213124554
  0
VERTEX
  8
0
 62
7
  6
CONTINUOUS
 10
-0.2086770769
 20
191.6558154365
  0
SEQEND
  0
POLYLINE
  8
0
 62
7
  6
CONTINUOUS
 66
1
 70
0
  0
VERTEX
  8
0
 62
7
  6
CONTINUOUS
 10
-0.282467559
 20
194.8060555536
  0
VERTEX
  8
0
 62
7
  6
CONTINUOUS
 10
-0.486897526
 20
203.5413955554
  0
VERTEX
  8
0
 62
7
  6
CONTINUOUS
 10
-0.507749764
 20
204.4365784953
  0
VERTEX
  8
0
 62
7
  6
CONTINUOUS
 10
-0.5296311082
 20
205.3772846902
  0
VERTEX
  8
0
 62
7
  6
CONTINUOUS
 10
-0.5523898052
 20
206.3573086783
  0
VERTEX
  8
0
 62
7
  6
CONTINUOUS
 10
-0.5753319217
 20
207.347031772
  0
VERTEX
  8
0
 62
7
  6
CONTINUOUS
 10
-0.5974217563
 20
208.3018412188
  0
SEQEND
  0
POLYLINE
  8
0
 62
7
  6
CONTINUOUS
 66
1
 70
0
  0
VERTEX
  8
0
 62
7
  6
CONTINUOUS
 10
-0.0074330528
 20
183.0031021001
  0
VERTEX
  8
0
 62
7
  6
CONTINUOUS
 10
-0.0211816377
 20
183.5989239815
  0
VERTEX
  8
0
 62
7
  6
CONTINUOUS
 10
-0.0342420588
 20
184.1641128075
  0
VERTEX
  8
0
 62
7
  6
CONTINUOUS
 10
-0.047063259
 20
184.7182203072
  0
VERTEX
  8
0
 62
7
  6
CONTINUOUS
 10
-0.0887577058
 20
186.5156233201
  0
SEQEND
  0
LINE
  8
0
 62
7
  6
CONTINUOUS
 10
-0.5974217563
 20
208.3018412188
 11
-0.6660711947
 21
211.2823153664
  0
LINE
  8
0
 62
7
  6
CONTINUOUS
 10
0.0382328947
 20
181.0172089275
 11
-0.0074330528
 21
183.0031021001
  0
LINE
  8
0
 62
7
  6
CONTINUOUS
 10
-0.6660711947
 20
211.2823153664
 11
-0.7283503309
 21
214.0063358843
  0
POLYLINE
  8
0
 62
7
  6
CONTINUOUS
 66
1
 70
0
  0
VERTEX
  8
0
 62
7
  6
CONTINUOUS
 10
0.0957502866
 20
178.4987305285
  0
VERTEX
  8
0
 62
7
  6
CONTINUOUS
 10
0.0822798059
 20
179.090445192
  0
VERTEX
  8
0
 62
7
  6
CONTINUOUS
 10
0.0382328947
 20
181.0172089275
  0
SEQEND
  0
LINE
  8
0
 62
7
  6
CONTINUOUS
 10
-0.7283503309
 20
214.0063358843
 11
-0.7805619437
 21
216.3074161247
  0
POLYLINE
  8
0
 62
7
  6
CONTINUOUS
 66
1
 70
0
  0
VERTEX
  8
0
 62
7
  6
CONTINUOUS
 10
0.1467465674
 20
176.2469373691
  0
VERTEX
  8
0
 62
7
  6
CONTINUOUS
 10
0.1345089912
 20
176.7890741316
  0
VERTEX
  8
0
 62
7
  6
CONTINUOUS
 10
0.0957502866
 20
178.4987305285
  0
SEQEND
  0
LINE
  8
0
 62
7
  6
CONTINUOUS
 10
-0.7805619437
 20
216.3074161247
 11
-0.833530139
 21
218.6604778298
  0
LINE
  8
0
 62
7
  6
CONTINUOUS
 10
0.1816752341
 20
174.6928827852
 11
0.1467465674
 21
176.2469373691
  0
LINE
  8
0
 62
7
  6
CONTINUOUS
 10
-0.833530139
 20
218.6604778298
 11
-0.8715799775
 21
220.3637648952
  0
POLYLINE
  8
0
 62
7
  6
CONTINUOUS
 66
1
 70
0
  0
VERTEX
  8
0
 62
7
  6
CONTINUOUS
 10
0.2246483524
 20
172.7661731393
  0
VERTEX
  8
0
 62
7
  6
CONTINUOUS
 10
0.2140929825
 20
173.2410242898
  0
VERTEX
  8
0
 62
7
  6
CONTINUOUS
 10
0.1816752341
 20
174.6928827852
  0
SEQEND
  0
LINE
  8
0
 62
7
  6
CONTINUOUS
 10
-0.8715799775
 20
220.3637648952
 11
-0.9206844167
 21
222.5796994223
  0
LINE
  8
0
 62
7
  6
CONTINUOUS
 10
0.2566897615
 20
171.3179289442
 11
0.2246483524
 21
172.7661731393
  0
LINE
  8
0
 62
7
  6
CONTINUOUS
 10
-0.9206844167
 20
222.5796994223
 11
-0.9532635173
 21
224.0619687199
  0
LINE
  8
0
 62
7
  6
CONTINUOUS
 10
0.290006538
 20
169.8004463023
 11
0.2566897615
 21
171.3179289442
  0
LINE
  8
0
 62
7
  6
CONTINUOUS
 10
-0.9532635173
 20
224.0619687199
 11
-0.9933774478
 21
225.9014859415
  0
POLYLINE
  8
0
 62
7
  6
CONTINUOUS
 66
1
 70
0
  0
VERTEX
  8
0
 62
7
  6
CONTINUOUS
 10
-0.9933774478
 20
225.9014859415
  0
VERTEX
  8
0
 62
7
  6
CONTINUOUS
 10
-1.0270393479
 20
227.4583785322
  0
VERTEX
  8
0
 62
7
  6
CONTINUOUS
 10
-1.0399840165
 20
228.0604996929
  0
VERTEX
  8
0
 62
7
  6
CONTINUOUS
 10
-1.0541265694
 20
228.7206048473
  0
VERTEX
  8
0
 62
7
  6
CONTINUOUS
 10
-1.0689452023
 20
229.4148780046
  0
VERTEX
  8
0
 62
7
  6
CONTINUOUS
 10
-1.083899704
 20
230.1183105861
  0
VERTEX
  8
0
 62
7
  6
CONTINUOUS
 10
-1.0984659426
 20
230.8062626766
  0
VERTEX
  8
0
 62
7
  6
CONTINUOUS
 10
-1.1123900342
 20
231.466532632
  0
VERTEX
  8
0
 62
7
  6
CONTINUOUS
 10
-1.1257451483
 20
232.1023239762
  0
VERTEX
  8
0
 62
7
  6
CONTINUOUS
 10
-1.1385186641
 20
232.7127843952
  0
VERTEX
  8
0
 62
7
  6
CONTINUOUS
 10
-1.1508198023
 20
233.3029069963
  0
VERTEX
  8
0
 62
7
  6
CONTINUOUS
 10
-1.1627701632
 20
233.8783595417
  0
VERTEX
  8
0
 62
7
  6
CONTINUOUS
 10
-1.1746257216
 20
234.4514024231
  0
VERTEX
  8
0
 62
7
  6
CONTINUOUS
 10
-1.1867981974
 20
235.0420547831
  0
VERTEX
  8
0
 62
7
  6
CONTINUOUS
 10
-1.1996631372
 20
235.6688980808
  0
VERTEX
  8
0
 62
7
  6
CONTINUOUS
 10
-1.2132518761
 20
236.333979619
  0
VERTEX
  8
0
 62
7
  6
CONTINUOUS
 10
-1.2274216225
 20
237.0308446883
  0
VERTEX
  8
0
 62
7
  6
CONTINUOUS
 10
-1.2421403256
 20
237.7584378086
  0
VERTEX
  8
0
 62
7
  6
CONTINUOUS
 10
-1.2575404014
 20
238.5239115766
  0
VERTEX
  8
0
 62
7
  6
CONTINUOUS
 10
-1.2737809101
 20
239.3358806512
  0
VERTEX
  8
0
 62
7
  6
CONTINUOUS
 10
-1.2908818421
 20
240.1961026508
  0
VERTEX
  8
0
 62
7
  6
CONTINUOUS
 10
-1.3081992802
 20
241.0726770317
  0
VERTEX
  8
0
 62
7
  6
CONTINUOUS
 10
-1.3247523002
 20
241.915681475
  0
VERTEX
  8
0
 62
7
  6
CONTINUOUS
 10
-1.3395727193
 20
242.6746835507
  0
VERTEX
  8
0
 62
7
  6
CONTINUOUS
 10
-1.3522802673
 20
243.3286527714
  0
SEQEND
  0
POLYLINE
  8
0
 62
7
  6
CONTINUOUS
 66
1
 70
0
  0
VERTEX
  8
0
 62
7
  6
CONTINUOUS
 10
0.3628953991
 20
166.4342291105
  0
VERTEX
  8
0
 62
7
  6
CONTINUOUS
 10
0.350026468
 20
167.0335467665
  0
VERTEX
  8
0
 62
7
  6
CONTINUOUS
 10
0.3371568737
 20
167.6306700773
  0
VERTEX
  8
0
 62
7
  6
CONTINUOUS
 10
0.3246717731
 20
168.2078933015
  0
VERTEX
  8
0
 62
7
  6
CONTINUOUS
 10
0.312797943
 20
168.7550303683
  0
VERTEX
  8
0
 62
7
  6
CONTINUOUS
 10
0.290006538
 20
169.8004463023
  0
SEQEND
  0
LINE
  8
0
 62
7
  6
CONTINUOUS
 10
0.3976367364
 20
164.8046103163
 11
0.3628953991
 21
166.4342291105
  0
LINE
  8
0
 62
7
  6
CONTINUOUS
 10
0.4282183734
 20
163.3551201421
 11
0.3976367364
 21
164.8046103163
  0
LINE
  8
0
 62
7
  6
CONTINUOUS
 10
-1.3522802673
 20
243.3286527714
 11
-1.3732570687
 21
244.4145632924
  0
LINE
  8
0
 62
7
  6
CONTINUOUS
 10
-1.3732570687
 20
244.4145632924
 11
-1.4000966382
 21
245.8154765104
  0
LINE
  8
0
 62
7
  6
CONTINUOUS
 10
-1.4000966382
 20
245.8154765104
 11
-1.4243323773
 21
247.091459733
  0
LINE
  8
0
 62
7
  6
CONTINUOUS
 10
-1.4243323773
 20
247.091459733
 11
-1.451782465
 21
248.5490838989
  0
LINE
  8
0
 62
7
  6
CONTINUOUS
 10
-1.451782465
 20
248.5490838989
 11
-1.4827262344
 21
250.2077506122
  0
LINE
  8
0
 62
7
  6
CONTINUOUS
 10
-1.4827262344
 20
250.2077506122
 11
-1.5123074777
 21
251.8084194587
  0
LINE
  8
0
 62
7
  6
CONTINUOUS
 10
-1.5123074777
 20
251.8084194587
 11
-1.5405730705
 21
253.351259687
  0
LINE
  8
0
 62
7
  6
CONTINUOUS
 10
-1.5405730705
 20
253.351259687
 11
-1.576691619
 21
255.3411046754
  0
LINE
  8
0
 62
7
  6
CONTINUOUS
 10
-1.576691619
 20
255.3411046754
 11
-1.6139614118
 21
257.4150333492
  0
LINE
  8
0
 62
7
  6
CONTINUOUS
 10
-1.6139614118
 20
257.4150333492
 11
-1.6537802242
 21
259.6526555183
  0
LINE
  8
0
 62
7
  6
CONTINUOUS
 10
-1.6537802242
 20
259.6526555183
 11
-1.69302674
 21
261.8786327807
  0
POLYLINE
  8
0
 62
7
  6
CONTINUOUS
 66
1
 70
0
  0
VERTEX
  8
0
 62
7
  6
CONTINUOUS
 10
-2.9417412999
 20
335.2152191155
  0
VERTEX
  8
0
 62
7
  6
CONTINUOUS
 10
-2.9609162436
 20
336.3125017201
  0
VERTEX
  8
0
 62
7
  6
CONTINUOUS
 10
-2.9784886547
 20
337.3167159654
  0
VERTEX
  8
0
 62
7
  6
CONTINUOUS
 10
-2.9948808189
 20
338.2522989027
  0
VERTEX
  8
0
 62
7
  6
CONTINUOUS
 10
-3.0105146923
 20
339.1435317736
  0
VERTEX
  8
0
 62
7
  6
CONTINUOUS
 10
-3.0258223355
 20
340.0151491007
  0
VERTEX
  8
0
 62
7
  6
CONTINUOUS
 10
-3.0661601686
 20
342.3071218613
  0
SEQEND
  0
LINE
  8
0
 62
7
  6
CONTINUOUS
 10
-1.69302674
 20
261.8786327807
 11
-1.741689926
 21
264.6643041969
  0
POLYLINE
  8
0
 62
7
  6
CONTINUOUS
 66
1
 70
0
  0
VERTEX
  8
0
 62
7
  6
CONTINUOUS
 10
-2.7786589214
 20
325.8217707374
  0
VERTEX
  8
0
 62
7
  6
CONTINUOUS
 10
-2.7922931744
 20
326.6111793428
  0
VERTEX
  8
0
 62
7
  6
CONTINUOUS
 10
-2.8057057487
 20
327.3870417487
  0
VERTEX
  8
0
 62
7
  6
CONTINUOUS
 10
-2.820041349
 20
328.2155120246
  0
VERTEX
  8
0
 62
7
  6
CONTINUOUS
 10
-2.8366577686
 20
329.1747704563
  0
VERTEX
  8
0
 62
7
  6
CONTINUOUS
 10
-2.8558955471
 20
330.2839757963
  0
VERTEX
  8
0
 62
7
  6
CONTINUOUS
 10
-2.8769467
 20
331.4960205011
  0
VERTEX
  8
0
 62
7
  6
CONTINUOUS
 10
-2.9417412999
 20
335.2152191155
  0
SEQEND
  0
POLYLINE
  8
0
 62
7
  6
CONTINUOUS
 66
1
 70
0
  0
VERTEX
  8
0
 62
7
  6
CONTINUOUS
 10
-2.6383527721
 20
317.6571286281
  0
VERTEX
  8
0
 62
7
  6
CONTINUOUS
 10
-2.6567705229
 20
318.7330428648
  0
VERTEX
  8
0
 62
7
  6
CONTINUOUS
 10
-2.6760258276
 20
319.8565705209
  0
VERTEX
  8
0
 62
7
  6
CONTINUOUS
 10
-2.6955500863
 20
320.994402659
  0
VERTEX
  8
0
 62
7
  6
CONTINUOUS
 10
-2.7146597064
 20
322.1066999669
  0
VERTEX
  8
0
 62
7
  6
CONTINUOUS
 10
-2.7326691101
 20
323.1537026644
  0
VERTEX
  8
0
 62
7
  6
CONTINUOUS
 10
-2.7786589214
 20
325.8217707374
  0
SEQEND
  0
LINE
  8
0
 62
7
  6
CONTINUOUS
 10
-1.741689926
 20
264.6643041969
 11
-1.8014714116
 21
268.1200557914
  0
POLYLINE
  8
0
 62
7
  6
CONTINUOUS
 66
1
 70
0
  0
VERTEX
  8
0
 62
7
  6
CONTINUOUS
 10
-2.4351390826
 20
305.7089488685
  0
VERTEX
  8
0
 62
7
  6
CONTINUOUS
 10
-2.4484327157
 20
306.4946426625
  0
VERTEX
  8
0
 62
7
  6
CONTINUOUS
 10
-2.4612916581
 20
307.254129652
  0
VERTEX
  8
0
 62
7
  6
CONTINUOUS
 10
-2.4734728114
 20
307.9731113345
  0
VERTEX
  8
0
 62
7
  6
CONTINUOUS
 10
-2.4852039936
 20
308.6650937709
  0
VERTEX
  8
0
 62
7
  6
CONTINUOUS
 10
-2.4967706421
 20
309.3469435601
  0
VERTEX
  8
0
 62
7
  6
CONTINUOUS
 10
-2.5084714422
 20
310.0362652578
  0
VERTEX
  8
0
 62
7
  6
CONTINUOUS
 10
-2.5206111555
 20
310.7509757622
  0
VERTEX
  8
0
 62
7
  6
CONTINUOUS
 10
-2.5333434488
 20
311.5000555588
  0
VERTEX
  8
0
 62
7
  6
CONTINUOUS
 10
-2.5465755098
 20
312.2779701331
  0
VERTEX
  8
0
 62
7
  6
CONTINUOUS
 10
-2.5602128623
 20
313.079099386
  0
VERTEX
  8
0
 62
7
  6
CONTINUOUS
 10
-2.5743220832
 20
313.9072871661
  0
VERTEX
  8
0
 62
7
  6
CONTINUOUS
 10
-2.6383527721
 20
317.6571286281
  0
SEQEND
  0
LINE
  8
0
 62
7
  6
CONTINUOUS
 10
-1.8014714116
 20
268.1200557914
 11
-1.8746077298
 21
272.390604544
  0
POLYLINE
  8
0
 62
7
  6
CONTINUOUS
 66
1
 70
0
  0
VERTEX
  8
0
 62
7
  6
CONTINUOUS
 10
-2.1410129951
 20
288.2062172359
  0
VERTEX
  8
0
 62
7
  6
CONTINUOUS
 10
-2.1732775949
 20
290.13398537
  0
VERTEX
  8
0
 62
7
  6
CONTINUOUS
 10
-2.1839820845
 20
290.7735045986
  0
VERTEX
  8
0
 62
7
  6
CONTINUOUS
 10
-2.1947153265
 20
291.4146538786
  0
VERTEX
  8
0
 62
7
  6
CONTINUOUS
 10
-2.2055229897
 20
292.0601250117
  0
VERTEX
  8
0
 62
7
  6
CONTINUOUS
 10
-2.2164531045
 20
292.7127472271
  0
VERTEX
  8
0
 62
7
  6
CONTINUOUS
 10
-2.2275463964
 20
293.3749085365
  0
VERTEX
  8
0
 62
7
  6
CONTINUOUS
 10
-2.2387944554
 20
294.0460593558
  0
VERTEX
  8
0
 62
7
  6
CONTINUOUS
 10
-2.2501672079
 20
294.7243574422
  0
VERTEX
  8
0
 62
7
  6
CONTINUOUS
 10
-2.2616466123
 20
295.4086986137
  0
VERTEX
  8
0
 62
7
  6
CONTINUOUS
 10
-2.2732367841
 20
296.0993135571
  0
VERTEX
  8
0
 62
7
  6
CONTINUOUS
 10
-2.2849436065
 20
296.7965376528
  0
VERTEX
  8
0
 62
7
  6
CONTINUOUS
 10
-2.2967684935
 20
297.5004392406
  0
VERTEX
  8
0
 62
7
  6
CONTINUOUS
 10
-2.3087109862
 20
298.2109746997
  0
VERTEX
  8
0
 62
7
  6
CONTINUOUS
 10
-2.3207727041
 20
298.9282236272
  0
VERTEX
  8
0
 62
7
  6
CONTINUOUS
 10
-2.3329588693
 20
299.6524790762
  0
VERTEX
  8
0
 62
7
  6
CONTINUOUS
 10
-2.3452737205
 20
300.3839745908
  0
VERTEX
  8
0
 62
7
  6
CONTINUOUS
 10
-2.3577118062
 20
301.1223675943
  0
VERTEX
  8
0
 62
7
  6
CONTINUOUS
 10
-2.3702637531
 20
301.8670832236
  0
VERTEX
  8
0
 62
7
  6
CONTINUOUS
 10
-2.3829310544
 20
302.6181916538
  0
VERTEX
  8
0
 62
7
  6
CONTINUOUS
 10
-2.4351390826
 20
305.7089488685
  0
SEQEND
  0
POLYLINE
  8
0
 62
7
  6
CONTINUOUS
 66
1
 70
0
  0
VERTEX
  8
0
 62
7
  6
CONTINUOUS
 10
-1.8746077298
 20
272.390604544
  0
VERTEX
  8
0
 62
7
  6
CONTINUOUS
 10
-1.9663644138
 20
277.8027000274
  0
VERTEX
  8
0
 62
7
  6
CONTINUOUS
 10
-1.9767019171
 20
278.4154995013
  0
VERTEX
  8
0
 62
7
  6
CONTINUOUS
 10
-1.9873684744
 20
279.0483502808
  0
VERTEX
  8
0
 62
7
  6
CONTINUOUS
 10
-1.9983306636
 20
279.6992856445
  0
VERTEX
  8
0
 62
7
  6
CONTINUOUS
 10
-2.0095250406
 20
280.3645429607
  0
VERTEX
  8
0
 62
7
  6
CONTINUOUS
 10
-2.0208176479
 20
281.0361482691
  0
VERTEX
  8
0
 62
7
  6
CONTINUOUS
 10
-2.032032955
 20
281.7036263143
  0
VERTEX
  8
0
 62
7
  6
CONTINUOUS
 10
-2.0430844409
 20
282.3617761834
  0
VERTEX
  8
0
 62
7
  6
CONTINUOUS
 10
-2.0540469216
 20
283.0150032362
  0
VERTEX
  8
0
 62
7
  6
CONTINUOUS
 10
-2.0650025341
 20
283.6681613099
  0
VERTEX
  8
0
 62
7
  6
CONTINUOUS
 10
-2.0759574637
 20
284.3215831566
  0
VERTEX
  8
0
 62
7
  6
CONTINUOUS
 10
-2.086881485
 20
284.9734289676
  0
VERTEX
  8
0
 62
7
  6
CONTINUOUS
 10
-2.09775889
 20
285.6227231109
  0
VERTEX
  8
0
 62
7
  6
CONTINUOUS
 10
-2.1085998039
 20
286.2700320837
  0
VERTEX
  8
0
 62
7
  6
CONTINUOUS
 10
-2.1194165375
 20
286.9160542407
  0
VERTEX
  8
0
 62
7
  6
CONTINUOUS
 10
-2.1302183683
 20
287.5613077934
  0
VERTEX
  8
0
 62
7
  6
CONTINUOUS
 10
-2.1410129951
 20
288.2062172359
  0
SEQEND
  0
POLYLINE
  8
0
 62
7
  6
CONTINUOUS
 66
1
 70
0
  0
VERTEX
  8
0
 62
7
  6
CONTINUOUS
 10
1.3204069389
 20
107.0995454695
  0
VERTEX
  8
0
 62
7
  6
CONTINUOUS
 10
1.3138377503
 20
107.7188647957
  0
VERTEX
  8
0
 62
7
  6
CONTINUOUS
 10
1.3068632555
 20
108.3706174412
  0
VERTEX
  8
0
 62
7
  6
CONTINUOUS
 10
1.2996235731
 20
109.0409252107
  0
VERTEX
  8
0
 62
7
  6
CONTINUOUS
 10
1.2922631772
 20
109.715982967
  0
VERTEX
  8
0
 62
7
  6
CONTINUOUS
 10
1.2849252217
 20
110.3826106166
  0
VERTEX
  8
0
 62
7
  6
CONTINUOUS
 10
1.2777452619
 20
111.0288030853
  0
VERTEX
  8
0
 62
7
  6
CONTINUOUS
 10
1.2708065157
 20
111.6476418703
  0
VERTEX
  8
0
 62
7
  6
CONTINUOUS
 10
1.264167762
 20
112.2345959922
  0
VERTEX
  8
0
 62
7
  6
CONTINUOUS
 10
1.2578142708
 20
112.7916882109
  0
VERTEX
  8
0
 62
7
  6
CONTINUOUS
 10
1.2516996112
 20
113.3236030639
  0
VERTEX
  8
0
 62
7
  6
CONTINUOUS
 10
1.2457009643
 20
113.8414351181
  0
VERTEX
  8
0
 62
7
  6
CONTINUOUS
 10
1.2395535917
 20
114.3680523131
  0
VERTEX
  8
0
 62
7
  6
CONTINUOUS
 10
1.2329802303
 20
114.9266766768
  0
VERTEX
  8
0
 62
7
  6
CONTINUOUS
 10
1.2258230788
 20
115.5297096188
  0
VERTEX
  8
0
 62
7
  6
CONTINUOUS
 10
1.2180033307
 20
116.182455751
  0
VERTEX
  8
0
 62
7
  6
CONTINUOUS
 10
1.209440217
 20
116.8900423212
  0
VERTEX
  8
0
 62
7
  6
CONTINUOUS
 10
1.2000492077
 20
117.6575206308
  0
VERTEX
  8
0
 62
7
  6
CONTINUOUS
 10
1.1897790346
 20
118.4868391485
  0
VERTEX
  8
0
 62
7
  6
CONTINUOUS
 10
1.1786966585
 20
119.3702560971
  0
VERTEX
  8
0
 62
7
  6
CONTINUOUS
 10
1.1669336263
 20
120.2951784954
  0
VERTEX
  8
0
 62
7
  6
CONTINUOUS
 10
1.1546603154
 20
121.2465603258
  0
VERTEX
  8
0
 62
7
  6
CONTINUOUS
 10
1.141790054
 20
122.2296063847
  0
VERTEX
  8
0
 62
7
  6
CONTINUOUS
 10
1.127633799
 20
123.2940722988
  0
VERTEX
  8
0
 62
7
  6
CONTINUOUS
 10
1.1113469507
 20
124.4976151676
  0
VERTEX
  8
0
 62
7
  6
CONTINUOUS
 10
1.0920480717
 20
125.8954676151
  0
VERTEX
  8
0
 62
7
  6
CONTINUOUS
 10
1.0696928997
 20
127.4778806921
  0
VERTEX
  8
0
 62
7
  6
CONTINUOUS
 10
1.0449875605
 20
129.1828173926
  0
VERTEX
  8
0
 62
7
  6
CONTINUOUS
 10
1.0186623548
 20
130.9525162156
  0
VERTEX
  8
0
 62
7
  6
CONTINUOUS
 10
0.9916082792
 20
132.725197617
  0
VERTEX
  8
0
 62
7
  6
CONTINUOUS
 10
0.9650097996
 20
134.4265408289
  0
VERTEX
  8
0
 62
7
  6
CONTINUOUS
 10
0.9399160597
 20
135.997023834
  0
VERTEX
  8
0
 62
7
  6
CONTINUOUS
 10
0.9165693557
 20
137.4302532578
  0
VERTEX
  8
0
 62
7
  6
CONTINUOUS
 10
0.8948589944
 20
138.7405083575
  0
VERTEX
  8
0
 62
7
  6
CONTINUOUS
 10
0.8747347318
 20
139.9368278347
  0
VERTEX
  8
0
 62
7
  6
CONTINUOUS
 10
0.8560873899
 20
141.0305592539
  0
VERTEX
  8
0
 62
7
  6
CONTINUOUS
 10
0.8388822778
 20
142.0276974894
  0
VERTEX
  8
0
 62
7
  6
CONTINUOUS
 10
0.8229863482
 20
142.9391754259
  0
VERTEX
  8
0
 62
7
  6
CONTINUOUS
 10
0.8076162794
 20
143.8119244052
  0
VERTEX
  8
0
 62
7
  6
CONTINUOUS
 10
0.791744359
 20
144.7046609186
  0
VERTEX
  8
0
 62
7
  6
CONTINUOUS
 10
0.77500324
 20
145.6372769019
  0
VERTEX
  8
0
 62
7
  6
CONTINUOUS
 10
0.7580097448
 20
146.5748589282
  0
VERTEX
  8
0
 62
7
  6
CONTINUOUS
 10
0.7414341358
 20
147.4808986448
  0
VERTEX
  8
0
 62
7
  6
CONTINUOUS
 10
0.7259422139
 20
148.3204054161
  0
VERTEX
  8
0
 62
7
  6
CONTINUOUS
 10
0.712055298
 20
149.0671473281
  0
VERTEX
  8
0
 62
7
  6
CONTINUOUS
 10
0.6991639124
 20
149.7556082636
  0
VERTEX
  8
0
 62
7
  6
CONTINUOUS
 10
0.6861399259
 20
150.4466405908
  0
VERTEX
  8
0
 62
7
  6
CONTINUOUS
 10
0.6721874907
 20
151.1820470154
  0
VERTEX
  8
0
 62
7
  6
CONTINUOUS
 10
0.6573859964
 20
151.9568392509
  0
VERTEX
  8
0
 62
7
  6
CONTINUOUS
 10
0.6419884616
 20
152.7571456299
  0
VERTEX
  8
0
 62
7
  6
CONTINUOUS
 10
0.6266505497
 20
153.5487655737
  0
VERTEX
  8
0
 62
7
  6
CONTINUOUS
 10
0.6122480926
 20
154.2871804172
  0
VERTEX
  8
0
 62
7
  6
CONTINUOUS
 10
0.599035331
 20
154.9605229757
  0
VERTEX
  8
0
 62
7
  6
CONTINUOUS
 10
0.5867612093
 20
155.5826264221
  0
VERTEX
  8
0
 62
7
  6
CONTINUOUS
 10
0.5751381611
 20
156.1687798779
  0
VERTEX
  8
0
 62
7
  6
CONTINUOUS
 10
0.5638168313
 20
156.7370196982
  0
VERTEX
  8
0
 62
7
  6
CONTINUOUS
 10
0.5524286807
 20
157.3059854101
  0
VERTEX
  8
0
 62
7
  6
CONTINUOUS
 10
0.5405742588
 20
157.8955071281
  0
VERTEX
  8
0
 62
7
  6
CONTINUOUS
 10
0.5278209372
 20
158.5266802345
  0
VERTEX
  8
0
 62
7
  6
CONTINUOUS
 10
0.5139073386
 20
159.2117541955
  0
VERTEX
  8
0
 62
7
  6
CONTINUOUS
 10
0.4995927173
 20
159.9128325739
  0
VERTEX
  8
0
 62
7
  6
CONTINUOUS
 10
0.4860268046
 20
160.5738277146
  0
VERTEX
  8
0
 62
7
  6
CONTINUOUS
 10
0.4734166634
 20
161.1853449859
  0
VERTEX
  8
0
 62
7
  6
CONTINUOUS
 10
0.4614454128
 20
161.7633452839
  0
VERTEX
  8
0
 62
7
  6
CONTINUOUS
 10
0.4499259717
 20
162.3172494637
  0
VERTEX
  8
0
 62
7
  6
CONTINUOUS
 10
0.4282183734
 20
163.3551201421
  0
SEQEND
  0
LINE
  8
0
 62
7
  6
CONTINUOUS
 10
1.3264360438
 20
106.5264514947
 11
1.3204069389
 21
107.0995454695
  0
LINE
  8
0
 62
7
  6
CONTINUOUS
 10
1.3367602361
 20
105.5345450199
 11
1.3264360438
 21
106.5264514947
  0
POLYLINE
  8
0
 62
7
  6
CONTINUOUS
 66
1
 70
0
  0
VERTEX
  8
0
 62
7
  6
CONTINUOUS
 10
1.3767246709
 20
101.5663177096
  0
VERTEX
  8
0
 62
7
  6
CONTINUOUS
 10
1.3702910705
 20
102.2191728112
  0
VERTEX
  8
0
 62
7
  6
CONTINUOUS
 10
1.363620894
 20
102.8902946125
  0
VERTEX
  8
0
 62
7
  6
CONTINUOUS
 10
1.3571534147
 20
103.53547695
  0
VERTEX
  8
0
 62
7
  6
CONTINUOUS
 10
1.3512948672
 20
104.1152321313
  0
VERTEX
  8
0
 62
7
  6
CONTINUOUS
 10
1.3461717196
 20
104.6185895735
  0
VERTEX
  8
0
 62
7
  6
CONTINUOUS
 10
1.3367602361
 20
105.5345450199
  0
SEQEND
  0
POLYLINE
  8
0
 62
7
  6
CONTINUOUS
 66
1
 70
0
  0
VERTEX
  8
0
 62
7
  6
CONTINUOUS
 10
1.392115086
 20
99.9823282195
  0
VERTEX
  8
0
 62
7
  6
CONTINUOUS
 10
1.3875447619
 20
100.4559957931
  0
VERTEX
  8
0
 62
7
  6
CONTINUOUS
 10
1.3767246709
 20
101.5663177096
  0
SEQEND
  0
POLYLINE
  8
0
 62
7
  6
CONTINUOUS
 66
1
 70
0
  0
VERTEX
  8
0
 62
7
  6
CONTINUOUS
 10
1.4050456446
 20
98.6270792459
  0
VERTEX
  8
0
 62
7
  6
CONTINUOUS
 10
1.4006757586
 20
99.0875921697
  0
VERTEX
  8
0
 62
7
  6
CONTINUOUS
 10
1.392115086
 20
99.9823282195
  0
SEQEND
  0
POLYLINE
  8
0
 62
7
  6
CONTINUOUS
 66
1
 70
0
  0
VERTEX
  8
0
 62
7
  6
CONTINUOUS
 10
1.4200032254
 20
97.0313750944
  0
VERTEX
  8
0
 62
7
  6
CONTINUOUS
 10
1.4146979878
 20
97.6007924165
  0
VERTEX
  8
0
 62
7
  6
CONTINUOUS
 10
1.4050456446
 20
98.6270792459
  0
SEQEND
  0
POLYLINE
  8
0
 62
7
  6
CONTINUOUS
 66
1
 70
0
  0
VERTEX
  8
0
 62
7
  6
CONTINUOUS
 10
1.4358071451
 20
95.3126839497
  0
VERTEX
  8
0
 62
7
  6
CONTINUOUS
 10
1.4307584794
 20
95.865380213
  0
VERTEX
  8
0
 62
7
  6
CONTINUOUS
 10
1.4200032254
 20
97.0313750944
  0
SEQEND
  0
POLYLINE
  8
0
 62
7
  6
CONTINUOUS
 66
1
 70
0
  0
VERTEX
  8
0
 62
7
  6
CONTINUOUS
 10
1.4540830611
 20
93.2834404199
  0
VERTEX
  8
0
 62
7
  6
CONTINUOUS
 10
1.4497630598
 20
93.7671225183
  0
VERTEX
  8
0
 62
7
  6
CONTINUOUS
 10
1.4452814522
 20
94.2662771828
  0
VERTEX
  8
0
 62
7
  6
CONTINUOUS
 10
1.4358071451
 20
95.3126839497
  0
SEQEND
  0
POLYLINE
  8
0
 62
7
  6
CONTINUOUS
 66
1
 70
0
  0
VERTEX
  8
0
 62
7
  6
CONTINUOUS
 10
1.472900502
 20
91.1479388222
  0
VERTEX
  8
0
 62
7
  6
CONTINUOUS
 10
1.4694134873
 20
91.5471364364
  0
VERTEX
  8
0
 62
7
  6
CONTINUOUS
 10
1.4658348275
 20
91.9552051748
  0
VERTEX
  8
0
 62
7
  6
CONTINUOUS
 10
1.4621146861
 20
92.3776347311
  0
VERTEX
  8
0
 62
7
  6
CONTINUOUS
 10
1.4540830611
 20
93.2834404199
  0
SEQEND
  0
POLYLINE
  8
0
 62
7
  6
CONTINUOUS
 66
1
 70
0
  0
VERTEX
  8
0
 62
7
  6
CONTINUOUS
 10
375.1315689104
 20
342.3071204234
  0
VERTEX
  8
0
 62
7
  6
CONTINUOUS
 10
374.9866891813
 20
342.2204969959
  0
VERTEX
  8
0
 62
7
  6
CONTINUOUS
 10
374.6997880052
 20
342.0538006567
  0
VERTEX
  8
0
 62
7
  6
CONTINUOUS
 10
374.4101594145
 20
341.8918894554
  0
VERTEX
  8
0
 62
7
  6
CONTINUOUS
 10
374.1178832121
 20
341.734808061
  0
VERTEX
  8
0
 62
7
  6
CONTINUOUS
 10
373.8230786378
 20
341.5826202345
  0
VERTEX
  8
0
 62
7
  6
CONTINUOUS
 10
373.5257888142
 20
341.4353461933
  0
VERTEX
  8
0
 62
7
  6
CONTINUOUS
 10
373.2260956231
 20
341.2930265338
  0
VERTEX
  8
0
 62
7
  6
CONTINUOUS
 10
372.9241050132
 20
341.1557117182
  0
VERTEX
  8
0
 62
7
  6
CONTINUOUS
 10
372.6198771761
 20
341.0234275695
  0
VERTEX
  8
0
 62
7
  6
CONTINUOUS
 10
372.3134960069
 20
340.8962105586
  0
VERTEX
  8
0
 62
7
  6
CONTINUOUS
 10
372.0050555634
 20
340.7741002808
  0
VERTEX
  8
0
 62
7
  6
CONTINUOUS
 10
371.6946310173
 20
340.6571254476
  0
VERTEX
  8
0
 62
7
  6
CONTINUOUS
 10
371.3823075702
 20
340.5453182228
  0
VERTEX
  8
0
 62
7
  6
CONTINUOUS
 10
371.0681649042
 20
340.438708111
  0
VERTEX
  8
0
 62
7
  6
CONTINUOUS
 10
370.7522966745
 20
340.3373261034
  0
VERTEX
  8
0
 62
7
  6
CONTINUOUS
 10
370.4347910861
 20
340.2412003334
  0
VERTEX
  8
0
 62
7
  6
CONTINUOUS
 10
370.1157131751
 20
340.150351835
  0
VERTEX
  8
0
 62
7
  6
CONTINUOUS
 10
369.795169818
 20
340.0648111433
  0
VERTEX
  8
0
 62
7
  6
CONTINUOUS
 10
369.4732449395
 20
339.9846009523
  0
VERTEX
  8
0
 62
7
  6
CONTINUOUS
 10
369.1499966333
 20
339.9097373063
  0
VERTEX
  8
0
 62
7
  6
CONTINUOUS
 10
368.8255563375
 20
339.840250053
  0
VERTEX
  8
0
 62
7
  6
CONTINUOUS
 10
368.5000298949
 20
339.776161416
  0
SEQEND
  0
POLYLINE
  8
0
 62
7
  6
CONTINUOUS
 66
1
 70
0
  0
VERTEX
  8
0
 62
7
  6
CONTINUOUS
 10
3.5653877707
 20
339.7761597401
  0
VERTEX
  8
0
 62
7
  6
CONTINUOUS
 10
3.2398754217
 20
339.8402416723
  0
VERTEX
  8
0
 62
7
  6
CONTINUOUS
 10
2.915449171
 20
339.9097222967
  0
VERTEX
  8
0
 62
7
  6
CONTINUOUS
 10
2.5922148781
 20
339.9845794227
  0
VERTEX
  8
0
 62
7
  6
CONTINUOUS
 10
2.2703017918
 20
340.0647837852
  0
VERTEX
  8
0
 62
7
  6
CONTINUOUS
 10
1.9497702155
 20
340.1503187845
  0
VERTEX
  8
0
 62
7
  6
CONTINUOUS
 10
1.63070406
 20
340.2411616476
  0
VERTEX
  8
0
 62
7
  6
CONTINUOUS
 10
1.3132061915
 20
340.3372830128
  0
VERTEX
  8
0
 62
7
  6
CONTINUOUS
 10
0.9973456711
 20
340.4386606841
  0
VERTEX
  8
0
 62
7
  6
CONTINUOUS
 10
0.6832106935
 20
340.5452664857
  0
VERTEX
  8
0
 62
7
  6
CONTINUOUS
 10
0.3708915033
 20
340.6570706334
  0
VERTEX
  8
0
 62
7
  6
CONTINUOUS
 10
0.0604712105
 20
340.7740424474
  0
VERTEX
  8
0
 62
7
  6
CONTINUOUS
 10
-0.2479649954
 20
340.8961497249
  0
VERTEX
  8
0
 62
7
  6
CONTINUOUS
 10
-0.5543446731
 20
341.0233648711
  0
VERTEX
  8
0
 62
7
  6
CONTINUOUS
 10
-0.8585710227
 20
341.1556471929
  0
VERTEX
  8
0
 62
7
  6
CONTINUOUS
 10
-1.1605601622
 20
341.2929601867
  0
VERTEX
  8
0
 62
7
  6
CONTINUOUS
 10
-1.4602554413
 20
341.435279709
  0
VERTEX
  8
0
 62
7
  6
CONTINUOUS
 10
-1.757547342
 20
341.5825536741
  0
VERTEX
  8
0
 62
7
  6
CONTINUOUS
 10
-2.052353996
 20
341.7347414569
  0
VERTEX
  8
0
 62
7
  6
CONTINUOUS
 10
-2.34463424
 20
341.891823881
  0
VERTEX
  8
0
 62
7
  6
CONTINUOUS
 10
-2.6342668589
 20
342.0537361707
  0
VERTEX
  8
0
 62
7
  6
CONTINUOUS
 10
-2.921172055
 20
342.2204336473
  0
VERTEX
  8
0
 62
7
  6
CONTINUOUS
 10
-3.0661601686
 20
342.3071218613
  0
SEQEND
  0
POLYLINE
  8
0
 62
7
  6
CONTINUOUS
 66
1
 70
0
  0
VERTEX
  8
0
 62
7
  6
CONTINUOUS
 10
370.5555614322
 20
86.8500675362
  0
VERTEX
  8
0
 62
7
  6
CONTINUOUS
 10
370.544611377
 20
85.5651767511
  0
VERTEX
  8
0
 62
7
  6
CONTINUOUS
 10
370.5389248825
 20
84.8984637544
  0
VERTEX
  8
0
 62
7
  6
CONTINUOUS
 10
370.5331534645
 20
84.2229298401
  0
VERTEX
  8
0
 62
7
  6
CONTINUOUS
 10
370.5272351375
 20
83.5319893834
  0
SEQEND
  0
POLYLINE
  8
0
 62
7
  6
CONTINUOUS
 66
1
 70
0
  0
VERTEX
  8
0
 62
7
  6
CONTINUOUS
 10
370.5704669345
 20
88.5951108327
  0
VERTEX
  8
0
 62
7
  6
CONTINUOUS
 10
370.5657284342
 20
88.0413697479
  0
VERTEX
  8
0
 62
7
  6
CONTINUOUS
 10
370.560752285
 20
87.4587147852
  0
VERTEX
  8
0
 62
7
  6
CONTINUOUS
 10
370.5555614322
 20
86.8500675362
  0
SEQEND
  0
POLYLINE
  8
0
 62
7
  6
CONTINUOUS
 66
1
 70
0
  0
VERTEX
  8
0
 62
7
  6
CONTINUOUS
 10
370.5272351375
 20
83.5319893834
  0
VERTEX
  8
0
 62
7
  6
CONTINUOUS
 10
370.5143444583
 20
82.0361955704
  0
VERTEX
  8
0
 62
7
  6
CONTINUOUS
 10
370.50705205
 20
81.1973091434
  0
VERTEX
  8
0
 62
7
  6
CONTINUOUS
 10
370.4991440391
 20
80.2949979774
  0
VERTEX
  8
0
 62
7
  6
CONTINUOUS
 10
370.4908480922
 20
79.3578939548
  0
VERTEX
  8
0
 62
7
  6
CONTINUOUS
 10
370.4824407295
 20
78.4192787536
  0
VERTEX
  8
0
 62
7
  6
CONTINUOUS
 10
370.4741550851
 20
77.5061909269
  0
VERTEX
  8
0
 62
7
  6
CONTINUOUS
 10
370.4660255428
 20
76.622667114
  0
VERTEX
  8
0
 62
7
  6
CONTINUOUS
 10
370.4580294936
 20
75.7662609772
  0
VERTEX
  8
0
 62
7
  6
CONTINUOUS
 10
370.4501463111
 20
74.9346983125
  0
VERTEX
  8
0
 62
7
  6
CONTINUOUS
 10
370.4423859524
 20
74.1288435571
  0
VERTEX
  8
0
 62
7
  6
CONTINUOUS
 10
370.4348259852
 20
73.3562288849
  0
VERTEX
  8
0
 62
7
  6
CONTINUOUS
 10
370.4275789323
 20
72.6272750908
  0
VERTEX
  8
0
 62
7
  6
CONTINUOUS
 10
370.4207842927
 20
71.9542987264
  0
VERTEX
  8
0
 62
7
  6
CONTINUOUS
 10
370.4145419544
 20
71.3449866166
  0
VERTEX
  8
0
 62
7
  6
CONTINUOUS
 10
370.408819744
 20
70.7939818003
  0
VERTEX
  8
0
 62
7
  6
CONTINUOUS
 10
370.4035486571
 20
70.292779913
  0
VERTEX
  8
0
 62
7
  6
CONTINUOUS
 10
370.3985545022
 20
69.8235153569
  0
VERTEX
  8
0
 62
7
  6
CONTINUOUS
 10
370.3935776753
 20
69.3612737999
  0
VERTEX
  8
0
 62
7
  6
CONTINUOUS
 10
370.3883625804
 20
68.8826399196
  0
VERTEX
  8
0
 62
7
  6
CONTINUOUS
 10
370.38282616
 20
68.3808857173
  0
VERTEX
  8
0
 62
7
  6
CONTINUOUS
 10
370.377013148
 20
67.8610522992
  0
SEQEND
  0
POLYLINE
  8
0
 62
7
  6
CONTINUOUS
 66
1
 70
0
  0
VERTEX
  8
0
 62
7
  6
CONTINUOUS
 10
370.5934486542
 20
91.2557445311
  0
VERTEX
  8
0
 62
7
  6
CONTINUOUS
 10
370.590034808
 20
90.8638782907
  0
VERTEX
  8
0
 62
7
  6
CONTINUOUS
 10
370.5866022132
 20
90.4685125722
  0
VERTEX
  8
0
 62
7
  6
CONTINUOUS
 10
370.5830107989
 20
90.0535191185
  0
VERTEX
  8
0
 62
7
  6
CONTINUOUS
 10
370.5791332309
 20
89.6040657067
  0
VERTEX
  8
0
 62
7
  6
CONTINUOUS
 10
370.5704669345
 20
88.5951108327
  0
SEQEND
  0
POLYLINE
  8
0
 62
7
  6
CONTINUOUS
 66
1
 70
0
  0
VERTEX
  8
0
 62
7
  6
CONTINUOUS
 10
370.61249804
 20
93.4149436231
  0
VERTEX
  8
0
 62
7
  6
CONTINUOUS
 10
370.6083430475
 20
92.9480494591
  0
VERTEX
  8
0
 62
7
  6
CONTINUOUS
 10
370.6043724901
 20
92.4997512252
  0
VERTEX
  8
0
 62
7
  6
CONTINUOUS
 10
370.600582189
 20
92.06987275
  0
VERTEX
  8
0
 62
7
  6
CONTINUOUS
 10
370.5934486542
 20
91.2557445311
  0
SEQEND
  0
POLYLINE
  8
0
 62
7
  6
CONTINUOUS
 66
1
 70
0
  0
VERTEX
  8
0
 62
7
  6
CONTINUOUS
 10
370.6260144011
 20
94.9178998836
  0
VERTEX
  8
0
 62
7
  6
CONTINUOUS
 10
370.6213505455
 20
94.402053742
  0
VERTEX
  8
0
 62
7
  6
CONTINUOUS
 10
370.61249804
 20
93.4149436231
  0
SEQEND
  0
POLYLINE
  8
0
 62
7
  6
CONTINUOUS
 66
1
 70
0
  0
VERTEX
  8
0
 62
7
  6
CONTINUOUS
 10
370.6535490003
 20
97.9038669531
  0
VERTEX
  8
0
 62
7
  6
CONTINUOUS
 10
370.6476687461
 20
97.2747507282
  0
VERTEX
  8
0
 62
7
  6
CONTINUOUS
 10
370.6417580614
 20
96.6376894956
  0
VERTEX
  8
0
 62
7
  6
CONTINUOUS
 10
370.6361107097
 20
96.0246197139
  0
VERTEX
  8
0
 62
7
  6
CONTINUOUS
 10
370.6260144011
 20
94.9178998836
  0
SEQEND
  0
POLYLINE
  8
0
 62
7
  6
CONTINUOUS
 66
1
 70
0
  0
VERTEX
  8
0
 62
7
  6
CONTINUOUS
 10
370.6718139544
 20
99.8283723203
  0
VERTEX
  8
0
 62
7
  6
CONTINUOUS
 10
370.6677511929
 20
99.4041633183
  0
VERTEX
  8
0
 62
7
  6
CONTINUOUS
 10
370.6635583978
 20
98.9640596216
  0
VERTEX
  8
0
 62
7
  6
CONTINUOUS
 10
370.6535490003
 20
97.9038669531
  0
SEQEND
  0
POLYLINE
  8
0
 62
7
  6
CONTINUOUS
 66
1
 70
0
  0
VERTEX
  8
0
 62
7
  6
CONTINUOUS
 10
370.7128102506
 20
103.9866078733
  0
VERTEX
  8
0
 62
7
  6
CONTINUOUS
 10
370.7066294313
 20
103.3737901401
  0
VERTEX
  8
0
 62
7
  6
CONTINUOUS
 10
370.6998420377
 20
102.6951154213
  0
VERTEX
  8
0
 62
7
  6
CONTINUOUS
 10
370.6929975443
 20
102.0046307389
  0
VERTEX
  8
0
 62
7
  6
CONTINUOUS
 10
370.6865613523
 20
101.349712276
  0
VERTEX
  8
0
 62
7
  6
CONTINUOUS
 10
370.68088978
 20
100.7680559035
  0
VERTEX
  8
0
 62
7
  6
CONTINUOUS
 10
370.6718139544
 20
99.8283723203
  0
SEQEND
  0
LINE
  8
0
 62
7
  6
CONTINUOUS
 10
370.7230626258
 20
104.9922669387
 11
370.7128102506
 21
103.9866078733
  0
POLYLINE
  8
0
 62
7
  6
CONTINUOUS
 66
1
 70
0
  0
VERTEX
  8
0
 62
7
  6
CONTINUOUS
 10
370.377013148
 20
67.8610522992
  0
VERTEX
  8
0
 62
7
  6
CONTINUOUS
 10
370.3710578247
 20
67.3358258964
  0
VERTEX
  8
0
 62
7
  6
CONTINUOUS
 10
370.3652149947
 20
66.8276364738
  0
VERTEX
  8
0
 62
7
  6
CONTINUOUS
 10
370.3596767126
 20
66.3523486082
  0
VERTEX
  8
0
 62
7
  6
CONTINUOUS
 10
370.354350958
 20
65.9010995962
  0
VERTEX
  8
0
 62
7
  6
CONTINUOUS
 10
370.3490933073
 20
65.4611154412
  0
VERTEX
  8
0
 62
7
  6
CONTINUOUS
 10
370.3438897793
 20
65.0309533185
  0
VERTEX
  8
0
 62
7
  6
CONTINUOUS
 10
370.3388010908
 20
64.6152974423
  0
VERTEX
  8
0
 62
7
  6
CONTINUOUS
 10
370.3338475603
 20
64.2153673813
  0
VERTEX
  8
0
 62
7
  6
CONTINUOUS
 10
370.3289566745
 20
63.8249582505
  0
VERTEX
  8
0
 62
7
  6
CONTINUOUS
 10
370.3240410791
 20
63.4369732821
  0
VERTEX
  8
0
 62
7
  6
CONTINUOUS
 10
370.3190456553
 20
63.0471287472
  0
VERTEX
  8
0
 62
7
  6
CONTINUOUS
 10
370.3139433311
 20
62.6534848608
  0
VERTEX
  8
0
 62
7
  6
CONTINUOUS
 10
370.3086955196
 20
62.2533216756
  0
VERTEX
  8
0
 62
7
  6
CONTINUOUS
 10
370.3032025039
 20
61.839477238
  0
VERTEX
  8
0
 62
7
  6
CONTINUOUS
 10
370.2973402444
 20
61.4033629142
  0
VERTEX
  8
0
 62
7
  6
CONTINUOUS
 10
370.2910777512
 20
60.943670374
  0
VERTEX
  8
0
 62
7
  6
CONTINUOUS
 10
370.2845346907
 20
60.470067175
  0
VERTEX
  8
0
 62
7
  6
CONTINUOUS
 10
370.277859708
 20
59.993787341
  0
VERTEX
  8
0
 62
7
  6
CONTINUOUS
 10
370.2712385619
 20
59.5280398598
  0
VERTEX
  8
0
 62
7
  6
CONTINUOUS
 10
370.2648684954
 20
59.0860916443
  0
VERTEX
  8
0
 62
7
  6
CONTINUOUS
 10
370.2587184513
 20
58.6649857409
  0
VERTEX
  8
0
 62
7
  6
CONTINUOUS
 10
370.2526047394
 20
58.2516780432
  0
VERTEX
  8
0
 62
7
  6
CONTINUOUS
 10
370.2463173286
 20
57.8320283333
  0
VERTEX
  8
0
 62
7
  6
CONTINUOUS
 10
370.2395934677
 20
57.3891693389
  0
VERTEX
  8
0
 62
7
  6
CONTINUOUS
 10
370.2321651087
 20
56.9068508659
  0
VERTEX
  8
0
 62
7
  6
CONTINUOUS
 10
370.2240932407
 20
56.3907913005
  0
VERTEX
  8
0
 62
7
  6
CONTINUOUS
 10
370.2157696978
 20
55.8671625574
  0
VERTEX
  8
0
 62
7
  6
CONTINUOUS
 10
370.2075124105
 20
55.3559989813
  0
VERTEX
  8
0
 62
7
  6
CONTINUOUS
 10
370.1994872612
 20
54.8668920459
  0
VERTEX
  8
0
 62
7
  6
CONTINUOUS
 10
370.1917803279
 20
54.4041076912
  0
VERTEX
  8
0
 62
7
  6
CONTINUOUS
 10
370.1840550678
 20
53.9468457587
  0
VERTEX
  8
0
 62
7
  6
CONTINUOUS
 10
370.1758087805
 20
53.465856168
  0
VERTEX
  8
0
 62
7
  6
CONTINUOUS
 10
370.166804614
 20
52.9488029945
  0
VERTEX
  8
0
 62
7
  6
CONTINUOUS
 10
370.1573314673
 20
52.4137090388
  0
VERTEX
  8
0
 62
7
  6
CONTINUOUS
 10
370.1477244231
 20
51.8800594852
  0
VERTEX
  8
0
 62
7
  6
CONTINUOUS
 10
370.1381707847
 20
51.3580768316
  0
VERTEX
  8
0
 62
7
  6
CONTINUOUS
 10
370.1288157013
 20
50.8550778659
  0
VERTEX
  8
0
 62
7
  6
CONTINUOUS
 10
370.1195351861
 20
50.3637897458
  0
VERTEX
  8
0
 62
7
  6
CONTINUOUS
 10
370.109876668
 20
49.860379979
  0
VERTEX
  8
0
 62
7
  6
CONTINUOUS
 10
370.0994291274
 20
49.3246115774
  0
VERTEX
  8
0
 62
7
  6
CONTINUOUS
 10
370.0883621736
 20
48.766677431
  0
VERTEX
  8
0
 62
7
  6
CONTINUOUS
 10
370.0771115535
 20
48.2092497582
  0
VERTEX
  8
0
 62
7
  6
CONTINUOUS
 10
370.0658900877
 20
47.6627255485
  0
VERTEX
  8
0
 62
7
  6
CONTINUOUS
 10
370.0546380466
 20
47.1238625678
  0
VERTEX
  8
0
 62
7
  6
CONTINUOUS
 10
370.0432390311
 20
46.5869770822
  0
VERTEX
  8
0
 62
7
  6
CONTINUOUS
 10
370.0314831891
 20
46.0424573568
  0
VERTEX
  8
0
 62
7
  6
CONTINUOUS
 10
370.0191312068
 20
45.4800011668
  0
VERTEX
  8
0
 62
7
  6
CONTINUOUS
 10
370.0062064077
 20
44.9016887787
  0
VERTEX
  8
0
 62
7
  6
CONTINUOUS
 10
369.9930692593
 20
44.3241929212
  0
VERTEX
  8
0
 62
7
  6
CONTINUOUS
 10
369.9800134142
 20
43.7601909495
  0
VERTEX
  8
0
 62
7
  6
CONTINUOUS
 10
369.9667929026
 20
43.1987785249
  0
VERTEX
  8
0
 62
7
  6
CONTINUOUS
 10
369.9529992368
 20
42.6230487629
  0
VERTEX
  8
0
 62
7
  6
CONTINUOUS
 10
369.9385419311
 20
42.0301899409
  0
VERTEX
  8
0
 62
7
  6
CONTINUOUS
 10
369.9236825657
 20
41.4316834946
  0
VERTEX
  8
0
 62
7
  6
CONTINUOUS
 10
369.908638696
 20
40.8365038343
  0
VERTEX
  8
0
 62
7
  6
CONTINUOUS
 10
369.893340738
 20
40.2419397926
  0
VERTEX
  8
0
 62
7
  6
CONTINUOUS
 10
369.8776218011
 20
39.6417832416
  0
VERTEX
  8
0
 62
7
  6
CONTINUOUS
 10
369.8614070464
 20
39.0336850649
  0
VERTEX
  8
0
 62
7
  6
CONTINUOUS
 10
369.8447090928
 20
38.4186673871
  0
VERTEX
  8
0
 62
7
  6
CONTINUOUS
 10
369.8275514043
 20
37.7980838055
  0
VERTEX
  8
0
 62
7
  6
CONTINUOUS
 10
369.8099821438
 20
37.1740730266
  0
VERTEX
  8
0
 62
7
  6
CONTINUOUS
 10
369.7920444399
 20
36.5484556421
  0
VERTEX
  8
0
 62
7
  6
CONTINUOUS
 10
369.7736774279
 20
35.9193973613
  0
VERTEX
  8
0
 62
7
  6
CONTINUOUS
 10
369.7547453656
 20
35.2827029567
  0
VERTEX
  8
0
 62
7
  6
CONTINUOUS
 10
369.7351762152
 20
34.6365722153
  0
VERTEX
  8
0
 62
7
  6
CONTINUOUS
 10
369.7151005347
 20
33.9858590241
  0
VERTEX
  8
0
 62
7
  6
CONTINUOUS
 10
369.6946696614
 20
33.3357352819
  0
VERTEX
  8
0
 62
7
  6
CONTINUOUS
 10
369.6737952432
 20
32.6835841077
  0
VERTEX
  8
0
 62
7
  6
CONTINUOUS
 10
369.6522241893
 20
32.021970544
  0
VERTEX
  8
0
 62
7
  6
CONTINUOUS
 10
369.6298289161
 20
31.3477524074
  0
VERTEX
  8
0
 62
7
  6
CONTINUOUS
 10
369.6068308667
 20
30.6682582316
  0
VERTEX
  8
0
 62
7
  6
CONTINUOUS
 10
369.5834689544
 20
29.990799535
  0
VERTEX
  8
0
 62
7
  6
CONTINUOUS
 10
369.5596481432
 20
29.3127401459
  0
VERTEX
  8
0
 62
7
  6
CONTINUOUS
 10
369.5350684417
 20
28.6259595322
  0
VERTEX
  8
0
 62
7
  6
CONTINUOUS
 10
369.509561693
 20
27.9265191821
  0
VERTEX
  8
0
 62
7
  6
CONTINUOUS
 10
369.4832591996
 20
27.2187764139
  0
VERTEX
  8
0
 62
7
  6
CONTINUOUS
 10
369.456315227
 20
26.5073886587
  0
VERTEX
  8
0
 62
7
  6
CONTINUOUS
 10
369.42875022
 20
25.7932323136
  0
VERTEX
  8
0
 62
7
  6
CONTINUOUS
 10
369.4005283511
 20
25.075683913
  0
VERTEX
  8
0
 62
7
  6
CONTINUOUS
 10
369.3715627117
 20
24.3529045228
  0
VERTEX
  8
0
 62
7
  6
CONTINUOUS
 10
369.3416910003
 20
23.6213664367
  0
VERTEX
  8
0
 62
7
  6
CONTINUOUS
 10
369.3107667045
 20
22.8781878071
  0
VERTEX
  8
0
 62
7
  6
CONTINUOUS
 10
369.27885595
 20
22.1256850813
  0
VERTEX
  8
0
 62
7
  6
CONTINUOUS
 10
369.2461166114
 20
21.3681250461
  0
VERTEX
  8
0
 62
7
  6
CONTINUOUS
 10
369.2126111966
 20
20.6073255002
  0
VERTEX
  8
0
 62
7
  6
CONTINUOUS
 10
369.1782486192
 20
19.8415853402
  0
VERTEX
  8
0
 62
7
  6
CONTINUOUS
 10
369.1429230893
 20
19.0690149733
  0
VERTEX
  8
0
 62
7
  6
CONTINUOUS
 10
369.106528151
 20
18.2878576306
  0
VERTEX
  8
0
 62
7
  6
CONTINUOUS
 10
369.0689668953
 20
17.4966968704
  0
VERTEX
  8
0
 62
7
  6
CONTINUOUS
 10
369.0302036421
 20
16.6954899419
  0
VERTEX
  8
0
 62
7
  6
CONTINUOUS
 10
368.990261681
 20
15.8853993483
  0
VERTEX
  8
0
 62
7
  6
CONTINUOUS
 10
368.9491572489
 20
15.0673784839
  0
VERTEX
  8
0
 62
7
  6
CONTINUOUS
 10
368.9068735852
 20
14.2416854494
  0
VERTEX
  8
0
 62
7
  6
CONTINUOUS
 10
368.8633678167
 20
13.4080758607
  0
VERTEX
  8
0
 62
7
  6
CONTINUOUS
 10
368.8185643571
 20
12.565726383
  0
VERTEX
  8
0
 62
7
  6
CONTINUOUS
 10
368.7723824136
 20
11.7137928844
  0
VERTEX
  8
0
 62
7
  6
CONTINUOUS
 10
368.7247408476
 20
10.8515028642
  0
VERTEX
  8
0
 62
7
  6
CONTINUOUS
 10
368.6755673852
 20
9.9783142344
  0
VERTEX
  8
0
 62
7
  6
CONTINUOUS
 10
368.6248077967
 20
9.0940552859
  0
VERTEX
  8
0
 62
7
  6
CONTINUOUS
 10
368.5724093479
 20
8.1986118702
  0
VERTEX
  8
0
 62
7
  6
CONTINUOUS
 10
368.5183223738
 20
7.2919491171
  0
VERTEX
  8
0
 62
7
  6
CONTINUOUS
 10
368.4624846858
 20
6.3738507646
  0
VERTEX
  8
0
 62
7
  6
CONTINUOUS
 10
368.404773368
 20
5.4431672347
  0
VERTEX
  8
0
 62
7
  6
CONTINUOUS
 10
368.3450477056
 20
4.4985794204
  0
VERTEX
  8
0
 62
7
  6
CONTINUOUS
 10
368.2832146691
 20
3.5396264743
  0
VERTEX
  8
0
 62
7
  6
CONTINUOUS
 10
368.2191944095
 20
2.5661091022
  0
VERTEX
  8
0
 62
7
  6
CONTINUOUS
 10
368.1529119078
 20
1.5779433848
  0
VERTEX
  8
0
 62
7
  6
CONTINUOUS
 10
368.0842039269
 20
0.5738045485
  0
VERTEX
  8
0
 62
7
  6
CONTINUOUS
 10
368.0128523862
 20
-0.4482753521
  0
VERTEX
  8
0
 62
7
  6
CONTINUOUS
 10
367.93866691
 20
-1.4896881596
  0
VERTEX
  8
0
 62
7
  6
CONTINUOUS
 10
367.8614352178
 20
-2.5519716616
  0
VERTEX
  8
0
 62
7
  6
CONTINUOUS
 10
367.7809498477
 20
-3.6364291803
  0
VERTEX
  8
0
 62
7
  6
CONTINUOUS
 10
367.697055279
 20
-4.7435279181
  0
VERTEX
  8
0
 62
7
  6
CONTINUOUS
 10
367.6095941186
 20
-5.8736650937
  0
VERTEX
  8
0
 62
7
  6
CONTINUOUS
 10
367.5182501966
 20
-7.0291818847
  0
VERTEX
  8
0
 62
7
  6
CONTINUOUS
 10
367.4225668419
 20
-8.2140117834
  0
VERTEX
  8
0
 62
7
  6
CONTINUOUS
 10
367.3220248522
 20
-9.4324765216
  0
VERTEX
  8
0
 62
7
  6
CONTINUOUS
 10
367.2159683538
 20
-10.6900723232
  0
VERTEX
  8
0
 62
7
  6
CONTINUOUS
 10
367.1036806884
 20
-11.9924401667
  0
VERTEX
  8
0
 62
7
  6
CONTINUOUS
 10
366.9844549002
 20
-13.3445158927
  0
VERTEX
  8
0
 62
7
  6
CONTINUOUS
 10
366.857564992
 20
-14.7508764547
  0
VERTEX
  8
0
 62
7
  6
CONTINUOUS
 10
366.7214449153
 20
-16.2245192844
  0
VERTEX
  8
0
 62
7
  6
CONTINUOUS
 10
366.5732272927
 20
-17.7906128926
  0
VERTEX
  8
0
 62
7
  6
CONTINUOUS
 10
366.4101332311
 20
-19.4706488822
  0
VERTEX
  8
0
 62
7
  6
CONTINUOUS
 10
366.2307178806
 20
-21.2701916607
  0
VERTEX
  8
0
 62
7
  6
CONTINUOUS
 10
366.0339764642
 20
-23.189307787
  0
VERTEX
  8
0
 62
7
  6
CONTINUOUS
 10
365.8195978421
 20
-25.2208812081
  0
VERTEX
  8
0
 62
7
  6
CONTINUOUS
 10
365.5874596461
 20
-27.356243245
  0
VERTEX
  8
0
 62
7
  6
CONTINUOUS
 10
365.3375082521
 20
-29.5865638847
  0
VERTEX
  8
0
 62
7
  6
CONTINUOUS
 10
365.0731525145
 20
-31.8740753495
  0
VERTEX
  8
0
 62
7
  6
CONTINUOUS
 10
364.8055457477
 20
-34.1211179372
  0
VERTEX
  8
0
 62
7
  6
CONTINUOUS
 10
364.548105886
 20
-36.2227487142
  0
VERTEX
  8
0
 62
7
  6
CONTINUOUS
 10
364.3155377229
 20
-38.0743416114
  0
SEQEND
  0
POLYLINE
  8
0
 62
7
  6
CONTINUOUS
 66
1
 70
0
  0
VERTEX
  8
0
 62
7
  6
CONTINUOUS
 10
374.3125001939
 20
294.5409411817
  0
VERTEX
  8
0
 62
7
  6
CONTINUOUS
 10
374.3011740866
 20
293.8653432833
  0
VERTEX
  8
0
 62
7
  6
CONTINUOUS
 10
374.2899814629
 20
293.1974299154
  0
VERTEX
  8
0
 62
7
  6
CONTINUOUS
 10
374.2789507604
 20
292.5389467287
  0
VERTEX
  8
0
 62
7
  6
CONTINUOUS
 10
374.2680719666
 20
291.8893424706
  0
VERTEX
  8
0
 62
7
  6
CONTINUOUS
 10
374.2573013331
 20
291.2460469701
  0
VERTEX
  8
0
 62
7
  6
CONTINUOUS
 10
374.246593232
 20
290.6063732041
  0
VERTEX
  8
0
 62
7
  6
CONTINUOUS
 10
374.2359041263
 20
289.9677559626
  0
SEQEND
  0
POLYLINE
  8
0
 62
7
  6
CONTINUOUS
 66
1
 70
0
  0
VERTEX
  8
0
 62
7
  6
CONTINUOUS
 10
374.5352194899
 20
307.7570085376
  0
VERTEX
  8
0
 62
7
  6
CONTINUOUS
 10
374.5228702063
 20
307.0279590112
  0
VERTEX
  8
0
 62
7
  6
CONTINUOUS
 10
374.5099485375
 20
306.2646136284
  0
VERTEX
  8
0
 62
7
  6
CONTINUOUS
 10
374.4967229073
 20
305.4827838904
  0
VERTEX
  8
0
 62
7
  6
CONTINUOUS
 10
374.4834832181
 20
304.6995950706
  0
VERTEX
  8
0
 62
7
  6
CONTINUOUS
 10
374.4703669654
 20
303.923194088
  0
VERTEX
  8
0
 62
7
  6
CONTINUOUS
 10
374.4574337079
 20
303.1571311135
  0
VERTEX
  8
0
 62
7
  6
CONTINUOUS
 10
374.4446959789
 20
302.4021765937
  0
VERTEX
  8
0
 62
7
  6
CONTINUOUS
 10
374.4321019135
 20
301.6552816973
  0
VERTEX
  8
0
 62
7
  6
CONTINUOUS
 10
374.4196052506
 20
300.9137221586
  0
VERTEX
  8
0
 62
7
  6
CONTINUOUS
 10
374.4072124708
 20
300.1778993226
  0
VERTEX
  8
0
 62
7
  6
CONTINUOUS
 10
374.3949463517
 20
299.449183536
  0
VERTEX
  8
0
 62
7
  6
CONTINUOUS
 10
374.382813636
 20
298.7279943844
  0
VERTEX
  8
0
 62
7
  6
CONTINUOUS
 10
374.3708048246
 20
298.0137856248
  0
VERTEX
  8
0
 62
7
  6
CONTINUOUS
 10
374.3125001939
 20
294.5409411817
  0
SEQEND
  0
LINE
  8
0
 62
7
  6
CONTINUOUS
 10
374.2359041263
 20
289.9677559626
 11
374.0835130497
 21
280.8747315019
  0
POLYLINE
  8
0
 62
7
  6
CONTINUOUS
 66
1
 70
0
  0
VERTEX
  8
0
 62
7
  6
CONTINUOUS
 10
374.7156805681
 20
318.3535449728
  0
VERTEX
  8
0
 62
7
  6
CONTINUOUS
 10
374.697790058
 20
317.3080298583
  0
VERTEX
  8
0
 62
7
  6
CONTINUOUS
 10
374.6810048205
 20
316.3260691733
  0
VERTEX
  8
0
 62
7
  6
CONTINUOUS
 10
374.6651340729
 20
315.3966946259
  0
VERTEX
  8
0
 62
7
  6
CONTINUOUS
 10
374.649960025
 20
314.5072978501
  0
VERTEX
  8
0
 62
7
  6
CONTINUOUS
 10
374.6353795976
 20
313.6519480522
  0
VERTEX
  8
0
 62
7
  6
CONTINUOUS
 10
374.6213274743
 20
312.8269057732
  0
VERTEX
  8
0
 62
7
  6
CONTINUOUS
 10
374.6077902004
 20
312.0314628849
  0
VERTEX
  8
0
 62
7
  6
CONTINUOUS
 10
374.5948129164
 20
311.2683515103
  0
VERTEX
  8
0
 62
7
  6
CONTINUOUS
 10
374.5824170231
 20
310.5389096244
  0
VERTEX
  8
0
 62
7
  6
CONTINUOUS
 10
374.5352194899
 20
307.7570085376
  0
SEQEND
  0
LINE
  8
0
 62
7
  6
CONTINUOUS
 10
374.0835130497
 20
280.8747315019
 11
373.9582809635
 21
273.4635524498
  0
POLYLINE
  8
0
 62
7
  6
CONTINUOUS
 66
1
 70
0
  0
VERTEX
  8
0
 62
7
  6
CONTINUOUS
 10
374.873051674
 20
327.4990398127
  0
VERTEX
  8
0
 62
7
  6
CONTINUOUS
 10
374.8592948371
 20
326.7033588259
  0
VERTEX
  8
0
 62
7
  6
CONTINUOUS
 10
374.8453991274
 20
325.898891591
  0
VERTEX
  8
0
 62
7
  6
CONTINUOUS
 10
374.8303877579
 20
325.0289900236
  0
VERTEX
  8
0
 62
7
  6
CONTINUOUS
 10
374.8133156995
 20
324.0386144013
  0
VERTEX
  8
0
 62
7
  6
CONTINUOUS
 10
374.7941460662
 20
322.9252257659
  0
VERTEX
  8
0
 62
7
  6
CONTINUOUS
 10
374.774079045
 20
321.7582252836
  0
VERTEX
  8
0
 62
7
  6
CONTINUOUS
 10
374.7156805681
 20
318.3535449728
  0
SEQEND
  0
LINE
  8
0
 62
7
  6
CONTINUOUS
 10
373.9582809635
 20
273.4635524498
 11
373.8858828943
 21
269.2254079714
  0
POLYLINE
  8
0
 62
7
  6
CONTINUOUS
 66
1
 70
0
  0
VERTEX
  8
0
 62
7
  6
CONTINUOUS
 10
374.9929227141
 20
334.4000643332
  0
VERTEX
  8
0
 62
7
  6
CONTINUOUS
 10
374.9685011705
 20
332.9988689551
  0
VERTEX
  8
0
 62
7
  6
CONTINUOUS
 10
374.9447668941
 20
331.6347460417
  0
VERTEX
  8
0
 62
7
  6
CONTINUOUS
 10
374.9230696226
 20
330.385684574
  0
VERTEX
  8
0
 62
7
  6
CONTINUOUS
 10
374.873051674
 20
327.4990398127
  0
SEQEND
  0
LINE
  8
0
 62
7
  6
CONTINUOUS
 10
373.8858828943
 20
269.2254079714
 11
373.8147895772
 21
265.1069324903
  0
POLYLINE
  8
0
 62
7
  6
CONTINUOUS
 66
1
 70
0
  0
VERTEX
  8
0
 62
7
  6
CONTINUOUS
 10
375.1315689104
 20
342.3071204234
  0
VERTEX
  8
0
 62
7
  6
CONTINUOUS
 10
375.1310745545
 20
342.2790743376
  0
VERTEX
  8
0
 62
7
  6
CONTINUOUS
 10
375.1152583581
 20
341.3812168751
  0
VERTEX
  8
0
 62
7
  6
CONTINUOUS
 10
375.1006638785
 20
340.5517474371
  0
VERTEX
  8
0
 62
7
  6
CONTINUOUS
 10
375.086434195
 20
339.742121861
  0
VERTEX
  8
0
 62
7
  6
CONTINUOUS
 10
375.0716851627
 20
338.9020247901
  0
VERTEX
  8
0
 62
7
  6
CONTINUOUS
 10
375.0555127087
 20
337.9797769366
  0
VERTEX
  8
0
 62
7
  6
CONTINUOUS
 10
374.9929227141
 20
334.4000643332
  0
SEQEND
  0
LINE
  8
0
 62
7
  6
CONTINUOUS
 10
373.8147895772
 20
265.1069324903
 11
373.7662894023
 21
262.3263808817
  0
LINE
  8
0
 62
7
  6
CONTINUOUS
 10
373.7662894023
 20
262.3263808817
 11
373.7173410277
 21
259.5483318127
  0
LINE
  8
0
 62
7
  6
CONTINUOUS
 10
373.7173410277
 20
259.5483318127
 11
373.6775700152
 21
257.3143954144
  0
LINE
  8
0
 62
7
  6
CONTINUOUS
 10
373.6775700152
 20
257.3143954144
 11
373.6405362164
 21
255.2545156023
  0
LINE
  8
0
 62
7
  6
CONTINUOUS
 10
373.6405362164
 20
255.2545156023
 11
373.6044118599
 21
253.265228658
  0
LINE
  8
0
 62
7
  6
CONTINUOUS
 10
373.6044118599
 20
253.265228658
 11
373.5760974242
 21
251.7204499313
  0
LINE
  8
0
 62
7
  6
CONTINUOUS
 10
373.5760974242
 20
251.7204499313
 11
373.5362558827
 21
249.5690748958
  0
LINE
  8
0
 62
7
  6
CONTINUOUS
 10
373.5362558827
 20
249.5690748958
 11
373.5148180344
 21
248.4225496731
  0
LINE
  8
0
 62
7
  6
CONTINUOUS
 10
373.5148180344
 20
248.4225496731
 11
373.4862378983
 21
246.9063788645
  0
LINE
  8
0
 62
7
  6
CONTINUOUS
 10
373.4862378983
 20
246.9063788645
 11
373.4530648582
 21
245.1645340358
  0
POLYLINE
  8
0
 62
7
  6
CONTINUOUS
 66
1
 70
0
  0
VERTEX
  8
0
 62
7
  6
CONTINUOUS
 10
373.4530648582
 20
245.1645340358
  0
VERTEX
  8
0
 62
7
  6
CONTINUOUS
 10
373.4238032397
 20
243.6443492759
  0
VERTEX
  8
0
 62
7
  6
CONTINUOUS
 10
373.412782127
 20
243.0757817506
  0
VERTEX
  8
0
 62
7
  6
CONTINUOUS
 10
373.4011293259
 20
242.4770178656
  0
VERTEX
  8
0
 62
7
  6
CONTINUOUS
 10
373.388864861
 20
241.8494885559
  0
VERTEX
  8
0
 62
7
  6
CONTINUOUS
 10
373.3759788544
 20
241.1931095065
  0
VERTEX
  8
0
 62
7
  6
CONTINUOUS
 10
373.3624394078
 20
240.5067140719
  0
VERTEX
  8
0
 62
7
  6
CONTINUOUS
 10
373.3482030493
 20
239.7886083491
  0
VERTEX
  8
0
 62
7
  6
CONTINUOUS
 10
373.3332532375
 20
239.0385172873
  0
VERTEX
  8
0
 62
7
  6
CONTINUOUS
 10
373.3178124026
 20
238.2681003164
  0
VERTEX
  8
0
 62
7
  6
CONTINUOUS
 10
373.3020509986
 20
237.4861968982
  0
VERTEX
  8
0
 62
7
  6
CONTINUOUS
 10
373.2861234573
 20
236.7005668384
  0
VERTEX
  8
0
 62
7
  6
CONTINUOUS
 10
373.2701834883
 20
235.918714549
  0
VERTEX
  8
0
 62
7
  6
CONTINUOUS
 10
373.2545159189
 20
235.1543604226
  0
VERTEX
  8
0
 62
7
  6
CONTINUOUS
 10
373.2398668484
 20
234.4432842523
  0
VERTEX
  8
0
 62
7
  6
CONTINUOUS
 10
373.2268978716
 20
233.81656858
  0
VERTEX
  8
0
 62
7
  6
CONTINUOUS
 10
373.215014153
 20
233.244548474
  0
VERTEX
  8
0
 62
7
  6
CONTINUOUS
 10
373.2031059413
 20
232.673453919
  0
VERTEX
  8
0
 62
7
  6
CONTINUOUS
 10
373.1903225391
 20
232.0626721671
  0
VERTEX
  8
0
 62
7
  6
CONTINUOUS
 10
373.1767100439
 20
231.4148095808
  0
VERTEX
  8
0
 62
7
  6
CONTINUOUS
 10
373.1626175893
 20
230.7467794454
  0
VERTEX
  8
0
 62
7
  6
CONTINUOUS
 10
373.1482757203
 20
230.0696398362
  0
VERTEX
  8
0
 62
7
  6
CONTINUOUS
 10
373.1338914674
 20
229.3931679398
  0
VERTEX
  8
0
 62
7
  6
CONTINUOUS
 10
373.1196726614
 20
228.7270263184
  0
VERTEX
  8
0
 62
7
  6
CONTINUOUS
 10
373.1058306616
 20
228.0809018948
  0
SEQEND
  0
POLYLINE
  8
0
 62
7
  6
CONTINUOUS
 66
1
 70
0
  0
VERTEX
  8
0
 62
7
  6
CONTINUOUS
 10
371.6116537396
 20
162.1333774663
  0
VERTEX
  8
0
 62
7
  6
CONTINUOUS
 10
371.5999789389
 20
161.5712390496
  0
VERTEX
  8
0
 62
7
  6
CONTINUOUS
 10
371.5878120366
 20
160.982942863
  0
VERTEX
  8
0
 62
7
  6
CONTINUOUS
 10
371.5748865445
 20
160.3551527026
  0
VERTEX
  8
0
 62
7
  6
CONTINUOUS
 10
371.5609273932
 20
159.6738244471
  0
VERTEX
  8
0
 62
7
  6
CONTINUOUS
 10
371.5465133835
 20
158.9665712387
  0
VERTEX
  8
0
 62
7
  6
CONTINUOUS
 10
371.5328066369
 20
158.290420802
  0
VERTEX
  8
0
 62
7
  6
CONTINUOUS
 10
371.5202866764
 20
157.6696694683
  0
VERTEX
  8
0
 62
7
  6
CONTINUOUS
 10
371.5085939399
 20
157.0871567205
  0
VERTEX
  8
0
 62
7
  6
CONTINUOUS
 10
371.4972794725
 20
156.520878874
  0
VERTEX
  8
0
 62
7
  6
CONTINUOUS
 10
371.4859234214
 20
155.9498819911
  0
VERTEX
  8
0
 62
7
  6
CONTINUOUS
 10
371.4741196543
 20
155.3535099897
  0
VERTEX
  8
0
 62
7
  6
CONTINUOUS
 10
371.4615000627
 20
154.7126156754
  0
VERTEX
  8
0
 62
7
  6
CONTINUOUS
 10
371.4478347374
 20
154.0146660243
  0
VERTEX
  8
0
 62
7
  6
CONTINUOUS
 10
371.4329620667
 20
153.250259245
  0
VERTEX
  8
0
 62
7
  6
CONTINUOUS
 10
371.4172958315
 20
152.4395013259
  0
VERTEX
  8
0
 62
7
  6
CONTINUOUS
 10
371.4017885961
 20
151.6311708992
  0
VERTEX
  8
0
 62
7
  6
CONTINUOUS
 10
371.387115606
 20
150.8608416872
  0
VERTEX
  8
0
 62
7
  6
CONTINUOUS
 10
371.3733583402
 20
150.1335924099
  0
VERTEX
  8
0
 62
7
  6
CONTINUOUS
 10
371.3604010412
 20
149.4440788463
  0
VERTEX
  8
0
 62
7
  6
CONTINUOUS
 10
371.3474365286
 20
148.749632961
  0
VERTEX
  8
0
 62
7
  6
CONTINUOUS
 10
371.3332721163
 20
147.9855586283
  0
VERTEX
  8
0
 62
7
  6
CONTINUOUS
 10
371.3170399499
 20
147.1028407248
  0
VERTEX
  8
0
 62
7
  6
CONTINUOUS
 10
371.2996853574
 20
146.1503852589
  0
VERTEX
  8
0
 62
7
  6
CONTINUOUS
 10
371.2827071524
 20
145.2095409467
  0
VERTEX
  8
0
 62
7
  6
CONTINUOUS
 10
371.2665429671
 20
144.3051545806
  0
VERTEX
  8
0
 62
7
  6
CONTINUOUS
 10
371.250991782
 20
143.4267829812
  0
VERTEX
  8
0
 62
7
  6
CONTINUOUS
 10
371.2356856386
 20
142.5540079152
  0
VERTEX
  8
0
 62
7
  6
CONTINUOUS
 10
371.2199352091
 20
141.647020098
  0
VERTEX
  8
0
 62
7
  6
CONTINUOUS
 10
371.2030473762
 20
140.6641091475
  0
VERTEX
  8
0
 62
7
  6
CONTINUOUS
 10
371.1846396303
 20
139.5798813497
  0
VERTEX
  8
0
 62
7
  6
CONTINUOUS
 10
371.1645486717
 20
138.380421859
  0
VERTEX
  8
0
 62
7
  6
CONTINUOUS
 10
371.142680454
 20
137.0546649546
  0
VERTEX
  8
0
 62
7
  6
CONTINUOUS
 10
371.119008393
 20
135.5942744359
  0
VERTEX
  8
0
 62
7
  6
CONTINUOUS
 10
371.0938953621
 20
134.0141494072
  0
VERTEX
  8
0
 62
7
  6
CONTINUOUS
 10
371.068091532
 20
132.3547970992
  0
VERTEX
  8
0
 62
7
  6
CONTINUOUS
 10
371.0423822301
 20
130.6623039371
  0
VERTEX
  8
0
 62
7
  6
CONTINUOUS
 10
371.0177228853
 20
128.9987565841
  0
VERTEX
  8
0
 62
7
  6
CONTINUOUS
 10
370.9950690016
 20
127.4326316682
  0
VERTEX
  8
0
 62
7
  6
CONTINUOUS
 10
370.9752568226
 20
126.0311960987
  0
VERTEX
  8
0
 62
7
  6
CONTINUOUS
 10
370.9582340639
 20
124.8023793368
  0
VERTEX
  8
0
 62
7
  6
CONTINUOUS
 10
370.9431588123
 20
123.6943877317
  0
VERTEX
  8
0
 62
7
  6
CONTINUOUS
 10
370.9291588018
 20
122.6482579222
  0
VERTEX
  8
0
 62
7
  6
CONTINUOUS
 10
370.9155411467
 20
121.6143591544
  0
VERTEX
  8
0
 62
7
  6
CONTINUOUS
 10
370.9022934917
 20
120.5926421567
  0
VERTEX
  8
0
 62
7
  6
CONTINUOUS
 10
370.8896251327
 20
119.6005175695
  0
VERTEX
  8
0
 62
7
  6
CONTINUOUS
 10
370.8777749645
 20
118.6587662777
  0
VERTEX
  8
0
 62
7
  6
CONTINUOUS
 10
370.8669320835
 20
117.7851751893
  0
VERTEX
  8
0
 62
7
  6
CONTINUOUS
 10
370.8570561609
 20
116.9793804201
  0
VERTEX
  8
0
 62
7
  6
CONTINUOUS
 10
370.8480826241
 20
116.2386860354
  0
VERTEX
  8
0
 62
7
  6
CONTINUOUS
 10
370.8399538758
 20
115.560586261
  0
VERTEX
  8
0
 62
7
  6
CONTINUOUS
 10
370.8326165892
 20
114.9425903136
  0
VERTEX
  8
0
 62
7
  6
CONTINUOUS
 10
370.8259379316
 20
114.3751138878
  0
VERTEX
  8
0
 62
7
  6
CONTINUOUS
 10
370.8196702653
 20
113.8382069045
  0
VERTEX
  8
0
 62
7
  6
CONTINUOUS
 10
370.8135651121
 20
113.311120107
  0
VERTEX
  8
0
 62
7
  6
CONTINUOUS
 10
370.8074186052
 20
112.7763261951
  0
VERTEX
  8
0
 62
7
  6
CONTINUOUS
 10
370.8011120478
 20
112.2232418496
  0
VERTEX
  8
0
 62
7
  6
CONTINUOUS
 10
370.7945396317
 20
111.6420816765
  0
VERTEX
  8
0
 62
7
  6
CONTINUOUS
 10
370.7876355607
 20
111.0262996664
  0
VERTEX
  8
0
 62
7
  6
CONTINUOUS
 10
370.7804593208
 20
110.3804202813
  0
VERTEX
  8
0
 62
7
  6
CONTINUOUS
 10
370.7730908899
 20
109.710989884
  0
VERTEX
  8
0
 62
7
  6
CONTINUOUS
 10
370.7656265527
 20
109.0263043878
  0
VERTEX
  8
0
 62
7
  6
CONTINUOUS
 10
370.7581781015
 20
108.3364311684
  0
VERTEX
  8
0
 62
7
  6
CONTINUOUS
 10
370.7509001153
 20
107.6558576248
  0
VERTEX
  8
0
 62
7
  6
CONTINUOUS
 10
370.7440899733
 20
107.0131587964
  0
VERTEX
  8
0
 62
7
  6
CONTINUOUS
 10
370.7380378443
 20
106.4371821662
  0
VERTEX
  8
0
 62
7
  6
CONTINUOUS
 10
370.7327018889
 20
105.9255718801
  0
VERTEX
  8
0
 62
7
  6
CONTINUOUS
 10
370.7230626258
 20
104.9922669387
  0
SEQEND
  0
LINE
  8
0
 62
7
  6
CONTINUOUS
 10
371.6439464988
 20
163.6765957044
 11
371.6116537396
 21
162.1333774663
  0
LINE
  8
0
 62
7
  6
CONTINUOUS
 10
371.6746695637
 20
165.1295570618
 11
371.6439464988
 21
163.6765957044
  0
POLYLINE
  8
0
 62
7
  6
CONTINUOUS
 66
1
 70
0
  0
VERTEX
  8
0
 62
7
  6
CONTINUOUS
 10
371.7237794566
 20
167.4234058718
  0
VERTEX
  8
0
 62
7
  6
CONTINUOUS
 10
371.7109678154
 20
166.8282146146
  0
VERTEX
  8
0
 62
7
  6
CONTINUOUS
 10
371.6981686312
 20
166.2313757775
  0
VERTEX
  8
0
 62
7
  6
CONTINUOUS
 10
371.6746695637
 20
165.1295570618
  0
SEQEND
  0
LINE
  8
0
 62
7
  6
CONTINUOUS
 10
373.1058306616
 20
228.0809018948
 11
373.0801361906
 21
226.8874777777
  0
LINE
  8
0
 62
7
  6
CONTINUOUS
 10
371.7599700177
 20
169.0932664398
 11
371.7237794566
 21
167.4234058718
  0
LINE
  8
0
 62
7
  6
CONTINUOUS
 10
373.0801361906
 20
226.8874777777
 11
373.0481453101
 21
225.4119013495
  0
LINE
  8
0
 62
7
  6
CONTINUOUS
 10
371.7825999554
 20
170.1293329108
 11
371.7599700177
 21
169.0932664398
  0
LINE
  8
0
 62
7
  6
CONTINUOUS
 10
373.0481453101
 20
225.4119013495
 11
373.0184413762
 21
224.0514270521
  0
POLYLINE
  8
0
 62
7
  6
CONTINUOUS
 66
1
 70
0
  0
VERTEX
  8
0
 62
7
  6
CONTINUOUS
 10
371.8262737406
 20
172.1126837823
  0
VERTEX
  8
0
 62
7
  6
CONTINUOUS
 10
371.8155725462
 20
171.6285908646
  0
VERTEX
  8
0
 62
7
  6
CONTINUOUS
 10
371.7825999554
 20
170.1293329108
  0
SEQEND
  0
LINE
  8
0
 62
7
  6
CONTINUOUS
 10
373.0184413762
 20
224.0514270521
 11
372.9739490935
 21
222.029702628
  0
LINE
  8
0
 62
7
  6
CONTINUOUS
 10
371.8579632619
 20
173.5395258975
 11
371.8262737406
 21
172.1126837823
  0
LINE
  8
0
 62
7
  6
CONTINUOUS
 10
372.9739490935
 20
222.029702628
 11
372.9368118949
 21
220.3558214547
  0
POLYLINE
  8
0
 62
7
  6
CONTINUOUS
 66
1
 70
0
  0
VERTEX
  8
0
 62
7
  6
CONTINUOUS
 10
371.9023024614
 20
175.5203204154
  0
VERTEX
  8
0
 62
7
  6
CONTINUOUS
 10
371.8907759947
 20
175.0070437513
  0
VERTEX
  8
0
 62
7
  6
CONTINUOUS
 10
371.8579632619
 20
173.5395258975
  0
SEQEND
  0
LINE
  8
0
 62
7
  6
CONTINUOUS
 10
372.9368118949
 20
220.3558214547
 11
372.8859826523
 21
218.0830442822
  0
LINE
  8
0
 62
7
  6
CONTINUOUS
 10
371.9386257547
 20
177.1307486324
 11
371.9023024614
 21
175.5203204154
  0
LINE
  8
0
 62
7
  6
CONTINUOUS
 10
372.8859826523
 20
218.0830442822
 11
372.8459532307
 21
216.3066428174
  0
POLYLINE
  8
0
 62
7
  6
CONTINUOUS
 66
1
 70
0
  0
VERTEX
  8
0
 62
7
  6
CONTINUOUS
 10
371.9915785557
 20
179.460996386
  0
VERTEX
  8
0
 62
7
  6
CONTINUOUS
 10
371.9778878391
 20
178.8603641864
  0
VERTEX
  8
0
 62
7
  6
CONTINUOUS
 10
371.9386257547
 20
177.1307486324
  0
SEQEND
  0
LINE
  8
0
 62
7
  6
CONTINUOUS
 10
372.8459532307
 20
216.3066428174
 11
372.7938160619
 21
214.008837296
  0
POLYLINE
  8
0
 62
7
  6
CONTINUOUS
 66
1
 70
0
  0
VERTEX
  8
0
 62
7
  6
CONTINUOUS
 10
372.0521489976
 20
182.104587858
  0
VERTEX
  8
0
 62
7
  6
CONTINUOUS
 10
372.0366857112
 20
181.4316902241
  0
VERTEX
  8
0
 62
7
  6
CONTINUOUS
 10
371.9915785557
 20
179.460996386
  0
SEQEND
  0
LINE
  8
0
 62
7
  6
CONTINUOUS
 10
372.7938160619
 20
214.008837296
 11
372.7313584597
 21
211.2770209314
  0
POLYLINE
  8
0
 62
7
  6
CONTINUOUS
 66
1
 70
0
  0
VERTEX
  8
0
 62
7
  6
CONTINUOUS
 10
372.1339521538
 20
185.6450323583
  0
VERTEX
  8
0
 62
7
  6
CONTINUOUS
 10
372.1203544518
 20
185.0585410018
  0
VERTEX
  8
0
 62
7
  6
CONTINUOUS
 10
372.1073087075
 20
184.495156133
  0
VERTEX
  8
0
 62
7
  6
CONTINUOUS
 10
372.0944156785
 20
183.937654334
  0
VERTEX
  8
0
 62
7
  6
CONTINUOUS
 10
372.0521489976
 20
182.104587858
  0
SEQEND
  0
LINE
  8
0
 62
7
  6
CONTINUOUS
 10
372.7313584597
 20
211.2770209314
 11
372.6435446275
 21
207.4681252193
  0
POLYLINE
  8
0
 62
7
  6
CONTINUOUS
 66
1
 70
0
  0
VERTEX
  8
0
 62
7
  6
CONTINUOUS
 10
372.278417317
 20
191.8409027474
  0
VERTEX
  8
0
 62
7
  6
CONTINUOUS
 10
372.2506800748
 20
190.6551391251
  0
VERTEX
  8
0
 62
7
  6
CONTINUOUS
 10
372.224571469
 20
189.5376715899
  0
VERTEX
  8
0
 62
7
  6
CONTINUOUS
 10
372.2012133047
 20
188.5365979879
  0
VERTEX
  8
0
 62
7
  6
CONTINUOUS
 10
372.1812606542
 20
187.6803234061
  0
VERTEX
  8
0
 62
7
  6
CONTINUOUS
 10
372.1339521538
 20
185.6450323583
  0
SEQEND
  0
LINE
  8
0
 62
7
  6
CONTINUOUS
 10
372.6435446275
 20
207.4681252193
 11
372.5595530404
 21
203.8523627004
  0
POLYLINE
  8
0
 62
7
  6
CONTINUOUS
 66
1
 70
0
  0
VERTEX
  8
0
 62
7
  6
CONTINUOUS
 10
372.5595530404
 20
203.8523627004
  0
VERTEX
  8
0
 62
7
  6
CONTINUOUS
 10
372.3881023239
 20
196.5220807565
  0
VERTEX
  8
0
 62
7
  6
CONTINUOUS
 10
372.3617535271
 20
195.3980722862
  0
VERTEX
  8
0
 62
7
  6
CONTINUOUS
 10
372.278417317
 20
191.8409027474
  0
SEQEND
  0
POLYLINE
  8
0
 62
7
  6
CONTINUOUS
 66
1
 70
0
  0
VERTEX
  8
0
 62
7
  6
CONTINUOUS
 10
99.939229757
 20
-167.984218764
  0
VERTEX
  8
0
 62
7
  6
CONTINUOUS
 10
104.3853249772
 20
-170.3361934445
  0
VERTEX
  8
0
 62
7
  6
CONTINUOUS
 10
109.04899922
 20
-172.6563486131
  0
VERTEX
  8
0
 62
7
  6
CONTINUOUS
 10
113.698001209
 20
-174.821923241
  0
VERTEX
  8
0
 62
7
  6
CONTINUOUS
 10
118.3346946965
 20
-176.8374502387
  0
VERTEX
  8
0
 62
7
  6
CONTINUOUS
 10
122.9591160153
 20
-178.705957313
  0
VERTEX
  8
0
 62
7
  6
CONTINUOUS
 10
127.5711686766
 20
-180.430603954
  0
VERTEX
  8
0
 62
7
  6
CONTINUOUS
 10
132.1707393954
 20
-182.0144642668
  0
VERTEX
  8
0
 62
7
  6
CONTINUOUS
 10
136.7575649633
 20
-183.4600631515
  0
VERTEX
  8
0
 62
7
  6
CONTINUOUS
 10
141.3321507462
 20
-184.7696874861
  0
VERTEX
  8
0
 62
7
  6
CONTINUOUS
 10
145.8945156525
 20
-185.9452193325
  0
VERTEX
  8
0
 62
7
  6
CONTINUOUS
 10
150.4454911374
 20
-186.9892303034
  0
VERTEX
  8
0
 62
7
  6
CONTINUOUS
 10
154.9858321358
 20
-187.9040420499
  0
VERTEX
  8
0
 62
7
  6
CONTINUOUS
 10
159.5167074657
 20
-188.6914814716
  0
VERTEX
  8
0
 62
7
  6
CONTINUOUS
 10
164.0387621259
 20
-189.3527245774
  0
VERTEX
  8
0
 62
7
  6
CONTINUOUS
 10
168.5529206668
 20
-189.8888384181
  0
VERTEX
  8
0
 62
7
  6
CONTINUOUS
 10
173.0602122197
 20
-190.3013023609
  0
VERTEX
  8
0
 62
7
  6
CONTINUOUS
 10
177.5617031663
 20
-190.5912928872
  0
VERTEX
  8
0
 62
7
  6
CONTINUOUS
 10
182.0586205355
 20
-190.7595358833
  0
VERTEX
  8
0
 62
7
  6
CONTINUOUS
 10
186.5518181434
 20
-190.8062962436
  0
VERTEX
  8
0
 62
7
  6
CONTINUOUS
 10
191.0439057999
 20
-190.7316087818
  0
VERTEX
  8
0
 62
7
  6
CONTINUOUS
 10
195.5368773003
 20
-190.5356354954
  0
VERTEX
  8
0
 62
7
  6
CONTINUOUS
 10
200.034501905
 20
-190.218004318
  0
VERTEX
  8
0
 62
7
  6
CONTINUOUS
 10
204.5400387806
 20
-189.7776988139
  0
VERTEX
  8
0
 62
7
  6
CONTINUOUS
 10
209.056630031
 20
-189.2130590218
  0
VERTEX
  8
0
 62
7
  6
CONTINUOUS
 10
213.588320227
 20
-188.5218747656
  0
VERTEX
  8
0
 62
7
  6
CONTINUOUS
 10
218.1342068218
 20
-187.7028400183
  0
VERTEX
  8
0
 62
7
  6
CONTINUOUS
 10
222.6965997629
 20
-186.7537922337
  0
VERTEX
  8
0
 62
7
  6
CONTINUOUS
 10
227.2683715186
 20
-185.6742754922
  0
VERTEX
  8
0
 62
7
  6
CONTINUOUS
 10
231.8448441605
 20
-184.4635403161
  0
VERTEX
  8
0
 62
7
  6
CONTINUOUS
 10
236.4202497208
 20
-183.1217127392
  0
VERTEX
  8
0
 62
7
  6
CONTINUOUS
 10
240.9886578041
 20
-181.6500222012
  0
VERTEX
  8
0
 62
7
  6
CONTINUOUS
 10
245.5460811874
 20
-180.0493680966
  0
VERTEX
  8
0
 62
7
  6
CONTINUOUS
 10
250.088318239
 20
-178.3208260189
  0
VERTEX
  8
0
 62
7
  6
CONTINUOUS
 10
254.6094741155
 20
-176.466311848
  0
VERTEX
  8
0
 62
7
  6
CONTINUOUS
 10
259.1036426689
 20
-174.4886372685
  0
VERTEX
  8
0
 62
7
  6
CONTINUOUS
 10
263.5628293886
 20
-172.3923152019
  0
VERTEX
  8
0
 62
7
  6
CONTINUOUS
 10
267.9827435155
 20
-170.1806106987
  0
VERTEX
  8
0
 62
7
  6
CONTINUOUS
 10
272.126199707
 20
-167.9842765296
  0
SEQEND
  0
POLYLINE
  8
0
 62
7
  6
CONTINUOUS
 66
1
 70
0
  0
VERTEX
  8
0
 62
7
  6
CONTINUOUS
 10
194.9380058923
 20
395.9519872373
  0
VERTEX
  8
0
 62
7
  6
CONTINUOUS
 10
196.2758677094
 20
396.6319486784
  0
VERTEX
  8
0
 62
7
  6
CONTINUOUS
 10
197.5621135026
 20
397.4050917437
  0
VERTEX
  8
0
 62
7
  6
CONTINUOUS
 10
198.7902618056
 20
398.2675203247
  0
VERTEX
  8
0
 62
7
  6
CONTINUOUS
 10
199.9541244799
 20
399.2148888358
  0
VERTEX
  8
0
 62
7
  6
CONTINUOUS
 10
201.0478372397
 20
400.2424238035
  0
VERTEX
  8
0
 62
7
  6
CONTINUOUS
 10
202.0658887248
 20
401.3449473714
  0
VERTEX
  8
0
 62
7
  6
CONTINUOUS
 10
203.0031489723
 20
402.516903922
  0
VERTEX
  8
0
 62
7
  6
CONTINUOUS
 10
203.8548951266
 20
403.7523879646
  0
VERTEX
  8
0
 62
7
  6
CONTINUOUS
 10
204.6168352377
 20
405.0451738933
  0
VERTEX
  8
0
 62
7
  6
CONTINUOUS
 10
205.2851298883
 20
406.3887473582
  0
VERTEX
  8
0
 62
7
  6
CONTINUOUS
 10
205.8564115408
 20
407.7763380908
  0
VERTEX
  8
0
 62
7
  6
CONTINUOUS
 10
206.3278015062
 20
409.2009540195
  0
VERTEX
  8
0
 62
7
  6
CONTINUOUS
 10
206.6969244497
 20
410.6554165026
  0
VERTEX
  8
0
 62
7
  6
CONTINUOUS
 10
206.9619203605
 20
412.1323965019
  0
VERTEX
  8
0
 62
7
  6
CONTINUOUS
 10
207.1214539237
 20
413.624451513
  0
VERTEX
  8
0
 62
7
  6
CONTINUOUS
 10
207.1747212494
 20
415.1240630688
  0
SEQEND
  0
POLYLINE
  8
0
 62
7
  6
CONTINUOUS
 66
1
 70
0
  0
VERTEX
  8
0
 62
7
  6
CONTINUOUS
 10
194.9380084423
 20
395.9519884214
  0
VERTEX
  8
0
 62
7
  6
CONTINUOUS
 10
194.8570706222
 20
395.9146120077
  0
VERTEX
  8
0
 62
7
  6
CONTINUOUS
 10
194.775975886
 20
395.8775771794
  0
VERTEX
  8
0
 62
7
  6
CONTINUOUS
 10
194.6947256756
 20
395.840884595
  0
VERTEX
  8
0
 62
7
  6
CONTINUOUS
 10
194.6133214359
 20
395.8045349071
  0
VERTEX
  8
0
 62
7
  6
CONTINUOUS
 10
194.5317646143
 20
395.7685287619
  0
VERTEX
  8
0
 62
7
  6
CONTINUOUS
 10
194.4500566611
 20
395.7328667997
  0
SEQEND
  0
POLYLINE
  8
0
 62
7
  6
CONTINUOUS
 66
1
 70
0
  0
VERTEX
  8
0
 62
7
  6
CONTINUOUS
 10
192.9361020956
 20
398.0128805955
  0
VERTEX
  8
0
 62
7
  6
CONTINUOUS
 10
194.1916121812
 20
398.5725128215
  0
VERTEX
  8
0
 62
7
  6
CONTINUOUS
 10
195.4021179799
 20
399.2237682404
  0
VERTEX
  8
0
 62
7
  6
CONTINUOUS
 10
196.560942407
 20
399.9630543461
  0
VERTEX
  8
0
 62
7
  6
CONTINUOUS
 10
197.6616940895
 20
400.786293509
  0
VERTEX
  8
0
 62
7
  6
CONTINUOUS
 10
198.6983018887
 20
401.6889451698
  0
VERTEX
  8
0
 62
7
  6
CONTINUOUS
 10
199.6650478503
 20
402.6660303077
  0
VERTEX
  8
0
 62
7
  6
CONTINUOUS
 10
200.5565995255
 20
403.7121594443
  0
VERTEX
  8
0
 62
7
  6
CONTINUOUS
 10
201.3680392278
 20
404.8215622633
  0
VERTEX
  8
0
 62
7
  6
CONTINUOUS
 10
202.0948911582
 20
405.9881194388
  0
VERTEX
  8
0
 62
7
  6
CONTINUOUS
 10
202.7331460931
 20
407.2053963885
  0
VERTEX
  8
0
 62
7
  6
CONTINUOUS
 10
203.2792834989
 20
408.4666787664
  0
VERTEX
  8
0
 62
7
  6
CONTINUOUS
 10
203.7302909505
 20
409.7650094981
  0
VERTEX
  8
0
 62
7
  6
CONTINUOUS
 10
204.0836807478
 20
411.0932271551
  0
VERTEX
  8
0
 62
7
  6
CONTINUOUS
 10
204.3375036373
 20
412.4440054564
  0
VERTEX
  8
0
 62
7
  6
CONTINUOUS
 10
204.4903595638
 20
413.8098936792
  0
VERTEX
  8
0
 62
7
  6
CONTINUOUS
 10
204.5414053934
 20
415.1833577567
  0
SEQEND
  0
POLYLINE
  8
0
 62
7
  6
CONTINUOUS
 66
1
 70
0
  0
VERTEX
  8
0
 62
7
  6
CONTINUOUS
 10
12.2112190166
 20
-61.3340051779
  0
VERTEX
  8
0
 62
7
  6
CONTINUOUS
 10
12.4754754916
 20
-62.3796999749
  0
VERTEX
  8
0
 62
7
  6
CONTINUOUS
 10
13.7098005865
 20
-66.7646810164
  0
VERTEX
  8
0
 62
7
  6
CONTINUOUS
 10
15.0305391957
 20
-71.0166557174
  0
VERTEX
  8
0
 62
7
  6
CONTINUOUS
 10
16.4364153428
 20
-75.1497134452
  0
VERTEX
  8
0
 62
7
  6
CONTINUOUS
 10
17.9263422823
 20
-79.1746594876
  0
VERTEX
  8
0
 62
7
  6
CONTINUOUS
 10
19.5026158131
 20
-83.1079967129
  0
VERTEX
  8
0
 62
7
  6
CONTINUOUS
 10
21.1684615777
 20
-86.9640586352
  0
VERTEX
  8
0
 62
7
  6
CONTINUOUS
 10
22.9268032039
 20
-90.7530638989
  0
VERTEX
  8
0
 62
7
  6
CONTINUOUS
 10
24.7837258545
 20
-94.4889889529
  0
VERTEX
  8
0
 62
7
  6
CONTINUOUS
 10
26.7385869823
 20
-98.1701531137
  0
VERTEX
  8
0
 62
7
  6
CONTINUOUS
 10
28.7931005914
 20
-101.7991397331
  0
VERTEX
  8
0
 62
7
  6
CONTINUOUS
 10
30.9476191913
 20
-105.3759449057
  0
VERTEX
  8
0
 62
7
  6
CONTINUOUS
 10
33.2028501551
 20
-108.9008570193
  0
VERTEX
  8
0
 62
7
  6
CONTINUOUS
 10
35.5600213069
 20
-112.3748569082
  0
VERTEX
  8
0
 62
7
  6
CONTINUOUS
 10
38.0195448978
 20
-115.7975274638
  0
VERTEX
  8
0
 62
7
  6
CONTINUOUS
 10
40.5851568919
 20
-119.1726545511
  0
VERTEX
  8
0
 62
7
  6
CONTINUOUS
 10
43.2601987963
 20
-122.5027333584
  0
VERTEX
  8
0
 62
7
  6
CONTINUOUS
 10
46.0483858893
 20
-125.7899661093
  0
VERTEX
  8
0
 62
7
  6
CONTINUOUS
 10
48.9540509423
 20
-129.0366055755
  0
VERTEX
  8
0
 62
7
  6
CONTINUOUS
 10
51.9811610735
 20
-132.243871165
  0
VERTEX
  8
0
 62
7
  6
CONTINUOUS
 10
55.1336611441
 20
-135.412460513
  0
VERTEX
  8
0
 62
7
  6
CONTINUOUS
 10
58.4184652752
 20
-138.5453120487
  0
VERTEX
  8
0
 62
7
  6
CONTINUOUS
 10
61.8429525171
 20
-141.6450302082
  0
VERTEX
  8
0
 62
7
  6
CONTINUOUS
 10
65.4135195466
 20
-144.7123854244
  0
VERTEX
  8
0
 62
7
  6
CONTINUOUS
 10
69.1356465451
 20
-147.7468567093
  0
VERTEX
  8
0
 62
7
  6
CONTINUOUS
 10
73.0237316545
 20
-150.7542825337
  0
VERTEX
  8
0
 62
7
  6
CONTINUOUS
 10
77.096357777
 20
-153.7417817948
  0
VERTEX
  8
0
 62
7
  6
CONTINUOUS
 10
81.3564161961
 20
-156.7037243589
  0
VERTEX
  8
0
 62
7
  6
CONTINUOUS
 10
85.8306848426
 20
-159.6501510688
  0
VERTEX
  8
0
 62
7
  6
CONTINUOUS
 10
90.4695156994
 20
-162.5418226115
  0
VERTEX
  8
0
 62
7
  6
CONTINUOUS
 10
95.2108562584
 20
-165.339821345
  0
VERTEX
  8
0
 62
7
  6
CONTINUOUS
 10
99.9392684095
 20
-167.9841667614
  0
SEQEND
  0
POLYLINE
  8
0
 62
7
  6
CONTINUOUS
 66
1
 70
0
  0
VERTEX
  8
0
 62
7
  6
CONTINUOUS
 10
-14.4235188124
 20
360.7526451106
  0
VERTEX
  8
0
 62
7
  6
CONTINUOUS
 10
-14.3642054024
 20
359.850668895
  0
VERTEX
  8
0
 62
7
  6
CONTINUOUS
 10
-14.24294853
 20
358.7806913734
  0
VERTEX
  8
0
 62
7
  6
CONTINUOUS
 10
-14.066997492
 20
357.7183359985
  0
VERTEX
  8
0
 62
7
  6
CONTINUOUS
 10
-13.8368040592
 20
356.6664042253
  0
VERTEX
  8
0
 62
7
  6
CONTINUOUS
 10
-13.5530161772
 20
355.6276527928
  0
VERTEX
  8
0
 62
7
  6
CONTINUOUS
 10
-13.2163427986
 20
354.6048246748
  0
VERTEX
  8
0
 62
7
  6
CONTINUOUS
 10
-12.8276780864
 20
353.6006068557
  0
VERTEX
  8
0
 62
7
  6
CONTINUOUS
 10
-12.3880351835
 20
352.6176563454
  0
VERTEX
  8
0
 62
7
  6
CONTINUOUS
 10
-11.8985567488
 20
351.6585505404
  0
VERTEX
  8
0
 62
7
  6
CONTINUOUS
 10
-11.3606265733
 20
350.7258153337
  0
VERTEX
  8
0
 62
7
  6
CONTINUOUS
 10
-10.775644666
 20
349.8219416494
  0
VERTEX
  8
0
 62
7
  6
CONTINUOUS
 10
-10.1451507396
 20
348.9493719543
  0
VERTEX
  8
0
 62
7
  6
CONTINUOUS
 10
-9.4708934648
 20
348.110439703
  0
VERTEX
  8
0
 62
7
  6
CONTINUOUS
 10
-8.7546561323
 20
347.3072826944
  0
VERTEX
  8
0
 62
7
  6
CONTINUOUS
 10
-7.9983606794
 20
346.5420004555
  0
VERTEX
  8
0
 62
7
  6
CONTINUOUS
 10
-7.2038997957
 20
345.8165415014
  0
VERTEX
  8
0
 62
7
  6
CONTINUOUS
 10
-6.3733317352
 20
345.1327060958
  0
VERTEX
  8
0
 62
7
  6
CONTINUOUS
 10
-5.5088004939
 20
344.4923012774
  0
VERTEX
  8
0
 62
7
  6
CONTINUOUS
 10
-4.6125111695
 20
343.8969761977
  0
VERTEX
  8
0
 62
7
  6
CONTINUOUS
 10
-3.6868539961
 20
343.3483137505
  0
VERTEX
  8
0
 62
7
  6
CONTINUOUS
 10
-2.7342598538
 20
342.8477822027
  0
VERTEX
  8
0
 62
7
  6
CONTINUOUS
 10
-1.7572582721
 20
342.3966886554
  0
VERTEX
  8
0
 62
7
  6
CONTINUOUS
 10
-0.7584252432
 20
341.996250075
  0
VERTEX
  8
0
 62
7
  6
CONTINUOUS
 10
0.2596056138
 20
341.6475275029
  0
VERTEX
  8
0
 62
7
  6
CONTINUOUS
 10
1.2941095711
 20
341.3513807115
  0
VERTEX
  8
0
 62
7
  6
CONTINUOUS
 10
2.187090967
 20
341.1410372622
  0
SEQEND
  0
LINE
  8
0
 62
7
  6
CONTINUOUS
 10
3.829375969
 20
-10.0699833
 11
-1.2070287265
 21
260.5391378155
  0
POLYLINE
  8
0
 62
7
  6
CONTINUOUS
 66
1
 70
0
  0
VERTEX
  8
0
 62
7
  6
CONTINUOUS
 10
-3.0667066845
 20
342.3070732055
  0
VERTEX
  8
0
 62
7
  6
CONTINUOUS
 10
-2.9399136806
 20
335.1376000388
  0
VERTEX
  8
0
 62
7
  6
CONTINUOUS
 10
-2.7265651866
 20
322.862140553
  0
VERTEX
  8
0
 62
7
  6
CONTINUOUS
 10
-2.5171259368
 20
310.5915535411
  0
VERTEX
  8
0
 62
7
  6
CONTINUOUS
 10
-2.437827139
 20
305.8943645177
  0
SEQEND
  0
POLYLINE
  8
0
 62
7
  6
CONTINUOUS
 66
1
 70
0
  0
VERTEX
  8
0
 62
7
  6
CONTINUOUS
 10
-1.3089637599
 20
268.6648500306
  0
VERTEX
  8
0
 62
7
  6
CONTINUOUS
 10
-1.3056943653
 20
268.0804218519
  0
VERTEX
  8
0
 62
7
  6
CONTINUOUS
 10
-1.3013326627
 20
267.4622813489
  0
VERTEX
  8
0
 62
7
  6
CONTINUOUS
 10
-1.2958443232
 20
266.8113150009
  0
VERTEX
  8
0
 62
7
  6
CONTINUOUS
 10
-1.2891913849
 20
266.1287155396
  0
VERTEX
  8
0
 62
7
  6
CONTINUOUS
 10
-1.2813538555
 20
265.4159857026
  0
VERTEX
  8
0
 62
7
  6
CONTINUOUS
 10
-1.272304845
 20
264.674942593
  0
VERTEX
  8
0
 62
7
  6
CONTINUOUS
 10
-1.2620328052
 20
263.9077200975
  0
VERTEX
  8
0
 62
7
  6
CONTINUOUS
 10
-1.2505328548
 20
263.1167867018
  0
VERTEX
  8
0
 62
7
  6
CONTINUOUS
 10
-1.23780571
 20
262.3049147696
  0
VERTEX
  8
0
 62
7
  6
CONTINUOUS
 10
-1.2238668158
 20
261.4751938557
  0
VERTEX
  8
0
 62
7
  6
CONTINUOUS
 10
-1.2087349904
 20
260.631150417
  0
VERTEX
  8
0
 62
7
  6
CONTINUOUS
 10
-1.2070281132
 20
260.5391377941
  0
SEQEND
  0
POLYLINE
  8
0
 62
7
  6
CONTINUOUS
 66
1
 70
0
  0
VERTEX
  8
0
 62
7
  6
CONTINUOUS
 10
-1.3083120345
 20
271.4506551961
  0
VERTEX
  8
0
 62
7
  6
CONTINUOUS
 10
-1.3105836918
 20
271.0706607821
  0
VERTEX
  8
0
 62
7
  6
CONTINUOUS
 10
-1.3120574685
 20
270.6579599792
  0
VERTEX
  8
0
 62
7
  6
CONTINUOUS
 10
-1.3126850679
 20
270.2113838614
  0
VERTEX
  8
0
 62
7
  6
CONTINUOUS
 10
-1.3124121531
 20
269.730511032
  0
VERTEX
  8
0
 62
7
  6
CONTINUOUS
 10
-1.3111897034
 20
269.21497874
  0
VERTEX
  8
0
 62
7
  6
CONTINUOUS
 10
-1.3089637599
 20
268.6648500306
  0
SEQEND
  0
LINE
  8
0
 62
7
  6
CONTINUOUS
 10
-1.3052881835
 20
271.7990057893
 11
-1.3083120345
 21
271.4506551961
  0
LINE
  8
0
 62
7
  6
CONTINUOUS
 10
-11.4663725467
 20
489.2815227218
 11
-11.4944194648
 21
486.4019843842
  0
POLYLINE
  8
0
 62
7
  6
CONTINUOUS
 66
1
 70
0
  0
VERTEX
  8
0
 62
7
  6
CONTINUOUS
 10
-11.4663725466
 20
489.2815227218
  0
VERTEX
  8
0
 62
7
  6
CONTINUOUS
 10
-11.4590247624
 20
489.5081278894
  0
VERTEX
  8
0
 62
7
  6
CONTINUOUS
 10
-11.4278251241
 20
489.8543884444
  0
VERTEX
  8
0
 62
7
  6
CONTINUOUS
 10
-11.375338343
 20
490.183815265
  0
VERTEX
  8
0
 62
7
  6
CONTINUOUS
 10
-11.3052603853
 20
490.492768931
  0
VERTEX
  8
0
 62
7
  6
CONTINUOUS
 10
-11.2217523719
 20
490.7783401693
  0
VERTEX
  8
0
 62
7
  6
CONTINUOUS
 10
-11.1283123461
 20
491.0407318639
  0
VERTEX
  8
0
 62
7
  6
CONTINUOUS
 10
-11.02994365
 20
491.2763469326
  0
VERTEX
  8
0
 62
7
  6
CONTINUOUS
 10
-10.9252346964
 20
491.4957128936
  0
VERTEX
  8
0
 62
7
  6
CONTINUOUS
 10
-10.8136440606
 20
491.7033088802
  0
VERTEX
  8
0
 62
7
  6
CONTINUOUS
 10
-10.6888137911
 20
491.9110689781
  0
VERTEX
  8
0
 62
7
  6
CONTINUOUS
 10
-10.5331116002
 20
492.1420448829
  0
VERTEX
  8
0
 62
7
  6
CONTINUOUS
 10
-10.3680421009
 20
492.3599359841
  0
VERTEX
  8
0
 62
7
  6
CONTINUOUS
 10
-10.219353627
 20
492.5368998754
  0
VERTEX
  8
0
 62
7
  6
CONTINUOUS
 10
-10.0805177223
 20
492.688207246
  0
VERTEX
  8
0
 62
7
  6
CONTINUOUS
 10
-9.9531175281
 20
492.8167140518
  0
VERTEX
  8
0
 62
7
  6
CONTINUOUS
 10
-9.833206604
 20
492.9295834152
  0
VERTEX
  8
0
 62
7
  6
CONTINUOUS
 10
-9.7197918617
 20
493.0297715687
  0
VERTEX
  8
0
 62
7
  6
CONTINUOUS
 10
-9.6005960469
 20
493.1287365666
  0
VERTEX
  8
0
 62
7
  6
CONTINUOUS
 10
-9.4513192219
 20
493.2442469849
  0
VERTEX
  8
0
 62
7
  6
CONTINUOUS
 10
-9.3003560124
 20
493.3522763033
  0
VERTEX
  8
0
 62
7
  6
CONTINUOUS
 10
-9.1751501945
 20
493.4356580368
  0
VERTEX
  8
0
 62
7
  6
CONTINUOUS
 10
-9.0641788562
 20
493.5051348643
  0
VERTEX
  8
0
 62
7
  6
CONTINUOUS
 10
-8.9702085435
 20
493.5608718903
  0
VERTEX
  8
0
 62
7
  6
CONTINUOUS
 10
-8.8751796133
 20
493.6144671573
  0
VERTEX
  8
0
 62
7
  6
CONTINUOUS
 10
-8.7510929075
 20
493.6804236153
  0
VERTEX
  8
0
 62
7
  6
CONTINUOUS
 10
-8.6260735376
 20
493.7424494708
  0
VERTEX
  8
0
 62
7
  6
CONTINUOUS
 10
-8.5277422584
 20
493.78823162
  0
VERTEX
  8
0
 62
7
  6
CONTINUOUS
 10
-8.4342170771
 20
493.8294017787
  0
VERTEX
  8
0
 62
7
  6
CONTINUOUS
 10
-8.3278165724
 20
493.8735044567
  0
VERTEX
  8
0
 62
7
  6
CONTINUOUS
 10
-8.2209341287
 20
493.9149551362
  0
VERTEX
  8
0
 62
7
  6
CONTINUOUS
 10
-8.1193693578
 20
493.9517636836
  0
VERTEX
  8
0
 62
7
  6
CONTINUOUS
 10
-8.0262642302
 20
493.983348604
  0
VERTEX
  8
0
 62
7
  6
CONTINUOUS
 10
-7.9494765262
 20
494.0078750232
  0
VERTEX
  8
0
 62
7
  6
CONTINUOUS
 10
-7.8810183771
 20
494.0285986424
  0
VERTEX
  8
0
 62
7
  6
CONTINUOUS
 10
-7.8183201152
 20
494.0466463164
  0
VERTEX
  8
0
 62
7
  6
CONTINUOUS
 10
-7.7523233587
 20
494.0646918336
  0
VERTEX
  8
0
 62
7
  6
CONTINUOUS
 10
-7.6659013317
 20
494.0868641685
  0
VERTEX
  8
0
 62
7
  6
CONTINUOUS
 10
-7.5800269472
 20
494.1072786836
  0
VERTEX
  8
0
 62
7
  6
CONTINUOUS
 10
-7.5133503731
 20
494.1220305215
  0
VERTEX
  8
0
 62
7
  6
CONTINUOUS
 10
-7.4567210533
 20
494.1338122647
  0
VERTEX
  8
0
 62
7
  6
CONTINUOUS
 10
-7.4107533732
 20
494.1428748328
  0
VERTEX
  8
0
 62
7
  6
CONTINUOUS
 10
-7.3645132063
 20
494.1515408834
  0
VERTEX
  8
0
 62
7
  6
CONTINUOUS
 10
-7.3015909373
 20
494.1626123122
  0
VERTEX
  8
0
 62
7
  6
CONTINUOUS
 10
-7.2387345491
 20
494.172847252
  0
VERTEX
  8
0
 62
7
  6
CONTINUOUS
 10
-7.1914097978
 20
494.180012224
  0
VERTEX
  8
0
 62
7
  6
CONTINUOUS
 10
-7.1473113452
 20
494.1862724756
  0
VERTEX
  8
0
 62
7
  6
CONTINUOUS
 10
-7.0969271829
 20
494.1929355314
  0
VERTEX
  8
0
 62
7
  6
CONTINUOUS
 10
-7.0472557614
 20
494.1989952312
  0
VERTEX
  8
0
 62
7
  6
CONTINUOUS
 10
-7.0031138984
 20
494.2039576531
  0
VERTEX
  8
0
 62
7
  6
CONTINUOUS
 10
-6.9615344457
 20
494.2082693122
  0
VERTEX
  8
0
 62
7
  6
CONTINUOUS
 10
-6.9209566704
 20
494.2121387514
  0
VERTEX
  8
0
 62
7
  6
CONTINUOUS
 10
-6.8819954238
 20
494.215540254
  0
VERTEX
  8
0
 62
7
  6
CONTINUOUS
 10
-6.8448280699
 20
494.2184992236
  0
VERTEX
  8
0
 62
7
  6
CONTINUOUS
 10
-6.8092152118
 20
494.2210729952
  0
VERTEX
  8
0
 62
7
  6
CONTINUOUS
 10
-6.7748882616
 20
494.2233120428
  0
VERTEX
  8
0
 62
7
  6
CONTINUOUS
 10
-6.7421513326
 20
494.2252265667
  0
VERTEX
  8
0
 62
7
  6
CONTINUOUS
 10
-6.7113542312
 20
494.2268310778
  0
VERTEX
  8
0
 62
7
  6
CONTINUOUS
 10
-6.6821027729
 20
494.2281787741
  0
VERTEX
  8
0
 62
7
  6
CONTINUOUS
 10
-6.6540551689
 20
494.2293098431
  0
VERTEX
  8
0
 62
7
  6
CONTINUOUS
 10
-6.6275160413
 20
494.2302349032
  0
VERTEX
  8
0
 62
7
  6
CONTINUOUS
 10
-6.6027043159
 20
494.2309721413
  0
VERTEX
  8
0
 62
7
  6
CONTINUOUS
 10
-6.57948993
 20
494.2315503019
  0
VERTEX
  8
0
 62
7
  6
CONTINUOUS
 10
-6.5577069464
 20
494.2319947189
  0
VERTEX
  8
0
 62
7
  6
CONTINUOUS
 10
-6.5374704249
 20
494.2323225094
  0
VERTEX
  8
0
 62
7
  6
CONTINUOUS
 10
-6.5185584597
 20
494.2325547841
  0
VERTEX
  8
0
 62
7
  6
CONTINUOUS
 10
-6.5008263888
 20
494.2327075793
  0
VERTEX
  8
0
 62
7
  6
CONTINUOUS
 10
-6.4838500382
 20
494.2327949358
  0
SEQEND
  0
POLYLINE
  8
0
 62
7
  6
CONTINUOUS
 66
1
 70
0
  0
VERTEX
  8
0
 62
7
  6
CONTINUOUS
 10
187.6516777542
 20
427.0931771352
  0
VERTEX
  8
0
 62
7
  6
CONTINUOUS
 10
187.5373800377
 20
426.9727471269
  0
VERTEX
  8
0
 62
7
  6
CONTINUOUS
 10
187.4291073565
 20
426.845121194
  0
VERTEX
  8
0
 62
7
  6
CONTINUOUS
 10
187.3272169576
 20
426.7103367354
  0
VERTEX
  8
0
 62
7
  6
CONTINUOUS
 10
187.2326773797
 20
426.5693323726
  0
VERTEX
  8
0
 62
7
  6
CONTINUOUS
 10
187.1462622619
 20
426.4231231594
  0
VERTEX
  8
0
 62
7
  6
CONTINUOUS
 10
187.0682350658
 20
426.2721138549
  0
VERTEX
  8
0
 62
7
  6
CONTINUOUS
 10
186.9989231899
 20
426.116906265
  0
VERTEX
  8
0
 62
7
  6
CONTINUOUS
 10
186.9385940099
 20
425.9581181639
  0
VERTEX
  8
0
 62
7
  6
CONTINUOUS
 10
186.8874046416
 20
425.7961975398
  0
VERTEX
  8
0
 62
7
  6
CONTINUOUS
 10
186.8456745115
 20
425.6323814588
  0
VERTEX
  8
0
 62
7
  6
CONTINUOUS
 10
186.813518906
 20
425.4678755475
  0
VERTEX
  8
0
 62
7
  6
CONTINUOUS
 10
186.7908185755
 20
425.3033836701
  0
VERTEX
  8
0
 62
7
  6
CONTINUOUS
 10
186.7774063817
 20
425.139854581
  0
VERTEX
  8
0
 62
7
  6
CONTINUOUS
 10
186.7729980978
 20
424.9776722915
  0
SEQEND
  0
POLYLINE
  8
0
 62
7
  6
CONTINUOUS
 66
1
 70
0
  0
VERTEX
  8
0
 62
7
  6
CONTINUOUS
 10
187.2981243636
 20
427.4493510533
  0
VERTEX
  8
0
 62
7
  6
CONTINUOUS
 10
188.0652082035
 20
428.2138354488
  0
VERTEX
  8
0
 62
7
  6
CONTINUOUS
 10
188.8735952886
 20
429.0191340955
  0
VERTEX
  8
0
 62
7
  6
CONTINUOUS
 10
189.7235845809
 20
429.8655713591
  0
VERTEX
  8
0
 62
7
  6
CONTINUOUS
 10
190.6142791944
 20
430.7521741428
  0
VERTEX
  8
0
 62
7
  6
CONTINUOUS
 10
191.5447822433
 20
431.67796935
  0
VERTEX
  8
0
 62
7
  6
CONTINUOUS
 10
192.5153926896
 20
432.6432813461
  0
SEQEND
  0
POLYLINE
  8
0
 62
7
  6
CONTINUOUS
 66
1
 70
0
  0
VERTEX
  8
0
 62
7
  6
CONTINUOUS
 10
192.9361043675
 20
432.3538332318
  0
VERTEX
  8
0
 62
7
  6
CONTINUOUS
 10
191.9452738584
 20
431.3684476064
  0
VERTEX
  8
0
 62
7
  6
CONTINUOUS
 10
190.998138871
 20
430.4261343216
  0
VERTEX
  8
0
 62
7
  6
CONTINUOUS
 10
190.0943791791
 20
429.5265450935
  0
VERTEX
  8
0
 62
7
  6
CONTINUOUS
 10
189.2349554609
 20
428.6707247742
  0
VERTEX
  8
0
 62
7
  6
CONTINUOUS
 10
188.4208283946
 20
427.8597182161
  0
VERTEX
  8
0
 62
7
  6
CONTINUOUS
 10
187.6516777542
 20
427.0931771352
  0
SEQEND
  0
LINE
  8
0
 62
7
  6
CONTINUOUS
 10
194.6952725432
 20
434.7588988934
 11
194.4500566611
 21
434.5152593378
  0
POLYLINE
  8
0
 62
7
  6
CONTINUOUS
 66
1
 70
0
  0
VERTEX
  8
0
 62
7
  6
CONTINUOUS
 10
192.5153926896
 20
432.6432813461
  0
VERTEX
  8
0
 62
7
  6
CONTINUOUS
 10
193.0227172738
 20
433.1357893393
  0
VERTEX
  8
0
 62
7
  6
CONTINUOUS
 10
193.5551387775
 20
433.6525615949
  0
VERTEX
  8
0
 62
7
  6
CONTINUOUS
 10
194.1126572006
 20
434.1935981129
  0
VERTEX
  8
0
 62
7
  6
CONTINUOUS
 10
194.6952725432
 20
434.7588988934
  0
SEQEND
  0
LINE
  8
0
 62
7
  6
CONTINUOUS
 10
193.8930629086
 20
433.2824553186
 11
192.9361043675
 21
432.3538332318
  0
LINE
  8
0
 62
7
  6
CONTINUOUS
 10
194.9380084423
 20
434.2961377053
 11
193.8930629086
 21
433.2824553186
  0
LINE
  8
0
 62
7
  6
CONTINUOUS
 10
43.0327043836
 20
277.6337194553
 11
43.0327043836
 21
275.9968216232
  0
LINE
  8
0
 62
7
  6
CONTINUOUS
 10
43.0327043836
 20
275.5877119939
 11
43.0327043836
 21
272.4920985683
  0
LINE
  8
0
 62
7
  6
CONTINUOUS
 10
43.0327011399
 20
275.9968177748
 11
43.0327043836
 21
275.5877119939
  0
POLYLINE
  8
0
 62
7
  6
CONTINUOUS
 66
1
 70
0
  0
VERTEX
  8
0
 62
7
  6
CONTINUOUS
 10
-8.1911116624
 20
346.7370418289
  0
VERTEX
  8
0
 62
7
  6
CONTINUOUS
 10
-8.1829817548
 20
346.7266201954
  0
VERTEX
  8
0
 62
7
  6
CONTINUOUS
 10
-7.5241439521
 20
345.9645524045
  0
VERTEX
  8
0
 62
7
  6
CONTINUOUS
 10
-6.8277631099
 20
345.2366565762
  0
VERTEX
  8
0
 62
7
  6
CONTINUOUS
 10
-6.0956037993
 20
344.5447729378
  0
VERTEX
  8
0
 62
7
  6
CONTINUOUS
 10
-5.3295288467
 20
343.8906588476
  0
VERTEX
  8
0
 62
7
  6
CONTINUOUS
 10
-4.5314854046
 20
343.2759819527
  0
VERTEX
  8
0
 62
7
  6
CONTINUOUS
 10
-3.7034799252
 20
342.7023090983
  0
VERTEX
  8
0
 62
7
  6
CONTINUOUS
 10
-2.8476143043
 20
342.1710857504
  0
VERTEX
  8
0
 62
7
  6
CONTINUOUS
 10
-1.9660600158
 20
341.6836346809
  0
VERTEX
  8
0
 62
7
  6
CONTINUOUS
 10
-1.0610150717
 20
341.2412385884
  0
VERTEX
  8
0
 62
7
  6
CONTINUOUS
 10
-0.1347774042
 20
340.8449832975
  0
VERTEX
  8
0
 62
7
  6
CONTINUOUS
 10
0.8103182734
 20
340.4958832307
  0
VERTEX
  8
0
 62
7
  6
CONTINUOUS
 10
1.7718957259
 20
340.1948515352
  0
VERTEX
  8
0
 62
7
  6
CONTINUOUS
 10
2.7475296878
 20
339.9426594747
  0
VERTEX
  8
0
 62
7
  6
CONTINUOUS
 10
3.5643423558
 20
339.7712511823
  0
SEQEND
  0
POLYLINE
  8
0
 62
7
  6
CONTINUOUS
 66
1
 70
0
  0
VERTEX
  8
0
 62
7
  6
CONTINUOUS
 10
167.4084714076
 20
415.1864540536
  0
VERTEX
  8
0
 62
7
  6
CONTINUOUS
 10
167.4595642496
 20
413.8080707129
  0
VERTEX
  8
0
 62
7
  6
CONTINUOUS
 10
167.6125624441
 20
412.4372501558
  0
VERTEX
  8
0
 62
7
  6
CONTINUOUS
 10
167.8666265352
 20
411.0815136713
  0
VERTEX
  8
0
 62
7
  6
CONTINUOUS
 10
168.220362548
 20
409.7482997862
  0
VERTEX
  8
0
 62
7
  6
CONTINUOUS
 10
168.671829637
 20
408.4449234529
  0
VERTEX
  8
0
 62
7
  6
CONTINUOUS
 10
169.2185507352
 20
407.1785359134
  0
VERTEX
  8
0
 62
7
  6
CONTINUOUS
 10
169.857526145
 20
405.9560854635
  0
VERTEX
  8
0
 62
7
  6
CONTINUOUS
 10
170.5852499963
 20
404.7842793289
  0
VERTEX
  8
0
 62
7
  6
CONTINUOUS
 10
171.3977294826
 20
403.669546865
  0
VERTEX
  8
0
 62
7
  6
CONTINUOUS
 10
172.2905067682
 20
402.6180042806
  0
VERTEX
  8
0
 62
7
  6
CONTINUOUS
 10
173.2586834468
 20
401.6354210804
  0
VERTEX
  8
0
 62
7
  6
CONTINUOUS
 10
174.296947418
 20
400.7271884091
  0
VERTEX
  8
0
 62
7
  6
CONTINUOUS
 10
175.399602033
 20
399.898289472
  0
VERTEX
  8
0
 62
7
  6
CONTINUOUS
 10
176.5605973506
 20
399.1532721937
  0
VERTEX
  8
0
 62
7
  6
CONTINUOUS
 10
177.7735633312
 20
398.4962242646
  0
VERTEX
  8
0
 62
7
  6
CONTINUOUS
 10
179.0318447876
 20
397.9307507133
  0
VERTEX
  8
0
 62
7
  6
CONTINUOUS
 10
180.3285378997
 20
397.4599541266
  0
VERTEX
  8
0
 62
7
  6
CONTINUOUS
 10
181.6565280942
 20
397.086417627
  0
VERTEX
  8
0
 62
7
  6
CONTINUOUS
 10
183.0085290798
 20
396.8121906992
  0
VERTEX
  8
0
 62
7
  6
CONTINUOUS
 10
184.377122825
 20
396.6387779456
  0
VERTEX
  8
0
 62
7
  6
CONTINUOUS
 10
185.7548002589
 20
396.5671308309
  0
VERTEX
  8
0
 62
7
  6
CONTINUOUS
 10
187.134002471
 20
396.5976424619
  0
VERTEX
  8
0
 62
7
  6
CONTINUOUS
 10
188.5071735792
 20
396.7301469573
  0
VERTEX
  8
0
 62
7
  6
CONTINUOUS
 10
189.8667452767
 20
396.9639127308
  0
VERTEX
  8
0
 62
7
  6
CONTINUOUS
 10
191.2052258498
 20
397.2976425968
  0
VERTEX
  8
0
 62
7
  6
CONTINUOUS
 10
192.5152860461
 20
397.7294972931
  0
SEQEND
  0
POLYLINE
  8
0
 62
7
  6
CONTINUOUS
 66
1
 70
0
  0
VERTEX
  8
0
 62
7
  6
CONTINUOUS
 10
164.5697190166
 20
415.1225335266
  0
VERTEX
  8
0
 62
7
  6
CONTINUOUS
 10
164.6236944693
 20
413.6015698415
  0
VERTEX
  8
0
 62
7
  6
CONTINUOUS
 10
164.7853493509
 20
412.088256043
  0
VERTEX
  8
0
 62
7
  6
CONTINUOUS
 10
165.0538705969
 20
410.590203542
  0
VERTEX
  8
0
 62
7
  6
CONTINUOUS
 10
165.4279076444
 20
409.1149469902
  0
VERTEX
  8
0
 62
7
  6
CONTINUOUS
 10
165.9055792249
 20
407.6699063844
  0
VERTEX
  8
0
 62
7
  6
CONTINUOUS
 10
166.4844828265
 20
406.2623497462
  0
VERTEX
  8
0
 62
7
  6
CONTINUOUS
 10
167.1617067773
 20
404.8993565667
  0
VERTEX
  8
0
 62
7
  6
CONTINUOUS
 10
167.9338448905
 20
403.5877821992
  0
VERTEX
  8
0
 62
7
  6
CONTINUOUS
 10
168.7970135961
 20
402.3342233794
  0
VERTEX
  8
0
 62
7
  6
CONTINUOUS
 10
169.7468714735
 20
401.144985046
  0
VERTEX
  8
0
 62
7
  6
CONTINUOUS
 10
170.7786410877
 20
400.0260486297
  0
VERTEX
  8
0
 62
7
  6
CONTINUOUS
 10
171.887133018
 20
398.983041968
  0
VERTEX
  8
0
 62
7
  6
CONTINUOUS
 10
173.0667719584
 20
398.0212110001
  0
VERTEX
  8
0
 62
7
  6
CONTINUOUS
 10
174.3116247598
 20
397.1453933813
  0
VERTEX
  8
0
 62
7
  6
CONTINUOUS
 10
175.6154302716
 20
396.3599941513
  0
VERTEX
  8
0
 62
7
  6
CONTINUOUS
 10
176.9716308325
 20
395.6689635789
  0
VERTEX
  8
0
 62
7
  6
CONTINUOUS
 10
178.3734052536
 20
395.075777293
  0
VERTEX
  8
0
 62
7
  6
CONTINUOUS
 10
179.8137031263
 20
394.583418802
  0
VERTEX
  8
0
 62
7
  6
CONTINUOUS
 10
181.285280283
 20
394.1943644877
  0
VERTEX
  8
0
 62
7
  6
CONTINUOUS
 10
182.7807352332
 20
393.91057115
  0
VERTEX
  8
0
 62
7
  6
CONTINUOUS
 10
184.2925463895
 20
393.7334661646
  0
VERTEX
  8
0
 62
7
  6
CONTINUOUS
 10
185.8131098992
 20
393.6639403043
  0
VERTEX
  8
0
 62
7
  6
CONTINUOUS
 10
187.3347778882
 20
393.7023432587
  0
VERTEX
  8
0
 62
7
  6
CONTINUOUS
 10
188.8498969274
 20
393.8484818751
  0
VERTEX
  8
0
 62
7
  6
CONTINUOUS
 10
190.3505631383
 20
394.1015629357
  0
VERTEX
  8
0
 62
7
  6
CONTINUOUS
 10
191.8300774622
 20
394.4604878262
  0
VERTEX
  8
0
 62
7
  6
CONTINUOUS
 10
193.2817835896
 20
394.9238631111
  0
VERTEX
  8
0
 62
7
  6
CONTINUOUS
 10
194.6980050901
 20
395.4895290593
  0
SEQEND
  0
LINE
  8
0
 62
7
  6
CONTINUOUS
 10
186.2729980978
 20
405.4495341716
 11
186.2729980978
 21
424.9812470649
  0
LINE
  8
0
 62
7
  6
CONTINUOUS
 10
186.7729980978
 20
424.9776722915
 11
186.7729980978
 21
405.4459593982
  0
POLYLINE
  8
0
 62
7
  6
CONTINUOUS
 66
1
 70
0
  0
VERTEX
  8
0
 62
7
  6
CONTINUOUS
 10
186.2729980978
 20
424.9812470663
  0
VERTEX
  8
0
 62
7
  6
CONTINUOUS
 10
186.2775996391
 20
425.1602310925
  0
VERTEX
  8
0
 62
7
  6
CONTINUOUS
 10
186.2920644424
 20
425.3451935187
  0
VERTEX
  8
0
 62
7
  6
CONTINUOUS
 10
186.3175737452
 20
425.5366997306
  0
VERTEX
  8
0
 62
7
  6
CONTINUOUS
 10
186.354547183
 20
425.7305195194
  0
VERTEX
  8
0
 62
7
  6
CONTINUOUS
 10
186.4027075193
 20
425.9228942379
  0
VERTEX
  8
0
 62
7
  6
CONTINUOUS
 10
186.4620266086
 20
426.1130532951
  0
VERTEX
  8
0
 62
7
  6
CONTINUOUS
 10
186.5319649304
 20
426.2991338268
  0
VERTEX
  8
0
 62
7
  6
CONTINUOUS
 10
186.6124081737
 20
426.4809328544
  0
VERTEX
  8
0
 62
7
  6
CONTINUOUS
 10
186.7030911722
 20
426.6578530922
  0
VERTEX
  8
0
 62
7
  6
CONTINUOUS
 10
186.8037074832
 20
426.8293040716
  0
VERTEX
  8
0
 62
7
  6
CONTINUOUS
 10
186.9139193556
 20
426.9947226339
  0
VERTEX
  8
0
 62
7
  6
CONTINUOUS
 10
187.0333423846
 20
427.1535502886
  0
VERTEX
  8
0
 62
7
  6
CONTINUOUS
 10
187.1615506821
 20
427.3052494641
  0
VERTEX
  8
0
 62
7
  6
CONTINUOUS
 10
187.2981243636
 20
427.4493510903
  0
SEQEND
  0
POLYLINE
  8
0
 62
7
  6
CONTINUOUS
 66
1
 70
0
  0
VERTEX
  8
0
 62
7
  6
CONTINUOUS
 10
204.5414053934
 20
415.1833577567
  0
VERTEX
  8
0
 62
7
  6
CONTINUOUS
 10
204.4903595638
 20
416.5568218341
  0
VERTEX
  8
0
 62
7
  6
CONTINUOUS
 10
204.3375036373
 20
417.922710057
  0
VERTEX
  8
0
 62
7
  6
CONTINUOUS
 10
204.0836807478
 20
419.2734883583
  0
VERTEX
  8
0
 62
7
  6
CONTINUOUS
 10
203.7302909505
 20
420.6017060152
  0
VERTEX
  8
0
 62
7
  6
CONTINUOUS
 10
203.2792834989
 20
421.9000367469
  0
VERTEX
  8
0
 62
7
  6
CONTINUOUS
 10
202.7331460931
 20
423.1613191249
  0
VERTEX
  8
0
 62
7
  6
CONTINUOUS
 10
202.0948911582
 20
424.3785960746
  0
VERTEX
  8
0
 62
7
  6
CONTINUOUS
 10
201.3680392278
 20
425.54515325
  0
VERTEX
  8
0
 62
7
  6
CONTINUOUS
 10
200.5565995255
 20
426.654556069
  0
VERTEX
  8
0
 62
7
  6
CONTINUOUS
 10
199.6650478503
 20
427.7006852056
  0
VERTEX
  8
0
 62
7
  6
CONTINUOUS
 10
198.6983018887
 20
428.6777703435
  0
VERTEX
  8
0
 62
7
  6
CONTINUOUS
 10
197.6616940895
 20
429.5804220044
  0
VERTEX
  8
0
 62
7
  6
CONTINUOUS
 10
196.560942407
 20
430.4036611673
  0
VERTEX
  8
0
 62
7
  6
CONTINUOUS
 10
195.4021179799
 20
431.142947273
  0
VERTEX
  8
0
 62
7
  6
CONTINUOUS
 10
194.1916121812
 20
431.7942026919
  0
VERTEX
  8
0
 62
7
  6
CONTINUOUS
 10
192.9361020956
 20
432.3538349179
  0
SEQEND
  0
POLYLINE
  8
0
 62
7
  6
CONTINUOUS
 66
1
 70
0
  0
VERTEX
  8
0
 62
7
  6
CONTINUOUS
 10
186.7729980978
 20
405.4459593982
  0
VERTEX
  8
0
 62
7
  6
CONTINUOUS
 10
186.7767122452
 20
405.2964108457
  0
VERTEX
  8
0
 62
7
  6
CONTINUOUS
 10
186.7882871589
 20
405.1428269749
  0
VERTEX
  8
0
 62
7
  6
CONTINUOUS
 10
186.8083978427
 20
404.9854683954
  0
VERTEX
  8
0
 62
7
  6
CONTINUOUS
 10
186.8375903774
 20
404.825438851
  0
VERTEX
  8
0
 62
7
  6
CONTINUOUS
 10
186.8763545576
 20
404.6635709784
  0
VERTEX
  8
0
 62
7
  6
CONTINUOUS
 10
186.9249307457
 20
404.5012599096
  0
VERTEX
  8
0
 62
7
  6
CONTINUOUS
 10
186.9833306409
 20
404.3399646631
  0
VERTEX
  8
0
 62
7
  6
CONTINUOUS
 10
187.0516812237
 20
404.1803850914
  0
VERTEX
  8
0
 62
7
  6
CONTINUOUS
 10
187.1300890541
 20
404.0231823259
  0
VERTEX
  8
0
 62
7
  6
CONTINUOUS
 10
187.218052982
 20
403.8699659136
  0
VERTEX
  8
0
 62
7
  6
CONTINUOUS
 10
187.3149116182
 20
403.7220875526
  0
VERTEX
  8
0
 62
7
  6
CONTINUOUS
 10
187.420034026
 20
403.580467404
  0
VERTEX
  8
0
 62
7
  6
CONTINUOUS
 10
187.5324030628
 20
403.4462296591
  0
VERTEX
  8
0
 62
7
  6
CONTINUOUS
 10
187.6516777542
 20
403.3194697295
  0
SEQEND
  0
LINE
  8
0
 62
7
  6
CONTINUOUS
 10
194.4500566611
 20
434.5152593378
 11
194.4500566611
 21
434.3806298154
  0
POLYLINE
  8
0
 62
7
  6
CONTINUOUS
 66
1
 70
0
  0
VERTEX
  8
0
 62
7
  6
CONTINUOUS
 10
207.1747212494
 20
415.1240630688
  0
VERTEX
  8
0
 62
7
  6
CONTINUOUS
 10
207.1214539237
 20
416.6236746245
  0
VERTEX
  8
0
 62
7
  6
CONTINUOUS
 10
206.9619203605
 20
418.1157296356
  0
VERTEX
  8
0
 62
7
  6
CONTINUOUS
 10
206.6969244497
 20
419.5927096349
  0
VERTEX
  8
0
 62
7
  6
CONTINUOUS
 10
206.3278015062
 20
421.047172118
  0
VERTEX
  8
0
 62
7
  6
CONTINUOUS
 10
205.8564115408
 20
422.4717880467
  0
VERTEX
  8
0
 62
7
  6
CONTINUOUS
 10
205.2851298883
 20
423.8593787793
  0
VERTEX
  8
0
 62
7
  6
CONTINUOUS
 10
204.6168352377
 20
425.2029522442
  0
VERTEX
  8
0
 62
7
  6
CONTINUOUS
 10
203.8548951266
 20
426.4957381729
  0
VERTEX
  8
0
 62
7
  6
CONTINUOUS
 10
203.0031489723
 20
427.7312222155
  0
VERTEX
  8
0
 62
7
  6
CONTINUOUS
 10
202.0658887248
 20
428.9031787661
  0
VERTEX
  8
0
 62
7
  6
CONTINUOUS
 10
201.0478372397
 20
430.005702334
  0
VERTEX
  8
0
 62
7
  6
CONTINUOUS
 10
199.9541244799
 20
431.0332373017
  0
VERTEX
  8
0
 62
7
  6
CONTINUOUS
 10
198.7902618056
 20
431.9806058128
  0
VERTEX
  8
0
 62
7
  6
CONTINUOUS
 10
197.5621135026
 20
432.8430343938
  0
VERTEX
  8
0
 62
7
  6
CONTINUOUS
 10
196.2758677094
 20
433.6161774591
  0
VERTEX
  8
0
 62
7
  6
CONTINUOUS
 10
194.9380058923
 20
434.2961389002
  0
SEQEND
  0
POLYLINE
  8
0
 62
7
  6
CONTINUOUS
 66
1
 70
0
  0
VERTEX
  8
0
 62
7
  6
CONTINUOUS
 10
3.7770847566
 20
278.6338429716
  0
VERTEX
  8
0
 62
7
  6
CONTINUOUS
 10
3.3453079425
 20
278.6151803084
  0
VERTEX
  8
0
 62
7
  6
CONTINUOUS
 10
2.6763542658
 20
278.5112791717
  0
VERTEX
  8
0
 62
7
  6
CONTINUOUS
 10
2.0434390378
 20
278.3239400661
  0
VERTEX
  8
0
 62
7
  6
CONTINUOUS
 10
1.4563142598
 20
278.0631561957
  0
VERTEX
  8
0
 62
7
  6
CONTINUOUS
 10
0.9229316482
 20
277.7401297145
  0
VERTEX
  8
0
 62
7
  6
CONTINUOUS
 10
0.4486522234
 20
277.366552747
  0
VERTEX
  8
0
 62
7
  6
CONTINUOUS
 10
0.0368866285
 20
276.9545771433
  0
VERTEX
  8
0
 62
7
  6
CONTINUOUS
 10
-0.3114347222
 20
276.5159230424
  0
VERTEX
  8
0
 62
7
  6
CONTINUOUS
 10
-0.5970400737
 20
276.0622544102
  0
VERTEX
  8
0
 62
7
  6
CONTINUOUS
 10
-0.8254531019
 20
275.597878178
  0
VERTEX
  8
0
 62
7
  6
CONTINUOUS
 10
-0.9933015882
 20
275.1501393504
  0
VERTEX
  8
0
 62
7
  6
CONTINUOUS
 10
-1.1076514901
 20
274.7370900813
  0
VERTEX
  8
0
 62
7
  6
CONTINUOUS
 10
-1.1779538021
 20
274.3812899466
  0
VERTEX
  8
0
 62
7
  6
CONTINUOUS
 10
-1.2145150876
 20
274.1213934952
  0
VERTEX
  8
0
 62
7
  6
CONTINUOUS
 10
-1.2363314989
 20
273.9106998438
  0
VERTEX
  8
0
 62
7
  6
CONTINUOUS
 10
-1.251439815
 20
273.7172388058
  0
VERTEX
  8
0
 62
7
  6
CONTINUOUS
 10
-1.2626298647
 20
273.5313686144
  0
VERTEX
  8
0
 62
7
  6
CONTINUOUS
 10
-1.2718736028
 20
273.3358356779
  0
VERTEX
  8
0
 62
7
  6
CONTINUOUS
 10
-1.2796314054
 20
273.1292959018
  0
VERTEX
  8
0
 62
7
  6
CONTINUOUS
 10
-1.286253639
 20
272.9092834411
  0
VERTEX
  8
0
 62
7
  6
CONTINUOUS
 10
-1.2920268453
 20
272.6707852103
  0
VERTEX
  8
0
 62
7
  6
CONTINUOUS
 10
-1.2971316507
 20
272.4071048126
  0
VERTEX
  8
0
 62
7
  6
CONTINUOUS
 10
-1.3015521971
 20
272.117370178
  0
VERTEX
  8
0
 62
7
  6
CONTINUOUS
 10
-1.3052881835
 20
271.7990057893
  0
SEQEND
  0
POLYLINE
  8
0
 62
7
  6
CONTINUOUS
 66
1
 70
0
  0
VERTEX
  8
0
 62
7
  6
CONTINUOUS
 10
42.2812737936
 20
272.492097588
  0
VERTEX
  8
0
 62
7
  6
CONTINUOUS
 10
42.237520537
 20
272.4910059386
  0
VERTEX
  8
0
 62
7
  6
CONTINUOUS
 10
42.0327043836
 20
272.4610871425
  0
SEQEND
  0
LINE
  8
0
 62
7
  6
CONTINUOUS
 10
329.7855988535
 20
272.4920985683
 11
42.2798099136
 21
272.4920985683
  0
LINE
  8
0
 62
7
  6
CONTINUOUS
 10
43.0326799589
 20
275.9968216232
 11
329.0326946805
 21
275.9968216232
  0
LINE
  8
0
 62
7
  6
CONTINUOUS
 10
42.0327043836
 20
278.6338445857
 11
3.7770811615
 21
278.6338445857
  0
LINE
  8
0
 62
7
  6
CONTINUOUS
 10
330.0327043836
 20
278.6338445857
 11
368.2883275889
 21
278.6338445857
  0
LINE
  8
0
 62
7
  6
CONTINUOUS
 10
329.0327043836
 20
272.4920985683
 11
329.0327043835
 21
275.5877064391
  0
LINE
  8
0
 62
7
  6
CONTINUOUS
 10
329.0327043836
 20
275.9845263744
 11
329.0327043836
 21
277.6337189552
  0
LINE
  8
0
 62
7
  6
CONTINUOUS
 10
329.0327043835
 20
275.5877064391
 11
329.0327012311
 21
275.9968216232
  0
POLYLINE
  8
0
 62
7
  6
CONTINUOUS
 66
1
 70
0
  0
VERTEX
  8
0
 62
7
  6
CONTINUOUS
 10
369.878343701
 20
341.1409946765
  0
VERTEX
  8
0
 62
7
  6
CONTINUOUS
 10
370.7713299532
 20
341.3513387874
  0
VERTEX
  8
0
 62
7
  6
CONTINUOUS
 10
371.8058320002
 20
341.647488954
  0
VERTEX
  8
0
 62
7
  6
CONTINUOUS
 10
372.82386444
 20
341.9962193569
  0
VERTEX
  8
0
 62
7
  6
CONTINUOUS
 10
373.8227040654
 20
342.396667826
  0
VERTEX
  8
0
 62
7
  6
CONTINUOUS
 10
374.7997102008
 20
342.8477690946
  0
VERTEX
  8
0
 62
7
  6
CONTINUOUS
 10
375.7523064575
 20
343.3483072657
  0
VERTEX
  8
0
 62
7
  6
CONTINUOUS
 10
376.6779620129
 20
343.8969755246
  0
VERTEX
  8
0
 62
7
  6
CONTINUOUS
 10
377.5742473458
 20
344.4923051532
  0
VERTEX
  8
0
 62
7
  6
CONTINUOUS
 10
378.4387714745
 20
345.1327116657
  0
VERTEX
  8
0
 62
7
  6
CONTINUOUS
 10
379.2693291433
 20
345.8165453574
  0
VERTEX
  8
0
 62
7
  6
CONTINUOUS
 10
380.0637779901
 20
346.5419999061
  0
VERTEX
  8
0
 62
7
  6
CONTINUOUS
 10
380.8200617302
 20
347.3072763383
  0
VERTEX
  8
0
 62
7
  6
CONTINUOUS
 10
381.536288454
 20
348.1104267387
  0
VERTEX
  8
0
 62
7
  6
CONTINUOUS
 10
382.2105362794
 20
348.9493518781
  0
VERTEX
  8
0
 62
7
  6
CONTINUOUS
 10
382.8410223515
 20
349.8219148059
  0
VERTEX
  8
0
 62
7
  6
CONTINUOUS
 10
383.425997223
 20
350.7257811722
  0
VERTEX
  8
0
 62
7
  6
CONTINUOUS
 10
383.9639209737
 20
351.6585080513
  0
VERTEX
  8
0
 62
7
  6
CONTINUOUS
 10
384.4533940485
 20
352.6176050836
  0
VERTEX
  8
0
 62
7
  6
CONTINUOUS
 10
384.8930325114
 20
353.6005460989
  0
VERTEX
  8
0
 62
7
  6
CONTINUOUS
 10
385.2816945245
 20
354.6047563307
  0
VERTEX
  8
0
 62
7
  6
CONTINUOUS
 10
385.6183669323
 20
355.6275807397
  0
VERTEX
  8
0
 62
7
  6
CONTINUOUS
 10
385.9021555873
 20
356.6663341561
  0
VERTEX
  8
0
 62
7
  6
CONTINUOUS
 10
386.1323514905
 20
357.7182742114
  0
VERTEX
  8
0
 62
7
  6
CONTINUOUS
 10
386.3083054771
 20
358.7806443204
  0
VERTEX
  8
0
 62
7
  6
CONTINUOUS
 10
386.4295632371
 20
359.8506526168
  0
VERTEX
  8
0
 62
7
  6
CONTINUOUS
 10
386.4888614042
 20
360.7523763099
  0
SEQEND
  0
POLYLINE
  8
0
 62
7
  6
CONTINUOUS
 66
1
 70
0
  0
VERTEX
  8
0
 62
7
  6
CONTINUOUS
 10
368.5010661133
 20
339.7712513774
  0
VERTEX
  8
0
 62
7
  6
CONTINUOUS
 10
369.3180626361
 20
339.9427021149
  0
VERTEX
  8
0
 62
7
  6
CONTINUOUS
 10
370.2936860452
 20
340.1949008948
  0
VERTEX
  8
0
 62
7
  6
CONTINUOUS
 10
371.2552518509
 20
340.4959382167
  0
VERTEX
  8
0
 62
7
  6
CONTINUOUS
 10
372.2003352903
 20
340.845042795
  0
VERTEX
  8
0
 62
7
  6
CONTINUOUS
 10
373.1265603128
 20
341.2413012155
  0
VERTEX
  8
0
 62
7
  6
CONTINUOUS
 10
374.0315920194
 20
341.683698815
  0
VERTEX
  8
0
 62
7
  6
CONTINUOUS
 10
374.9131325442
 20
342.1711499708
  0
VERTEX
  8
0
 62
7
  6
CONTINUOUS
 10
375.7689844237
 20
342.7023719285
  0
VERTEX
  8
0
 62
7
  6
CONTINUOUS
 10
376.5969763261
 20
343.2760420036
  0
VERTEX
  8
0
 62
7
  6
CONTINUOUS
 10
377.3950064471
 20
343.8907146853
  0
VERTEX
  8
0
 62
7
  6
CONTINUOUS
 10
378.1610681454
 20
344.5448228718
  0
VERTEX
  8
0
 62
7
  6
CONTINUOUS
 10
378.8932146376
 20
345.2366991001
  0
VERTEX
  8
0
 62
7
  6
CONTINUOUS
 10
379.5895835996
 20
345.9645863911
  0
VERTEX
  8
0
 62
7
  6
CONTINUOUS
 10
380.2484101047
 20
346.7266440164
  0
VERTEX
  8
0
 62
7
  6
CONTINUOUS
 10
380.2564967404
 20
346.7370102043
  0
SEQEND
  0
POLYLINE
  8
0
 62
7
  6
CONTINUOUS
 66
1
 70
0
  0
VERTEX
  8
0
 62
7
  6
CONTINUOUS
 10
311.3147364535
 20
330.7609566439
  0
VERTEX
  8
0
 62
7
  6
CONTINUOUS
 10
316.7944685257
 20
331.4564750024
  0
VERTEX
  8
0
 62
7
  6
CONTINUOUS
 10
329.7978965363
 20
333.2830709457
  0
VERTEX
  8
0
 62
7
  6
CONTINUOUS
 10
342.7759226291
 20
335.2825335909
  0
VERTEX
  8
0
 62
7
  6
CONTINUOUS
 10
355.7262440926
 20
337.4545103715
  0
VERTEX
  8
0
 62
7
  6
CONTINUOUS
 10
368.5010696977
 20
339.7712318244
  0
SEQEND
  0
LINE
  8
0
 62
7
  6
CONTINUOUS
 10
67.3212519233
 20
329.8204916
 11
67.336907324
 21
329.8183703413
  0
POLYLINE
  8
0
 62
7
  6
CONTINUOUS
 66
1
 70
0
  0
VERTEX
  8
0
 62
7
  6
CONTINUOUS
 10
330.0327043836
 20
272.4610871425
  0
VERTEX
  8
0
 62
7
  6
CONTINUOUS
 10
329.8285628938
 20
272.4909669272
  0
VERTEX
  8
0
 62
7
  6
CONTINUOUS
 10
329.7840754317
 20
272.4920975078
  0
SEQEND
  0
POLYLINE
  8
0
 62
7
  6
CONTINUOUS
 66
1
 70
0
  0
VERTEX
  8
0
 62
7
  6
CONTINUOUS
 10
3.5643390722
 20
339.7712318239
  0
VERTEX
  8
0
 62
7
  6
CONTINUOUS
 10
16.3391645923
 20
337.4545103859
  0
VERTEX
  8
0
 62
7
  6
CONTINUOUS
 10
29.2894860694
 20
335.2825336018
  0
VERTEX
  8
0
 62
7
  6
CONTINUOUS
 10
42.2675121909
 20
333.2830709515
  0
VERTEX
  8
0
 62
7
  6
CONTINUOUS
 10
55.2709402313
 20
331.4564750038
  0
VERTEX
  8
0
 62
7
  6
CONTINUOUS
 10
60.750672306
 20
330.760956645
  0
SEQEND
  0
POLYLINE
  8
0
 62
7
  6
CONTINUOUS
 66
1
 70
0
  0
VERTEX
  8
0
 62
7
  6
CONTINUOUS
 10
373.3701895095
 20
271.847950415
  0
VERTEX
  8
0
 62
7
  6
CONTINUOUS
 10
373.3669386584
 20
272.1190210697
  0
VERTEX
  8
0
 62
7
  6
CONTINUOUS
 10
373.3631475522
 20
272.3713332066
  0
VERTEX
  8
0
 62
7
  6
CONTINUOUS
 10
373.3588129854
 20
272.6054472371
  0
VERTEX
  8
0
 62
7
  6
CONTINUOUS
 10
373.3539060102
 20
272.8227184144
  0
VERTEX
  8
0
 62
7
  6
CONTINUOUS
 10
373.3483758576
 20
273.0244513264
  0
VERTEX
  8
0
 62
7
  6
CONTINUOUS
 10
373.3421479475
 20
273.2118241133
  0
VERTEX
  8
0
 62
7
  6
CONTINUOUS
 10
373.3351047803
 20
273.3862468081
  0
VERTEX
  8
0
 62
7
  6
CONTINUOUS
 10
373.3269935961
 20
273.5508096344
  0
VERTEX
  8
0
 62
7
  6
CONTINUOUS
 10
373.3175658984
 20
273.706616677
  0
VERTEX
  8
0
 62
7
  6
CONTINUOUS
 10
373.30565569
 20
273.8653777929
  0
VERTEX
  8
0
 62
7
  6
CONTINUOUS
 10
373.2898844026
 20
274.0326575889
  0
VERTEX
  8
0
 62
7
  6
CONTINUOUS
 10
373.2661547735
 20
274.2292243871
  0
VERTEX
  8
0
 62
7
  6
CONTINUOUS
 10
373.2268659705
 20
274.4769841314
  0
VERTEX
  8
0
 62
7
  6
CONTINUOUS
 10
373.1633938229
 20
274.7778622064
  0
VERTEX
  8
0
 62
7
  6
CONTINUOUS
 10
373.0595306666
 20
275.1475909194
  0
VERTEX
  8
0
 62
7
  6
CONTINUOUS
 10
372.9083418377
 20
275.5566957848
  0
VERTEX
  8
0
 62
7
  6
CONTINUOUS
 10
372.7064026207
 20
275.9816802047
  0
VERTEX
  8
0
 62
7
  6
CONTINUOUS
 10
372.4502166523
 20
276.4092144172
  0
VERTEX
  8
0
 62
7
  6
CONTINUOUS
 10
372.1445047274
 20
276.8194293739
  0
VERTEX
  8
0
 62
7
  6
CONTINUOUS
 10
371.7864242608
 20
277.2082842817
  0
VERTEX
  8
0
 62
7
  6
CONTINUOUS
 10
371.3770716806
 20
277.5669244754
  0
VERTEX
  8
0
 62
7
  6
CONTINUOUS
 10
370.9177340005
 20
277.887381625
  0
VERTEX
  8
0
 62
7
  6
CONTINUOUS
 10
370.4114618681
 20
278.1611176404
  0
VERTEX
  8
0
 62
7
  6
CONTINUOUS
 10
369.8621982976
 20
278.3798929828
  0
VERTEX
  8
0
 62
7
  6
CONTINUOUS
 10
369.2755500767
 20
278.5354937246
  0
VERTEX
  8
0
 62
7
  6
CONTINUOUS
 10
368.6584513403
 20
278.6201360519
  0
VERTEX
  8
0
 62
7
  6
CONTINUOUS
 10
368.2883260737
 20
278.633842977
  0
SEQEND
  0
POLYLINE
  8
0
 62
7
  6
CONTINUOUS
 66
1
 70
0
  0
VERTEX
  8
0
 62
7
  6
CONTINUOUS
 10
373.3750585045
 20
271.246928385
  0
VERTEX
  8
0
 62
7
  6
CONTINUOUS
 10
373.3728994324
 20
271.557364818
  0
VERTEX
  8
0
 62
7
  6
CONTINUOUS
 10
373.3701895095
 20
271.847950415
  0
SEQEND
  0
POLYLINE
  8
0
 62
7
  6
CONTINUOUS
 66
1
 70
0
  0
VERTEX
  8
0
 62
7
  6
CONTINUOUS
 10
373.3756639161
 20
268.9565542598
  0
VERTEX
  8
0
 62
7
  6
CONTINUOUS
 10
373.377110602
 20
269.3891122956
  0
VERTEX
  8
0
 62
7
  6
CONTINUOUS
 10
373.3779176448
 20
269.8015366857
  0
VERTEX
  8
0
 62
7
  6
CONTINUOUS
 10
373.3781002283
 20
270.1935885715
  0
VERTEX
  8
0
 62
7
  6
CONTINUOUS
 10
373.3776739982
 20
270.5651746171
  0
VERTEX
  8
0
 62
7
  6
CONTINUOUS
 10
373.3766549514
 20
270.9162436613
  0
VERTEX
  8
0
 62
7
  6
CONTINUOUS
 10
373.3750585045
 20
271.246928385
  0
SEQEND
  0
POLYLINE
  8
0
 62
7
  6
CONTINUOUS
 66
1
 70
0
  0
VERTEX
  8
0
 62
7
  6
CONTINUOUS
 10
374.5046339044
 20
305.9773809773
  0
VERTEX
  8
0
 62
7
  6
CONTINUOUS
 10
374.7608269122
 20
321.0508739199
  0
VERTEX
  8
0
 62
7
  6
CONTINUOUS
 10
375.1079066541
 20
340.9627607474
  0
VERTEX
  8
0
 62
7
  6
CONTINUOUS
 10
375.1318973526
 20
342.3069359317
  0
SEQEND
  0
POLYLINE
  8
0
 62
7
  6
CONTINUOUS
 66
1
 70
0
  0
VERTEX
  8
0
 62
7
  6
CONTINUOUS
 10
373.2724677993
 20
260.5407668998
  0
VERTEX
  8
0
 62
7
  6
CONTINUOUS
 10
373.2825077551
 20
261.0910757011
  0
VERTEX
  8
0
 62
7
  6
CONTINUOUS
 10
373.293806119
 20
261.7388314684
  0
VERTEX
  8
0
 62
7
  6
CONTINUOUS
 10
373.3043992738
 20
262.3780304802
  0
VERTEX
  8
0
 62
7
  6
CONTINUOUS
 10
373.3142784696
 20
263.0072510402
  0
VERTEX
  8
0
 62
7
  6
CONTINUOUS
 10
373.323437407
 20
263.625164251
  0
VERTEX
  8
0
 62
7
  6
CONTINUOUS
 10
373.3318722544
 20
264.2305300505
  0
VERTEX
  8
0
 62
7
  6
CONTINUOUS
 10
373.3395817722
 20
264.8222069921
  0
VERTEX
  8
0
 62
7
  6
CONTINUOUS
 10
373.3465667367
 20
265.3991402505
  0
VERTEX
  8
0
 62
7
  6
CONTINUOUS
 10
373.3528301366
 20
265.9603726423
  0
VERTEX
  8
0
 62
7
  6
CONTINUOUS
 10
373.3583771353
 20
266.5050363201
  0
VERTEX
  8
0
 62
7
  6
CONTINUOUS
 10
373.3632145007
 20
267.0323639583
  0
VERTEX
  8
0
 62
7
  6
CONTINUOUS
 10
373.3673505379
 20
267.5416369107
  0
VERTEX
  8
0
 62
7
  6
CONTINUOUS
 10
373.3707963313
 20
268.0323778745
  0
VERTEX
  8
0
 62
7
  6
CONTINUOUS
 10
373.3735635456
 20
268.5041863955
  0
VERTEX
  8
0
 62
7
  6
CONTINUOUS
 10
373.3756639161
 20
268.9565542598
  0
SEQEND
  0
LINE
  8
0
 62
7
  6
CONTINUOUS
 10
368.2360327981
 20
-10.0699833
 11
373.2724678131
 21
260.5407668993
  0
POLYLINE
  8
0
 62
7
  6
CONTINUOUS
 66
1
 70
0
  0
VERTEX
  8
0
 62
7
  6
CONTINUOUS
 10
187.6516777542
 20
403.3194697295
  0
VERTEX
  8
0
 62
7
  6
CONTINUOUS
 10
188.4208281508
 20
402.5479440651
  0
VERTEX
  8
0
 62
7
  6
CONTINUOUS
 10
189.2349550712
 20
401.7309446281
  0
VERTEX
  8
0
 62
7
  6
CONTINUOUS
 10
190.0943787421
 20
400.8681793475
  0
VERTEX
  8
0
 62
7
  6
CONTINUOUS
 10
190.9981384837
 20
399.960524436
  0
VERTEX
  8
0
 62
7
  6
CONTINUOUS
 10
191.9452736167
 20
399.0088561062
  0
VERTEX
  8
0
 62
7
  6
CONTINUOUS
 10
192.9361043675
 20
398.0128822872
  0
SEQEND
  0
POLYLINE
  8
0
 62
7
  6
CONTINUOUS
 66
1
 70
0
  0
VERTEX
  8
0
 62
7
  6
CONTINUOUS
 10
192.5153926896
 20
397.7296274336
  0
VERTEX
  8
0
 62
7
  6
CONTINUOUS
 10
191.544782424
 20
398.7052404912
  0
VERTEX
  8
0
 62
7
  6
CONTINUOUS
 10
190.6142794838
 20
399.6401678324
  0
VERTEX
  8
0
 62
7
  6
CONTINUOUS
 10
189.7235849075
 20
400.5346829243
  0
VERTEX
  8
0
 62
7
  6
CONTINUOUS
 10
188.8735955798
 20
401.387965366
  0
VERTEX
  8
0
 62
7
  6
CONTINUOUS
 10
188.0652083857
 20
402.1991947563
  0
VERTEX
  8
0
 62
7
  6
CONTINUOUS
 10
187.2981243636
 20
402.9686445623
  0
SEQEND
  0
POLYLINE
  8
0
 62
7
  6
CONTINUOUS
 66
1
 70
0
  0
VERTEX
  8
0
 62
7
  6
CONTINUOUS
 10
194.6952725432
 20
395.4861492863
  0
VERTEX
  8
0
 62
7
  6
CONTINUOUS
 10
194.1126572006
 20
396.0859017206
  0
VERTEX
  8
0
 62
7
  6
CONTINUOUS
 10
193.5551387775
 20
396.6597322233
  0
VERTEX
  8
0
 62
7
  6
CONTINUOUS
 10
193.0227172738
 20
397.2076407943
  0
VERTEX
  8
0
 62
7
  6
CONTINUOUS
 10
192.5153926896
 20
397.7296274336
  0
SEQEND
  0
POLYLINE
  8
0
 62
7
  6
CONTINUOUS
 66
1
 70
0
  0
VERTEX
  8
0
 62
7
  6
CONTINUOUS
 10
192.9361043675
 20
398.0128822872
  0
VERTEX
  8
0
 62
7
  6
CONTINUOUS
 10
194.2316616191
 20
396.6792865545
  0
VERTEX
  8
0
 62
7
  6
CONTINUOUS
 10
194.5799693139
 20
396.3206640093
  0
VERTEX
  8
0
 62
7
  6
CONTINUOUS
 10
194.9380084423
 20
395.9519884105
  0
SEQEND
  0
POLYLINE
  8
0
 62
7
  6
CONTINUOUS
 66
1
 70
0
  0
VERTEX
  8
0
 62
7
  6
CONTINUOUS
 10
187.2981243636
 20
402.9686442922
  0
VERTEX
  8
0
 62
7
  6
CONTINUOUS
 10
187.1620118769
 20
403.1131090705
  0
VERTEX
  8
0
 62
7
  6
CONTINUOUS
 10
187.0342395086
 20
403.2650931851
  0
VERTEX
  8
0
 62
7
  6
CONTINUOUS
 10
186.9152248894
 20
403.4241149987
  0
VERTEX
  8
0
 62
7
  6
CONTINUOUS
 10
186.8053531263
 20
403.5896737956
  0
VERTEX
  8
0
 62
7
  6
CONTINUOUS
 10
186.7049713849
 20
403.7612675452
  0
VERTEX
  8
0
 62
7
  6
CONTINUOUS
 10
186.6144428622
 20
403.9382919017
  0
VERTEX
  8
0
 62
7
  6
CONTINUOUS
 10
186.5341043344
 20
404.1200729884
  0
VERTEX
  8
0
 62
7
  6
CONTINUOUS
 10
186.4641423546
 20
404.3061835755
  0
VERTEX
  8
0
 62
7
  6
CONTINUOUS
 10
186.4046622849
 20
404.4964957642
  0
VERTEX
  8
0
 62
7
  6
CONTINUOUS
 10
186.3561734237
 20
404.6893993539
  0
VERTEX
  8
0
 62
7
  6
CONTINUOUS
 10
186.3187443756
 20
404.8842946444
  0
VERTEX
  8
0
 62
7
  6
CONTINUOUS
 10
186.2927140113
 20
405.0777732146
  0
VERTEX
  8
0
 62
7
  6
CONTINUOUS
 10
186.277790846
 20
405.2660485199
  0
VERTEX
  8
0
 62
7
  6
CONTINUOUS
 10
186.2729980978
 20
405.449534168
  0
SEQEND
  0
LINE
  8
0
 62
7
  6
CONTINUOUS
 10
383.5317813138
 20
489.2815227218
 11
383.5598217054
 21
486.4026544606
  0
POLYLINE
  8
0
 62
7
  6
CONTINUOUS
 66
1
 70
0
  0
VERTEX
  8
0
 62
7
  6
CONTINUOUS
 10
383.5684547235
 20
486.3254220006
  0
VERTEX
  8
0
 62
7
  6
CONTINUOUS
 10
383.5455123401
 20
486.5306684945
  0
VERTEX
  8
0
 62
7
  6
CONTINUOUS
 10
383.4880518758
 20
486.8723228249
  0
VERTEX
  8
0
 62
7
  6
CONTINUOUS
 10
383.4124168073
 20
487.1897506774
  0
VERTEX
  8
0
 62
7
  6
CONTINUOUS
 10
383.3235335099
 20
487.4802386975
  0
VERTEX
  8
0
 62
7
  6
CONTINUOUS
 10
383.2253472656
 20
487.7446741407
  0
VERTEX
  8
0
 62
7
  6
CONTINUOUS
 10
383.1241910208
 20
487.9779455928
  0
VERTEX
  8
0
 62
7
  6
CONTINUOUS
 10
383.0156882179
 20
488.1974496502
  0
VERTEX
  8
0
 62
7
  6
CONTINUOUS
 10
382.8923829243
 20
488.4184686843
  0
VERTEX
  8
0
 62
7
  6
CONTINUOUS
 10
382.7555877206
 20
488.6366831669
  0
VERTEX
  8
0
 62
7
  6
CONTINUOUS
 10
382.5984977269
 20
488.8600061765
  0
VERTEX
  8
0
 62
7
  6
CONTINUOUS
 10
382.43667488
 20
489.0657364065
  0
VERTEX
  8
0
 62
7
  6
CONTINUOUS
 10
382.2906018727
 20
489.2339851945
  0
VERTEX
  8
0
 62
7
  6
CONTINUOUS
 10
382.1549798315
 20
489.3775383862
  0
VERTEX
  8
0
 62
7
  6
CONTINUOUS
 10
382.0325382323
 20
489.497911305
  0
VERTEX
  8
0
 62
7
  6
CONTINUOUS
 10
381.9144210416
 20
489.6065579365
  0
VERTEX
  8
0
 62
7
  6
CONTINUOUS
 10
381.7903750595
 20
489.7134454458
  0
VERTEX
  8
0
 62
7
  6
CONTINUOUS
 10
381.6604666984
 20
489.8181059148
  0
VERTEX
  8
0
 62
7
  6
CONTINUOUS
 10
381.5146954144
 20
489.9273824837
  0
VERTEX
  8
0
 62
7
  6
CONTINUOUS
 10
381.3713206506
 20
490.0270763885
  0
VERTEX
  8
0
 62
7
  6
CONTINUOUS
 10
381.2518350601
 20
490.1046578148
  0
VERTEX
  8
0
 62
7
  6
CONTINUOUS
 10
381.1429066635
 20
490.1712722791
  0
VERTEX
  8
0
 62
7
  6
CONTINUOUS
 10
381.0394170426
 20
490.2310969693
  0
VERTEX
  8
0
 62
7
  6
CONTINUOUS
 10
380.9349752693
 20
490.2881923493
  0
VERTEX
  8
0
 62
7
  6
CONTINUOUS
 10
380.8145108726
 20
490.3501188293
  0
VERTEX
  8
0
 62
7
  6
CONTINUOUS
 10
380.6967910432
 20
490.4067269073
  0
VERTEX
  8
0
 62
7
  6
CONTINUOUS
 10
380.6046801237
 20
490.4484207668
  0
VERTEX
  8
0
 62
7
  6
CONTINUOUS
 10
380.513811236
 20
490.4873822514
  0
VERTEX
  8
0
 62
7
  6
CONTINUOUS
 10
380.3982436872
 20
490.5339050332
  0
VERTEX
  8
0
 62
7
  6
CONTINUOUS
 10
380.2825207486
 20
490.5771858303
  0
VERTEX
  8
0
 62
7
  6
CONTINUOUS
 10
380.185733227
 20
490.6109112637
  0
VERTEX
  8
0
 62
7
  6
CONTINUOUS
 10
380.100862692
 20
490.638670749
  0
VERTEX
  8
0
 62
7
  6
CONTINUOUS
 10
380.030967454
 20
490.6602816698
  0
VERTEX
  8
0
 62
7
  6
CONTINUOUS
 10
379.9644047956
 20
490.679827238
  0
VERTEX
  8
0
 62
7
  6
CONTINUOUS
 10
379.8876660832
 20
490.7011241285
  0
VERTEX
  8
0
 62
7
  6
CONTINUOUS
 10
379.8084845771
 20
490.7217280537
  0
VERTEX
  8
0
 62
7
  6
CONTINUOUS
 10
379.7279328408
 20
490.7412778406
  0
VERTEX
  8
0
 62
7
  6
CONTINUOUS
 10
379.6527427558
 20
490.7582574755
  0
VERTEX
  8
0
 62
7
  6
CONTINUOUS
 10
379.5934476
 20
490.7707922071
  0
VERTEX
  8
0
 62
7
  6
CONTINUOUS
 10
379.5400478381
 20
490.7814403493
  0
VERTEX
  8
0
 62
7
  6
CONTINUOUS
 10
379.4857064116
 20
490.7916575082
  0
VERTEX
  8
0
 62
7
  6
CONTINUOUS
 10
379.4311537937
 20
490.8012904546
  0
VERTEX
  8
0
 62
7
  6
CONTINUOUS
 10
379.3732001087
 20
490.8108432394
  0
VERTEX
  8
0
 62
7
  6
CONTINUOUS
 10
379.3167383145
 20
490.8194794497
  0
VERTEX
  8
0
 62
7
  6
CONTINUOUS
 10
379.2667566292
 20
490.8265749722
  0
VERTEX
  8
0
 62
7
  6
CONTINUOUS
 10
379.2198402287
 20
490.8327678527
  0
VERTEX
  8
0
 62
7
  6
CONTINUOUS
 10
379.1743067461
 20
490.8383469529
  0
VERTEX
  8
0
 62
7
  6
CONTINUOUS
 10
379.1299216273
 20
490.8433778757
  0
VERTEX
  8
0
 62
7
  6
CONTINUOUS
 10
379.0854390793
 20
490.8480174849
  0
VERTEX
  8
0
 62
7
  6
CONTINUOUS
 10
379.0422308338
 20
490.8521395951
  0
VERTEX
  8
0
 62
7
  6
CONTINUOUS
 10
379.0014345063
 20
490.8556846083
  0
VERTEX
  8
0
 62
7
  6
CONTINUOUS
 10
378.9624989413
 20
490.8587542787
  0
VERTEX
  8
0
 62
7
  6
CONTINUOUS
 10
378.9252255572
 20
490.8614064407
  0
VERTEX
  8
0
 62
7
  6
CONTINUOUS
 10
378.8897242666
 20
490.8636723789
  0
VERTEX
  8
0
 62
7
  6
CONTINUOUS
 10
378.8561336636
 20
490.8655830063
  0
VERTEX
  8
0
 62
7
  6
CONTINUOUS
 10
378.8242023288
 20
490.86718913
  0
VERTEX
  8
0
 62
7
  6
CONTINUOUS
 10
378.7936935352
 20
490.8685325646
  0
VERTEX
  8
0
 62
7
  6
CONTINUOUS
 10
378.764805234
 20
490.8696326179
  0
VERTEX
  8
0
 62
7
  6
CONTINUOUS
 10
378.7377029409
 20
490.8705126283
  0
VERTEX
  8
0
 62
7
  6
CONTINUOUS
 10
378.7122716695
 20
490.8712046015
  0
VERTEX
  8
0
 62
7
  6
CONTINUOUS
 10
378.6883490588
 20
490.8717373477
  0
VERTEX
  8
0
 62
7
  6
CONTINUOUS
 10
378.6661155291
 20
490.872129796
  0
VERTEX
  8
0
 62
7
  6
CONTINUOUS
 10
378.6453450899
 20
490.8724070644
  0
VERTEX
  8
0
 62
7
  6
CONTINUOUS
 10
378.6259977377
 20
490.8725877039
  0
VERTEX
  8
0
 62
7
  6
CONTINUOUS
 10
378.6076268619
 20
490.8726899281
  0
VERTEX
  8
0
 62
7
  6
CONTINUOUS
 10
378.5889903831
 20
490.8727246602
  0
SEQEND
  0
POLYLINE
  8
0
 62
7
  6
CONTINUOUS
 66
1
 70
0
  0
VERTEX
  8
0
 62
7
  6
CONTINUOUS
 10
194.6980050901
 20
434.7555379939
  0
VERTEX
  8
0
 62
7
  6
CONTINUOUS
 10
193.2817835896
 20
435.3212039422
  0
VERTEX
  8
0
 62
7
  6
CONTINUOUS
 10
191.8300774622
 20
435.7845792271
  0
VERTEX
  8
0
 62
7
  6
CONTINUOUS
 10
190.3505631383
 20
436.1435041176
  0
VERTEX
  8
0
 62
7
  6
CONTINUOUS
 10
188.8498969274
 20
436.3965851782
  0
VERTEX
  8
0
 62
7
  6
CONTINUOUS
 10
187.3347778882
 20
436.5427237945
  0
VERTEX
  8
0
 62
7
  6
CONTINUOUS
 10
185.8131098992
 20
436.5811267489
  0
VERTEX
  8
0
 62
7
  6
CONTINUOUS
 10
184.2925463895
 20
436.5116008887
  0
VERTEX
  8
0
 62
7
  6
CONTINUOUS
 10
182.7807352332
 20
436.3344959033
  0
VERTEX
  8
0
 62
7
  6
CONTINUOUS
 10
181.285280283
 20
436.0507025655
  0
VERTEX
  8
0
 62
7
  6
CONTINUOUS
 10
179.8137031263
 20
435.6616482512
  0
VERTEX
  8
0
 62
7
  6
CONTINUOUS
 10
178.3734052536
 20
435.1692897603
  0
VERTEX
  8
0
 62
7
  6
CONTINUOUS
 10
176.9716308325
 20
434.5761034744
  0
VERTEX
  8
0
 62
7
  6
CONTINUOUS
 10
175.6154302716
 20
433.8850729019
  0
VERTEX
  8
0
 62
7
  6
CONTINUOUS
 10
174.3116247598
 20
433.0996736719
  0
VERTEX
  8
0
 62
7
  6
CONTINUOUS
 10
173.0667719584
 20
432.2238560531
  0
VERTEX
  8
0
 62
7
  6
CONTINUOUS
 10
171.887133018
 20
431.2620250852
  0
VERTEX
  8
0
 62
7
  6
CONTINUOUS
 10
170.7786410877
 20
430.2190184236
  0
VERTEX
  8
0
 62
7
  6
CONTINUOUS
 10
169.7468714735
 20
429.1000820072
  0
VERTEX
  8
0
 62
7
  6
CONTINUOUS
 10
168.7970135961
 20
427.9108436739
  0
VERTEX
  8
0
 62
7
  6
CONTINUOUS
 10
167.9338448905
 20
426.657284854
  0
VERTEX
  8
0
 62
7
  6
CONTINUOUS
 10
167.1617067773
 20
425.3457104866
  0
VERTEX
  8
0
 62
7
  6
CONTINUOUS
 10
166.4844828265
 20
423.9827173071
  0
VERTEX
  8
0
 62
7
  6
CONTINUOUS
 10
165.9055792249
 20
422.5751606689
  0
VERTEX
  8
0
 62
7
  6
CONTINUOUS
 10
165.4279076444
 20
421.1301200631
  0
VERTEX
  8
0
 62
7
  6
CONTINUOUS
 10
165.0538705969
 20
419.6548635113
  0
VERTEX
  8
0
 62
7
  6
CONTINUOUS
 10
164.7853493509
 20
418.1568110102
  0
VERTEX
  8
0
 62
7
  6
CONTINUOUS
 10
164.6236944693
 20
416.6434972118
  0
VERTEX
  8
0
 62
7
  6
CONTINUOUS
 10
164.5697190166
 20
415.1225335266
  0
SEQEND
  0
POLYLINE
  8
0
 62
7
  6
CONTINUOUS
 66
1
 70
0
  0
VERTEX
  8
0
 62
7
  6
CONTINUOUS
 10
194.4500566611
 20
434.5152593378
  0
VERTEX
  8
0
 62
7
  6
CONTINUOUS
 10
194.5317646143
 20
434.4795973756
  0
VERTEX
  8
0
 62
7
  6
CONTINUOUS
 10
194.6133214359
 20
434.4435912304
  0
VERTEX
  8
0
 62
7
  6
CONTINUOUS
 10
194.6947256756
 20
434.4072415425
  0
VERTEX
  8
0
 62
7
  6
CONTINUOUS
 10
194.775975886
 20
434.3705489581
  0
VERTEX
  8
0
 62
7
  6
CONTINUOUS
 10
194.8570706222
 20
434.3335141298
  0
VERTEX
  8
0
 62
7
  6
CONTINUOUS
 10
194.9380084423
 20
434.2961377161
  0
SEQEND
  0
POLYLINE
  8
0
 62
7
  6
CONTINUOUS
 66
1
 70
0
  0
VERTEX
  8
0
 62
7
  6
CONTINUOUS
 10
192.5152860461
 20
432.6434108141
  0
VERTEX
  8
0
 62
7
  6
CONTINUOUS
 10
191.2052258498
 20
433.0752655103
  0
VERTEX
  8
0
 62
7
  6
CONTINUOUS
 10
189.8667452767
 20
433.4089953763
  0
VERTEX
  8
0
 62
7
  6
CONTINUOUS
 10
188.5071735792
 20
433.6427611498
  0
VERTEX
  8
0
 62
7
  6
CONTINUOUS
 10
187.134002471
 20
433.7752656452
  0
VERTEX
  8
0
 62
7
  6
CONTINUOUS
 10
185.7548002589
 20
433.8057772762
  0
VERTEX
  8
0
 62
7
  6
CONTINUOUS
 10
184.377122825
 20
433.7341301616
  0
VERTEX
  8
0
 62
7
  6
CONTINUOUS
 10
183.0085290798
 20
433.560717408
  0
VERTEX
  8
0
 62
7
  6
CONTINUOUS
 10
181.6565280942
 20
433.2864904801
  0
VERTEX
  8
0
 62
7
  6
CONTINUOUS
 10
180.3285378997
 20
432.9129539805
  0
VERTEX
  8
0
 62
7
  6
CONTINUOUS
 10
179.0318447876
 20
432.4421573939
  0
VERTEX
  8
0
 62
7
  6
CONTINUOUS
 10
177.7735633312
 20
431.8766838425
  0
VERTEX
  8
0
 62
7
  6
CONTINUOUS
 10
176.5605973506
 20
431.2196359134
  0
VERTEX
  8
0
 62
7
  6
CONTINUOUS
 10
175.399602033
 20
430.4746186351
  0
VERTEX
  8
0
 62
7
  6
CONTINUOUS
 10
174.296947418
 20
429.6457196981
  0
VERTEX
  8
0
 62
7
  6
CONTINUOUS
 10
173.2586834468
 20
428.7374870268
  0
VERTEX
  8
0
 62
7
  6
CONTINUOUS
 10
172.2905067682
 20
427.7549038265
  0
VERTEX
  8
0
 62
7
  6
CONTINUOUS
 10
171.3977294826
 20
426.7033612421
  0
VERTEX
  8
0
 62
7
  6
CONTINUOUS
 10
170.5852499963
 20
425.5886287782
  0
VERTEX
  8
0
 62
7
  6
CONTINUOUS
 10
169.857526145
 20
424.4168226436
  0
VERTEX
  8
0
 62
7
  6
CONTINUOUS
 10
169.2185507352
 20
423.1943721937
  0
VERTEX
  8
0
 62
7
  6
CONTINUOUS
 10
168.671829637
 20
421.9279846543
  0
VERTEX
  8
0
 62
7
  6
CONTINUOUS
 10
168.220362548
 20
420.6246083209
  0
VERTEX
  8
0
 62
7
  6
CONTINUOUS
 10
167.8666265352
 20
419.2913944359
  0
VERTEX
  8
0
 62
7
  6
CONTINUOUS
 10
167.6125624441
 20
417.9356579513
  0
VERTEX
  8
0
 62
7
  6
CONTINUOUS
 10
167.4595642496
 20
416.5648373943
  0
VERTEX
  8
0
 62
7
  6
CONTINUOUS
 10
167.4084714076
 20
415.1864540536
  0
SEQEND
  0
POLYLINE
  8
0
 62
7
  6
CONTINUOUS
 66
1
 70
0
  0
VERTEX
  8
0
 62
7
  6
CONTINUOUS
 10
272.126140359
 20
-167.9841667398
  0
VERTEX
  8
0
 62
7
  6
CONTINUOUS
 10
276.7052514946
 20
-165.4254844508
  0
VERTEX
  8
0
 62
7
  6
CONTINUOUS
 10
281.3075587381
 20
-162.7163914366
  0
VERTEX
  8
0
 62
7
  6
CONTINUOUS
 10
285.8158075688
 20
-159.9178989106
  0
VERTEX
  8
0
 62
7
  6
CONTINUOUS
 10
290.171475204
 20
-157.0663154787
  0
VERTEX
  8
0
 62
7
  6
CONTINUOUS
 10
294.3286961653
 20
-154.1973047563
  0
VERTEX
  8
0
 62
7
  6
CONTINUOUS
 10
298.3083505622
 20
-151.3040862034
  0
VERTEX
  8
0
 62
7
  6
CONTINUOUS
 10
302.1089736142
 20
-148.3950575945
  0
VERTEX
  8
0
 62
7
  6
CONTINUOUS
 10
305.7511619381
 20
-145.4614069722
  0
VERTEX
  8
0
 62
7
  6
CONTINUOUS
 10
309.2501728174
 20
-142.49628908
  0
VERTEX
  8
0
 62
7
  6
CONTINUOUS
 10
312.6102832032
 20
-139.5008606911
  0
VERTEX
  8
0
 62
7
  6
CONTINUOUS
 10
315.8372078744
 20
-136.4746768263
  0
VERTEX
  8
0
 62
7
  6
CONTINUOUS
 10
318.9381354759
 20
-133.4151903994
  0
VERTEX
  8
0
 62
7
  6
CONTINUOUS
 10
321.9196719265
 20
-130.3195365465
  0
VERTEX
  8
0
 62
7
  6
CONTINUOUS
 10
324.7854013182
 20
-127.1873340316
  0
VERTEX
  8
0
 62
7
  6
CONTINUOUS
 10
327.5392227193
 20
-124.017359936
  0
VERTEX
  8
0
 62
7
  6
CONTINUOUS
 10
330.184467111
 20
-120.8085200357
  0
VERTEX
  8
0
 62
7
  6
CONTINUOUS
 10
332.7240620187
 20
-117.5598393965
  0
VERTEX
  8
0
 62
7
  6
CONTINUOUS
 10
335.1615084482
 20
-114.2690294413
  0
VERTEX
  8
0
 62
7
  6
CONTINUOUS
 10
337.4998970212
 20
-110.9336612985
  0
VERTEX
  8
0
 62
7
  6
CONTINUOUS
 10
339.7413716233
 20
-107.552096597
  0
VERTEX
  8
0
 62
7
  6
CONTINUOUS
 10
341.8880006326
 20
-104.1222285204
  0
VERTEX
  8
0
 62
7
  6
CONTINUOUS
 10
343.941523163
 20
-100.6419509973
  0
VERTEX
  8
0
 62
7
  6
CONTINUOUS
 10
345.9034729239
 20
-97.1089170912
  0
VERTEX
  8
0
 62
7
  6
CONTINUOUS
 10
347.7750963577
 20
-93.5205423844
  0
VERTEX
  8
0
 62
7
  6
CONTINUOUS
 10
349.5573804917
 20
-89.8743675915
  0
VERTEX
  8
0
 62
7
  6
CONTINUOUS
 10
351.2515080757
 20
-86.1665957633
  0
VERTEX
  8
0
 62
7
  6
CONTINUOUS
 10
352.8581260148
 20
-82.3936706006
  0
VERTEX
  8
0
 62
7
  6
CONTINUOUS
 10
354.3780755292
 20
-78.5506500236
  0
VERTEX
  8
0
 62
7
  6
CONTINUOUS
 10
355.8118875646
 20
-74.6319584949
  0
VERTEX
  8
0
 62
7
  6
CONTINUOUS
 10
357.158998088
 20
-70.6335849432
  0
VERTEX
  8
0
 62
7
  6
CONTINUOUS
 10
358.4188370606
 20
-66.5505945968
  0
VERTEX
  8
0
 62
7
  6
CONTINUOUS
 10
359.590364989
 20
-62.3780837955
  0
VERTEX
  8
0
 62
7
  6
CONTINUOUS
 10
359.8573897163
 20
-61.324845596
  0
SEQEND
  0
POLYLINE
  8
0
 62
7
  6
CONTINUOUS
 66
1
 70
0
  0
VERTEX
  8
0
 62
7
  6
CONTINUOUS
 10
-6.5421952249
 20
490.8726900126
  0
VERTEX
  8
0
 62
7
  6
CONTINUOUS
 10
-6.5603656403
 20
490.8725893519
  0
VERTEX
  8
0
 62
7
  6
CONTINUOUS
 10
-6.5791728185
 20
490.8724156124
  0
VERTEX
  8
0
 62
7
  6
CONTINUOUS
 10
-6.5991964954
 20
490.8721528665
  0
VERTEX
  8
0
 62
7
  6
CONTINUOUS
 10
-6.6206355798
 20
490.871782624
  0
VERTEX
  8
0
 62
7
  6
CONTINUOUS
 10
-6.6437219774
 20
490.8712810811
  0
VERTEX
  8
0
 62
7
  6
CONTINUOUS
 10
-6.6684011624
 20
490.87062695
  0
VERTEX
  8
0
 62
7
  6
CONTINUOUS
 10
-6.6947579349
 20
490.8697936679
  0
VERTEX
  8
0
 62
7
  6
CONTINUOUS
 10
-6.7227404602
 20
490.8687566609
  0
VERTEX
  8
0
 62
7
  6
CONTINUOUS
 10
-6.752513813
 20
490.8674809154
  0
VERTEX
  8
0
 62
7
  6
CONTINUOUS
 10
-6.7843958448
 20
490.8659176204
  0
VERTEX
  8
0
 62
7
  6
CONTINUOUS
 10
-6.8179533603
 20
490.8640516657
  0
VERTEX
  8
0
 62
7
  6
CONTINUOUS
 10
-6.8525357607
 20
490.8618918418
  0
VERTEX
  8
0
 62
7
  6
CONTINUOUS
 10
-6.8891124834
 20
490.8593454784
  0
VERTEX
  8
0
 62
7
  6
CONTINUOUS
 10
-6.9288250829
 20
490.8562753755
  0
VERTEX
  8
0
 62
7
  6
CONTINUOUS
 10
-6.9706233332
 20
490.8526999315
  0
VERTEX
  8
0
 62
7
  6
CONTINUOUS
 10
-7.013943205
 20
490.8486211133
  0
VERTEX
  8
0
 62
7
  6
CONTINUOUS
 10
-7.0584386554
 20
490.8440351461
  0
VERTEX
  8
0
 62
7
  6
CONTINUOUS
 10
-7.1031056189
 20
490.839026295
  0
VERTEX
  8
0
 62
7
  6
CONTINUOUS
 10
-7.1493644477
 20
490.8334096781
  0
VERTEX
  8
0
 62
7
  6
CONTINUOUS
 10
-7.1978629937
 20
490.8270505096
  0
VERTEX
  8
0
 62
7
  6
CONTINUOUS
 10
-7.2499342533
 20
490.8196845191
  0
VERTEX
  8
0
 62
7
  6
CONTINUOUS
 10
-7.3089146913
 20
490.810664712
  0
VERTEX
  8
0
 62
7
  6
CONTINUOUS
 10
-7.3694106036
 20
490.8006626999
  0
VERTEX
  8
0
 62
7
  6
CONTINUOUS
 10
-7.4255374096
 20
490.7906994205
  0
VERTEX
  8
0
 62
7
  6
CONTINUOUS
 10
-7.4821762317
 20
490.7799740284
  0
VERTEX
  8
0
 62
7
  6
CONTINUOUS
 10
-7.539860235
 20
490.768353094
  0
VERTEX
  8
0
 62
7
  6
CONTINUOUS
 10
-7.6056715422
 20
490.7542286693
  0
VERTEX
  8
0
 62
7
  6
CONTINUOUS
 10
-7.6926441342
 20
490.7341331806
  0
VERTEX
  8
0
 62
7
  6
CONTINUOUS
 10
-7.7830284767
 20
490.7115048375
  0
VERTEX
  8
0
 62
7
  6
CONTINUOUS
 10
-7.8597145967
 20
490.6908932596
  0
VERTEX
  8
0
 62
7
  6
CONTINUOUS
 10
-7.9346454187
 20
490.6694838729
  0
VERTEX
  8
0
 62
7
  6
CONTINUOUS
 10
-8.0112640787
 20
490.6462768895
  0
VERTEX
  8
0
 62
7
  6
CONTINUOUS
 10
-8.0975063569
 20
490.6185397545
  0
VERTEX
  8
0
 62
7
  6
CONTINUOUS
 10
-8.2076178196
 20
490.5805927611
  0
VERTEX
  8
0
 62
7
  6
CONTINUOUS
 10
-8.3249591146
 20
490.5369544044
  0
VERTEX
  8
0
 62
7
  6
CONTINUOUS
 10
-8.4352672597
 20
490.4928391607
  0
VERTEX
  8
0
 62
7
  6
CONTINUOUS
 10
-8.5470711558
 20
490.4449768494
  0
VERTEX
  8
0
 62
7
  6
CONTINUOUS
 10
-8.6644889221
 20
490.3911885481
  0
VERTEX
  8
0
 62
7
  6
CONTINUOUS
 10
-8.7857338675
 20
490.3317231117
  0
VERTEX
  8
0
 62
7
  6
CONTINUOUS
 10
-8.911224845
 20
490.2658055621
  0
VERTEX
  8
0
 62
7
  6
CONTINUOUS
 10
-9.0382966389
 20
490.1943225537
  0
VERTEX
  8
0
 62
7
  6
CONTINUOUS
 10
-9.1592303516
 20
490.1216487286
  0
VERTEX
  8
0
 62
7
  6
CONTINUOUS
 10
-9.2900682957
 20
490.0376438011
  0
VERTEX
  8
0
 62
7
  6
CONTINUOUS
 10
-9.4530782809
 20
489.9246438697
  0
VERTEX
  8
0
 62
7
  6
CONTINUOUS
 10
-9.6162108533
 20
489.8015469265
  0
VERTEX
  8
0
 62
7
  6
CONTINUOUS
 10
-9.7506753653
 20
489.6918693197
  0
VERTEX
  8
0
 62
7
  6
CONTINUOUS
 10
-9.87952048
 20
489.5791615395
  0
VERTEX
  8
0
 62
7
  6
CONTINUOUS
 10
-10.0122471391
 20
489.4545137197
  0
VERTEX
  8
0
 62
7
  6
CONTINUOUS
 10
-10.1540346955
 20
489.310719779
  0
VERTEX
  8
0
 62
7
  6
CONTINUOUS
 10
-10.3112089087
 20
489.1367527683
  0
VERTEX
  8
0
 62
7
  6
CONTINUOUS
 10
-10.4813520251
 20
488.9282202645
  0
VERTEX
  8
0
 62
7
  6
CONTINUOUS
 10
-10.6722862616
 20
488.6634682451
  0
VERTEX
  8
0
 62
7
  6
CONTINUOUS
 10
-10.8498808688
 20
488.379342855
  0
VERTEX
  8
0
 62
7
  6
CONTINUOUS
 10
-10.9854248928
 20
488.129260627
  0
VERTEX
  8
0
 62
7
  6
CONTINUOUS
 10
-11.1080598745
 20
487.8683596711
  0
VERTEX
  8
0
 62
7
  6
CONTINUOUS
 10
-11.2326276854
 20
487.553464115
  0
VERTEX
  8
0
 62
7
  6
CONTINUOUS
 10
-11.3396154841
 20
487.2165318563
  0
VERTEX
  8
0
 62
7
  6
CONTINUOUS
 10
-11.4201883762
 20
486.8842790264
  0
VERTEX
  8
0
 62
7
  6
CONTINUOUS
 10
-11.4789353216
 20
486.5394102323
  0
VERTEX
  8
0
 62
7
  6
CONTINUOUS
 10
-11.5030459564
 20
486.3254220006
  0
SEQEND
  0
LINE
  8
0
 62
7
  6
CONTINUOUS
 10
-6.5421952249
 20
490.8726900126
 11
378.5889903831
 21
490.8727246602
  0
LINE
  8
0
 62
7
  6
CONTINUOUS
 10
378.5320184696
 20
494.2328246588
 11
-6.4838500382
 21
494.2327949358
  0
POLYLINE
  8
0
 62
7
  6
CONTINUOUS
 66
1
 70
0
  0
VERTEX
  8
0
 62
7
  6
CONTINUOUS
 10
378.5320184696
 20
494.2328246588
  0
VERTEX
  8
0
 62
7
  6
CONTINUOUS
 10
378.5494633871
 20
494.2327942256
  0
VERTEX
  8
0
 62
7
  6
CONTINUOUS
 10
378.5664730352
 20
494.2327059457
  0
VERTEX
  8
0
 62
7
  6
CONTINUOUS
 10
378.5839597677
 20
494.2325548617
  0
VERTEX
  8
0
 62
7
  6
CONTINUOUS
 10
378.6024691208
 20
494.2323283048
  0
VERTEX
  8
0
 62
7
  6
CONTINUOUS
 10
378.6222576743
 20
494.2320102809
  0
VERTEX
  8
0
 62
7
  6
CONTINUOUS
 10
378.6435627008
 20
494.2315802924
  0
VERTEX
  8
0
 62
7
  6
CONTINUOUS
 10
378.6663740234
 20
494.2310191914
  0
VERTEX
  8
0
 62
7
  6
CONTINUOUS
 10
378.6908198292
 20
494.2303022354
  0
VERTEX
  8
0
 62
7
  6
CONTINUOUS
 10
378.7169702542
 20
494.2294027716
  0
VERTEX
  8
0
 62
7
  6
CONTINUOUS
 10
378.7447543043
 20
494.2282969553
  0
VERTEX
  8
0
 62
7
  6
CONTINUOUS
 10
378.7740432835
 20
494.2269636224
  0
VERTEX
  8
0
 62
7
  6
CONTINUOUS
 10
378.8050545739
 20
494.2253642216
  0
VERTEX
  8
0
 62
7
  6
CONTINUOUS
 10
378.8380935308
 20
494.2234476717
  0
VERTEX
  8
0
 62
7
  6
CONTINUOUS
 10
378.8728484004
 20
494.2211946289
  0
VERTEX
  8
0
 62
7
  6
CONTINUOUS
 10
378.9089887397
 20
494.2185937484
  0
VERTEX
  8
0
 62
7
  6
CONTINUOUS
 10
378.9468847315
 20
494.2155835317
  0
VERTEX
  8
0
 62
7
  6
CONTINUOUS
 10
378.9869076574
 20
494.2120892458
  0
VERTEX
  8
0
 62
7
  6
CONTINUOUS
 10
379.028767117
 20
494.2080875445
  0
VERTEX
  8
0
 62
7
  6
CONTINUOUS
 10
379.0718192021
 20
494.2036007721
  0
VERTEX
  8
0
 62
7
  6
CONTINUOUS
 10
379.1174993089
 20
494.1984275615
  0
VERTEX
  8
0
 62
7
  6
CONTINUOUS
 10
379.1682439997
 20
494.1921811767
  0
VERTEX
  8
0
 62
7
  6
CONTINUOUS
 10
379.2204206767
 20
494.1852081659
  0
VERTEX
  8
0
 62
7
  6
CONTINUOUS
 10
379.2690329861
 20
494.1782073128
  0
VERTEX
  8
0
 62
7
  6
CONTINUOUS
 10
379.3206069119
 20
494.1702458753
  0
VERTEX
  8
0
 62
7
  6
CONTINUOUS
 10
379.3835617171
 20
494.159778493
  0
VERTEX
  8
0
 62
7
  6
CONTINUOUS
 10
379.4471489014
 20
494.1483649438
  0
VERTEX
  8
0
 62
7
  6
CONTINUOUS
 10
379.4985514613
 20
494.1385166548
  0
VERTEX
  8
0
 62
7
  6
CONTINUOUS
 10
379.5525913553
 20
494.1275596859
  0
VERTEX
  8
0
 62
7
  6
CONTINUOUS
 10
379.6214936639
 20
494.112685702
  0
VERTEX
  8
0
 62
7
  6
CONTINUOUS
 10
379.6998604511
 20
494.0945265323
  0
VERTEX
  8
0
 62
7
  6
CONTINUOUS
 10
379.7909166028
 20
494.0717476253
  0
VERTEX
  8
0
 62
7
  6
CONTINUOUS
 10
379.8809164751
 20
494.0474351489
  0
VERTEX
  8
0
 62
7
  6
CONTINUOUS
 10
379.9501272442
 20
494.0275058252
  0
VERTEX
  8
0
 62
7
  6
CONTINUOUS
 10
380.0206959122
 20
494.0060666883
  0
VERTEX
  8
0
 62
7
  6
CONTINUOUS
 10
380.1091541004
 20
493.9775736724
  0
VERTEX
  8
0
 62
7
  6
CONTINUOUS
 10
380.2113238994
 20
493.9423823104
  0
VERTEX
  8
0
 62
7
  6
CONTINUOUS
 10
380.3350614306
 20
493.8964108396
  0
VERTEX
  8
0
 62
7
  6
CONTINUOUS
 10
380.4601145393
 20
493.8461147587
  0
VERTEX
  8
0
 62
7
  6
CONTINUOUS
 10
380.5600896797
 20
493.8030464426
  0
VERTEX
  8
0
 62
7
  6
CONTINUOUS
 10
380.6641085883
 20
493.7554557212
  0
VERTEX
  8
0
 62
7
  6
CONTINUOUS
 10
380.8015850729
 20
493.6880538808
  0
VERTEX
  8
0
 62
7
  6
CONTINUOUS
 10
380.9411942241
 20
493.6141340731
  0
VERTEX
  8
0
 62
7
  6
CONTINUOUS
 10
381.0530142513
 20
493.5507616964
  0
VERTEX
  8
0
 62
7
  6
CONTINUOUS
 10
381.1674536472
 20
493.4818811923
  0
VERTEX
  8
0
 62
7
  6
CONTINUOUS
 10
381.3094200556
 20
493.3904730841
  0
VERTEX
  8
0
 62
7
  6
CONTINUOUS
 10
381.4593635097
 20
493.286298603
  0
VERTEX
  8
0
 62
7
  6
CONTINUOUS
 10
381.6094328176
 20
493.1735759742
  0
VERTEX
  8
0
 62
7
  6
CONTINUOUS
 10
381.7525348914
 20
493.0575173232
  0
VERTEX
  8
0
 62
7
  6
CONTINUOUS
 10
381.8730037109
 20
492.9527463804
  0
VERTEX
  8
0
 62
7
  6
CONTINUOUS
 10
381.9933834685
 20
492.8410031944
  0
VERTEX
  8
0
 62
7
  6
CONTINUOUS
 10
382.1293011264
 20
492.7055120169
  0
VERTEX
  8
0
 62
7
  6
CONTINUOUS
 10
382.2764508743
 20
492.5463161658
  0
VERTEX
  8
0
 62
7
  6
CONTINUOUS
 10
382.4356779605
 20
492.3571553999
  0
VERTEX
  8
0
 62
7
  6
CONTINUOUS
 10
382.6019044082
 20
492.1373088551
  0
VERTEX
  8
0
 62
7
  6
CONTINUOUS
 10
382.7775058184
 20
491.8740056765
  0
VERTEX
  8
0
 62
7
  6
CONTINUOUS
 10
382.9373309442
 20
491.5978240248
  0
VERTEX
  8
0
 62
7
  6
CONTINUOUS
 10
383.0592138091
 20
491.3552059525
  0
VERTEX
  8
0
 62
7
  6
CONTINUOUS
 10
383.1680032528
 20
491.1056954738
  0
VERTEX
  8
0
 62
7
  6
CONTINUOUS
 10
383.276417168
 20
490.8110138079
  0
VERTEX
  8
0
 62
7
  6
CONTINUOUS
 10
383.3694451892
 20
490.4974600737
  0
VERTEX
  8
0
 62
7
  6
CONTINUOUS
 10
383.4403148377
 20
490.1860438164
  0
VERTEX
  8
0
 62
7
  6
CONTINUOUS
 10
383.4923650051
 20
489.8612848784
  0
VERTEX
  8
0
 62
7
  6
CONTINUOUS
 10
383.5241777349
 20
489.5127279798
  0
VERTEX
  8
0
 62
7
  6
CONTINUOUS
 10
383.5317813138
 20
489.2815227218
  0
SEQEND
  0
ARC
  8
0
 62
7
  6
CONTINUOUS
 10
917.0239063601
 20
401.9103819327
 40
932.3562624705
 50
174.8053569556
 51
182.530074536
  0
ARC
  8
0
 62
7
  6
CONTINUOUS
 10
-544.958497593
 20
401.9103819327
 40
932.3562624705
 50
357.469925464
 51
5.1946430444
  0
ARC
  8
0
 62
7
  6
CONTINUOUS
 10
186.0327043836
 20
1205.8807896039
 40
884.0667704896
 50
257.9974945353
 51
262.2830797421
  0
ARC
  8
0
 62
7
  6
CONTINUOUS
 10
186.0327043836
 20
1205.8807896039
 40
884.0667704896
 50
262.2841036298
 51
282.0025054647
  0
ARC
  8
0
 62
7
  6
CONTINUOUS
 10
186.0327043836
 20
-6.6789309401
 40
182.2348817363
 50
181.0662294779
 51
358.9337705221
  0
ARC
  8
0
 62
7
  6
CONTINUOUS
 10
105.4925194908
 20
259.7057431079
 40
25.2858213381
 50
40.1218626638
 51
139.8781178561
  0
ARC
  8
0
 62
7
  6
CONTINUOUS
 10
266.5728892764
 20
259.7057431079
 40
25.2858213381
 50
40.1218626638
 51
139.8781178561
  0
ARC
  8
0
 62
7
  6
CONTINUOUS
 10
42.0327043836
 20
277.6338445857
 40
1.0
 50
0.0
 51
90.0
  0
ARC
  8
0
 62
7
  6
CONTINUOUS
 10
330.0327043836
 20
277.6338445857
 40
1.0
 50
90.0
 51
180.0
  0
ENDSEC
  0
EOF
