999
DXF file: K:\Client\125_Heirloom\001\00\Final_Data\Drawings\TOILETS\heiko-374120d_4.dxf
999
Pro/ENGINEER 2017110 by Parametric Technology Corporation
  0
SECTION
  2
HEADER
  9
$EXTMAX
 10
420.0
 20
297.0
 30
0.0
  9
$EXTMIN
 10
0.0
 20
0.0
 30
0.0
  9
$LIMMIN
 10
0.0
 20
0.0
  9
$LIMMAX
 10
420.0
 20
297.0
  9
$VIEWCTR
 10
210.0
 20
148.5
  9
$VIEWSIZE
 40
297.0
  9
$CLAYER
  8
0
  9
$LTSCALE
 40
23.1
  9
$CELTYPE
  6
BYLAYER
  9
$DIMSCALE
 40
1.0
  9
$DIMASZ
 40
3.0
  9
$DIMEXO
 40
1.0
  9
$DIMDLI
 40
15.96
  9
$DIMEXE
 40
1.0
  9
$DIMCEN
 40
3.78
  9
$DIMLFAC
 40
1.0
  9
$DIMBLK
  1
_FILLED
  9
$DIMALT
 70
0
  9
$DIMALTF
 40
0.0393700787
  9
$DIMTXT
 40
3.0
  9
$AUNITS
 70
0
  9
$PDMODE
 70
3
  9
$PDSIZE
 40
5.0
  9
$TILEMODE
 70
1
  0
ENDSEC
  0
SECTION
  2
TABLES
  0
TABLE
  2
LTYPE
 70
6
  0
LTYPE
  2
BYBLOCK
 70
0
  3

 72
65
 73
0
 40
0.0
  0
LTYPE
  2
BYLAYER
 70
0
  3

 72
65
 73
0
 40
0.0
  0
LTYPE
  2
CONTINUOUS
 70
64
  3
Solid line
 72
65
 73
0
 40
0.0
  0
LTYPE
  2
CENTER
 70
64
  3
____ _ ____ _ ____ _ ____ _ ____ _ ____ _ ____
 72
65
 73
4
 40
0.6
 49
0.375
 49
-0.075
 49
0.075
 49
-0.075
  0
LTYPE
  2
HIDDEN
 70
64
  3
- - - - - - - - - - - - - - - - - - - -
 72
65
 73
2
 40
0.2
 49
0.1
 49
-0.1
  0
LTYPE
  2
PHANTOM
 70
64
  3
_____ _ _ _____ _ _ _____ _ _ _____
 72
65
 73
6
 40
0.8
 49
0.45
 49
-0.05
 49
0.1
 49
-0.05
 49
0.1
 49
-0.05
  0
LTYPE
  2
DOT
 70
64
  3
. . . . . . . . . . . . . . . . . . . .
 72
65
 73
2
 40
0.2
 49
0.1
 49
-0.1
  0
LTYPE
  2
DASHED
 70
64
  3
- - - - - - - - - - - - - - - - - - - -
 72
65
 73
2
 40
0.2
 49
0.1
 49
-0.1
  0
ENDTAB
  0
TABLE
  2
LAYER
 70
36
  0
LAYER
  2
0
 70
0
 62
7
  6
CONTINUOUS
  0
LAYER
  2
DEFAULT_1
 70
0
 62
7
  6
CENTER
  0
LAYER
  2
DEFAULT_2
 70
0
 62
8
  6
HIDDEN
  0
LAYER
  2
DEFAULT_3
 70
0
 62
7
  6
PHANTOM
  0
LAYER
  2
0000_BOM
 70
0
 62
7
  6
CONTINUOUS
  0
LAYER
  2
0000_REV_TABLE
 70
0
 62
7
  6
CONTINUOUS
  0
LAYER
  2
0000_STEVENS_NOTE
 70
0
 62
7
  6
CONTINUOUS
  0
LAYER
  2
01_DATUM_PLANES
 70
0
 62
7
  6
CONTINUOUS
  0
LAYER
  2
01_DEF_PLANES
 70
0
 62
7
  6
CONTINUOUS
  0
LAYER
  2
02_DATUM_COS
 70
0
 62
7
  6
CONTINUOUS
  0
LAYER
  2
90_IMP_FEAT
 70
0
 62
7
  6
CONTINUOUS
  0
LAYER
  2
95_STL
 70
0
 62
7
  6
CONTINUOUS
  0
LAYER
  2
99_SOLID
 70
0
 62
7
  6
CONTINUOUS
  0
LAYER
  2
CAD-MASTER_ZINC-PL
 70
0
 62
7
  6
CONTINUOUS
  0
LAYER
  2
CURVE
 70
0
 62
7
  6
CONTINUOUS
  0
LAYER
  2
SHELL
 70
0
 62
7
  6
CONTINUOUS
  0
LAYER
  2
SKEL
 70
0
 62
7
  6
CONTINUOUS
  0
LAYER
  2
SKETCH
 70
0
 62
7
  6
CONTINUOUS
  0
LAYER
  2
SURFACE
 70
0
 62
7
  6
CONTINUOUS
  0
ENDTAB
  0
TABLE
  2
STYLE
 70
1
  0
STYLE
  2
STANDARD
 70
0
 40
0.0
 41
0.75
 50
0.0
 71
0
 42
0.2
  3
txt
  4

  0
STYLE
  2
TEXTSTYLE_1
 70
0
 40
0.0
 41
0.8
 50
0.0
 71
0
 42
0.2
  3
gdt
  4

  0
ENDTAB
  0
ENDSEC
  0
SECTION
  2
BLOCKS
  0
BLOCK
  8
0
 62
5
  6
CONTINUOUS
  2
PLUMBING_BL1
 70
64
 10
182.8150684932
 20
-301.3029053959
  0
CIRCLE
  8
0
 62
5
  6
CONTINUOUS
 10
182.8150684932
 20
-301.3029053959
 40
12.5
  0
LINE
  8
0
 62
5
  6
CONTINUOUS
 10
195.3150684932
 20
-288.8029053959
 11
170.3150684932
 21
-313.8029053959
  0
LINE
  8
0
 62
5
  6
CONTINUOUS
 10
182.8150684932
 20
-301.3029053959
 11
170.3150684932
 21
-288.8029053959
  0
LINE
  8
0
 62
5
  6
CONTINUOUS
 10
182.8150684932
 20
-301.3029053959
 11
195.3150684932
 21
-313.8029053959
  0
ENDBLK
  8
0
  6
BYBLOCK
 62
0
  0
BLOCK
  8
0
 62
1
  6
CONTINUOUS
  2
PLUMBING_BL0
 70
64
 10
182.8150684932
 20
-121.3029053959
  0
CIRCLE
  8
0
 62
1
  6
CONTINUOUS
 10
182.8150684932
 20
-121.3029053959
 40
12.5
  0
LINE
  8
0
 62
1
  6
CONTINUOUS
 10
195.3150684932
 20
-108.8029053959
 11
170.3150684932
 21
-133.8029053959
  0
LINE
  8
0
 62
1
  6
CONTINUOUS
 10
182.8150684932
 20
-121.3029053959
 11
170.3150684932
 21
-108.8029053959
  0
LINE
  8
0
 62
1
  6
CONTINUOUS
 10
182.8150684932
 20
-121.3029053959
 11
195.3150684932
 21
-133.8029053959
  0
ENDBLK
  8
0
  6
BYBLOCK
 62
0
  0
ENDSEC
  0
SECTION
  2
ENTITIES
  0
INSERT
  8
0
 62
1
  6
CONTINUOUS
  2
PLUMBING_BL0
 10
182.8150684932
 20
-121.3029053959
  0
INSERT
  8
0
 62
5
  6
CONTINUOUS
  2
PLUMBING_BL1
 10
182.8150684932
 20
-301.3029053959
  0
POLYLINE
  8
0
 62
7
  6
CONTINUOUS
 66
1
 70
0
  0
VERTEX
  8
0
 62
7
  6
CONTINUOUS
 10
25.5905279506
 20
-296.8439048215
  0
VERTEX
  8
0
 62
7
  6
CONTINUOUS
 10
25.2731145383
 20
-293.9166733817
  0
VERTEX
  8
0
 62
7
  6
CONTINUOUS
 10
24.9681193442
 20
-291.0802406211
  0
VERTEX
  8
0
 62
7
  6
CONTINUOUS
 10
24.6313166921
 20
-287.9192055607
  0
VERTEX
  8
0
 62
7
  6
CONTINUOUS
 10
24.2588218588
 20
-284.3880653517
  0
VERTEX
  8
0
 62
7
  6
CONTINUOUS
 10
23.8428531587
 20
-280.4014937973
  0
VERTEX
  8
0
 62
7
  6
CONTINUOUS
 10
23.4044905523
 20
-276.1513383602
  0
VERTEX
  8
0
 62
7
  6
CONTINUOUS
 10
22.9917971491
 20
-272.104767768
  0
VERTEX
  8
0
 62
7
  6
CONTINUOUS
 10
22.6122850209
 20
-268.3454376899
  0
VERTEX
  8
0
 62
7
  6
CONTINUOUS
 10
22.2527313709
 20
-264.7507860018
  0
VERTEX
  8
0
 62
7
  6
CONTINUOUS
 10
21.8962332855
 20
-261.155667139
  0
VERTEX
  8
0
 62
7
  6
CONTINUOUS
 10
21.5501410755
 20
-257.6366938268
  0
VERTEX
  8
0
 62
7
  6
CONTINUOUS
 10
21.2234901238
 20
-254.2901150272
  0
VERTEX
  8
0
 62
7
  6
CONTINUOUS
 10
20.9168369409
 20
-251.1267694966
  0
VERTEX
  8
0
 62
7
  6
CONTINUOUS
 10
20.6277252899
 20
-248.1258292448
  0
VERTEX
  8
0
 62
7
  6
CONTINUOUS
 10
20.3525105533
 20
-245.2531136365
  0
VERTEX
  8
0
 62
7
  6
CONTINUOUS
 10
20.088676325
 20
-242.4852135458
  0
VERTEX
  8
0
 62
7
  6
CONTINUOUS
 10
19.8325734963
 20
-239.7860041844
  0
VERTEX
  8
0
 62
7
  6
CONTINUOUS
 10
19.5852748642
 20
-237.168607416
  0
VERTEX
  8
0
 62
7
  6
CONTINUOUS
 10
19.3440127666
 20
-234.6053133023
  0
VERTEX
  8
0
 62
7
  6
CONTINUOUS
 10
19.1046363339
 20
-232.0531047534
  0
VERTEX
  8
0
 62
7
  6
CONTINUOUS
 10
18.8657660653
 20
-229.498024228
  0
VERTEX
  8
0
 62
7
  6
CONTINUOUS
 10
18.6242765109
 20
-226.9071785934
  0
VERTEX
  8
0
 62
7
  6
CONTINUOUS
 10
18.3766045503
 20
-224.2426194595
  0
VERTEX
  8
0
 62
7
  6
CONTINUOUS
 10
18.119762626
 20
-221.4723047792
  0
VERTEX
  8
0
 62
7
  6
CONTINUOUS
 10
17.8517443367
 20
-218.5746525099
  0
VERTEX
  8
0
 62
7
  6
CONTINUOUS
 10
17.5704719613
 20
-215.5273297181
  0
VERTEX
  8
0
 62
7
  6
CONTINUOUS
 10
17.2747518717
 20
-212.3177162811
  0
VERTEX
  8
0
 62
7
  6
CONTINUOUS
 10
16.9633796453
 20
-208.9333518504
  0
VERTEX
  8
0
 62
7
  6
CONTINUOUS
 10
16.6364482581
 20
-205.376210193
  0
VERTEX
  8
0
 62
7
  6
CONTINUOUS
 10
16.2920075834
 20
-201.6259522116
  0
VERTEX
  8
0
 62
7
  6
CONTINUOUS
 10
15.9232480998
 20
-197.6094103446
  0
VERTEX
  8
0
 62
7
  6
CONTINUOUS
 10
15.5261217936
 20
-193.2839703928
  0
VERTEX
  8
0
 62
7
  6
CONTINUOUS
 10
15.0936292119
 20
-188.5757154571
  0
VERTEX
  8
0
 62
7
  6
CONTINUOUS
 10
14.6104750177
 20
-183.3219743393
  0
VERTEX
  8
0
 62
7
  6
CONTINUOUS
 10
14.0693569698
 20
-177.4497344929
  0
VERTEX
  8
0
 62
7
  6
CONTINUOUS
 10
13.4824272021
 20
-171.0998973211
  0
VERTEX
  8
0
 62
7
  6
CONTINUOUS
 10
12.9017139747
 20
-164.843079579
  0
VERTEX
  8
0
 62
7
  6
CONTINUOUS
 10
12.3572706915
 20
-159.0023673864
  0
VERTEX
  8
0
 62
7
  6
CONTINUOUS
 10
11.8575169426
 20
-153.6582638088
  0
VERTEX
  8
0
 62
7
  6
CONTINUOUS
 10
11.4042502912
 20
-148.8215180944
  0
VERTEX
  8
0
 62
7
  6
CONTINUOUS
 10
10.9930005376
 20
-144.4386408567
  0
VERTEX
  8
0
 62
7
  6
CONTINUOUS
 10
10.6199663975
 20
-140.4654232722
  0
VERTEX
  8
0
 62
7
  6
CONTINUOUS
 10
10.2766499446
 20
-136.8090862679
  0
VERTEX
  8
0
 62
7
  6
CONTINUOUS
 10
9.9551815341
 20
-133.3844254228
  0
VERTEX
  8
0
 62
7
  6
CONTINUOUS
 10
9.6490581255
 20
-130.1212225601
  0
VERTEX
  8
0
 62
7
  6
CONTINUOUS
 10
9.353486634
 20
-126.9676512283
  0
VERTEX
  8
0
 62
7
  6
CONTINUOUS
 10
9.0638871819
 20
-123.8741683234
  0
VERTEX
  8
0
 62
7
  6
CONTINUOUS
 10
8.7782255259
 20
-120.8183138092
  0
VERTEX
  8
0
 62
7
  6
CONTINUOUS
 10
8.4969923621
 20
-117.8044618432
  0
VERTEX
  8
0
 62
7
  6
CONTINUOUS
 10
8.2190324504
 20
-114.8193492245
  0
VERTEX
  8
0
 62
7
  6
CONTINUOUS
 10
7.9417126395
 20
-111.8337253401
  0
VERTEX
  8
0
 62
7
  6
CONTINUOUS
 10
7.6649292444
 20
-108.8453969336
  0
VERTEX
  8
0
 62
7
  6
CONTINUOUS
 10
7.3890445083
 20
-105.8571933775
  0
VERTEX
  8
0
 62
7
  6
CONTINUOUS
 10
7.1132616162
 20
-102.8593557856
  0
VERTEX
  8
0
 62
7
  6
CONTINUOUS
 10
6.8388844784
 20
-99.8649359171
  0
VERTEX
  8
0
 62
7
  6
CONTINUOUS
 10
6.5627671209
 20
-96.8383113714
  0
VERTEX
  8
0
 62
7
  6
CONTINUOUS
 10
6.2804274303
 20
-93.7283933047
  0
VERTEX
  8
0
 62
7
  6
CONTINUOUS
 10
5.9883453482
 20
-90.4935358917
  0
VERTEX
  8
0
 62
7
  6
CONTINUOUS
 10
5.6786230593
 20
-87.0418117723
  0
VERTEX
  8
0
 62
7
  6
CONTINUOUS
 10
5.3429753563
 20
-83.2736747193
  0
VERTEX
  8
0
 62
7
  6
CONTINUOUS
 10
4.971118431
 20
-79.0621283004
  0
VERTEX
  8
0
 62
7
  6
CONTINUOUS
 10
4.5627798749
 20
-74.3879443905
  0
VERTEX
  8
0
 62
7
  6
CONTINUOUS
 10
4.1216919558
 20
-69.2766181103
  0
VERTEX
  8
0
 62
7
  6
CONTINUOUS
 10
3.6549666978
 20
-63.7936248391
  0
VERTEX
  8
0
 62
7
  6
CONTINUOUS
 10
3.1598643826
 20
-57.8879884681
  0
VERTEX
  8
0
 62
7
  6
CONTINUOUS
 10
2.6153508039
 20
-51.2791548104
  0
VERTEX
  8
0
 62
7
  6
CONTINUOUS
 10
2.0063914203
 20
-43.7352131705
  0
VERTEX
  8
0
 62
7
  6
CONTINUOUS
 10
1.3276063216
 20
-35.1175024371
  0
VERTEX
  8
0
 62
7
  6
CONTINUOUS
 10
0.5794128998
 20
-25.3350572729
  0
VERTEX
  8
0
 62
7
  6
CONTINUOUS
 10
-0.2315883639
 20
-14.3587865075
  0
VERTEX
  8
0
 62
7
  6
CONTINUOUS
 10
-1.0996946351
 20
-2.1298729686
  0
VERTEX
  8
0
 62
7
  6
CONTINUOUS
 10
-1.9414544106
 20
10.2638736761
  0
VERTEX
  8
0
 62
7
  6
CONTINUOUS
 10
-2.6550261
 20
21.2409240636
  0
VERTEX
  8
0
 62
7
  6
CONTINUOUS
 10
-3.2596740475
 20
30.9323661632
  0
VERTEX
  8
0
 62
7
  6
CONTINUOUS
 10
-3.7728246893
 20
39.480658008
  0
VERTEX
  8
0
 62
7
  6
CONTINUOUS
 10
-4.2080084162
 20
46.9955089367
  0
VERTEX
  8
0
 62
7
  6
CONTINUOUS
 10
-4.5758839395
 20
53.5624597941
  0
VERTEX
  8
0
 62
7
  6
CONTINUOUS
 10
-4.8916946609
 20
59.3750911462
  0
VERTEX
  8
0
 62
7
  6
CONTINUOUS
 10
-5.1717936319
 20
64.6817833852
  0
VERTEX
  8
0
 62
7
  6
CONTINUOUS
 10
-5.4312843254
 20
69.7426823743
  0
VERTEX
  8
0
 62
7
  6
CONTINUOUS
 10
-5.681230616
 20
74.7676104767
  0
VERTEX
  8
0
 62
7
  6
CONTINUOUS
 10
-5.9275421052
 20
79.8845989707
  0
VERTEX
  8
0
 62
7
  6
CONTINUOUS
 10
-6.1720565735
 20
85.1513875047
  0
VERTEX
  8
0
 62
7
  6
CONTINUOUS
 10
-6.413448222
 20
90.5642073213
  0
VERTEX
  8
0
 62
7
  6
CONTINUOUS
 10
-6.6532441669
 20
96.1892100803
  0
VERTEX
  8
0
 62
7
  6
CONTINUOUS
 10
-6.8922267775
 20
102.0906051749
  0
VERTEX
  8
0
 62
7
  6
CONTINUOUS
 10
-7.1260102702
 20
108.2136286916
  0
VERTEX
  8
0
 62
7
  6
CONTINUOUS
 10
-7.3484354327
 20
114.438870592
  0
VERTEX
  8
0
 62
7
  6
CONTINUOUS
 10
-7.5511102292
 20
120.5364801539
  0
VERTEX
  8
0
 62
7
  6
CONTINUOUS
 10
-7.7252877781
 20
126.1870877347
  0
VERTEX
  8
0
 62
7
  6
CONTINUOUS
 10
-7.8696335438
 20
131.2352904705
  0
VERTEX
  8
0
 62
7
  6
CONTINUOUS
 10
-7.9873130838
 20
135.6606861564
  0
VERTEX
  8
0
 62
7
  6
CONTINUOUS
 10
-8.0848660603
 20
139.5933765448
  0
VERTEX
  8
0
 62
7
  6
CONTINUOUS
 10
-8.1666715591
 20
143.120155898
  0
VERTEX
  8
0
 62
7
  6
CONTINUOUS
 10
-8.2351257724
 20
146.268640019
  0
VERTEX
  8
0
 62
7
  6
CONTINUOUS
 10
-8.2923438297
 20
149.068420017
  0
VERTEX
  8
0
 62
7
  6
CONTINUOUS
 10
-8.3398049009
 20
151.530865586
  0
VERTEX
  8
0
 62
7
  6
CONTINUOUS
 10
-8.3793282129
 20
153.6971012704
  0
SEQEND
  0
POLYLINE
  8
0
 62
7
  6
CONTINUOUS
 66
1
 70
0
  0
VERTEX
  8
0
 62
7
  6
CONTINUOUS
 10
335.0704788226
 20
-301.3029053959
  0
VERTEX
  8
0
 62
7
  6
CONTINUOUS
 10
335.222686579
 20
-301.3005834599
  0
VERTEX
  8
0
 62
7
  6
CONTINUOUS
 10
335.3748087285
 20
-301.2936234084
  0
VERTEX
  8
0
 62
7
  6
CONTINUOUS
 10
335.5266781865
 20
-301.2820338763
  0
VERTEX
  8
0
 62
7
  6
CONTINUOUS
 10
335.6781278681
 20
-301.2658234983
  0
VERTEX
  8
0
 62
7
  6
CONTINUOUS
 10
335.8289977331
 20
-301.2450035761
  0
VERTEX
  8
0
 62
7
  6
CONTINUOUS
 10
335.979148497
 20
-301.2195971415
  0
VERTEX
  8
0
 62
7
  6
CONTINUOUS
 10
336.1284479299
 20
-301.1896299689
  0
VERTEX
  8
0
 62
7
  6
CONTINUOUS
 10
336.2767638016
 20
-301.1551278324
  0
VERTEX
  8
0
 62
7
  6
CONTINUOUS
 10
336.4239654521
 20
-301.1161186412
  0
VERTEX
  8
0
 62
7
  6
CONTINUOUS
 10
336.5699144515
 20
-301.072642642
  0
VERTEX
  8
0
 62
7
  6
CONTINUOUS
 10
336.7144739758
 20
-301.0247423601
  0
VERTEX
  8
0
 62
7
  6
CONTINUOUS
 10
336.8575072008
 20
-300.9724603204
  0
VERTEX
  8
0
 62
7
  6
CONTINUOUS
 10
336.9988819167
 20
-300.9158403987
  0
VERTEX
  8
0
 62
7
  6
CONTINUOUS
 10
337.1384651504
 20
-300.8549396843
  0
VERTEX
  8
0
 62
7
  6
CONTINUOUS
 10
337.2761286188
 20
-300.7898168142
  0
VERTEX
  8
0
 62
7
  6
CONTINUOUS
 10
337.4117440386
 20
-300.7205304254
  0
VERTEX
  8
0
 62
7
  6
CONTINUOUS
 10
337.5451880971
 20
-300.6471395696
  0
VERTEX
  8
0
 62
7
  6
CONTINUOUS
 10
337.676334892
 20
-300.5697174647
  0
VERTEX
  8
0
 62
7
  6
CONTINUOUS
 10
337.805063614
 20
-300.4883379746
  0
VERTEX
  8
0
 62
7
  6
CONTINUOUS
 10
337.9312534536
 20
-300.4030749629
  0
VERTEX
  8
0
 62
7
  6
CONTINUOUS
 10
338.054789178
 20
-300.3140017457
  0
VERTEX
  8
0
 62
7
  6
CONTINUOUS
 10
338.1755542915
 20
-300.2212066261
  0
VERTEX
  8
0
 62
7
  6
CONTINUOUS
 10
338.2934380446
 20
-300.1247776024
  0
VERTEX
  8
0
 62
7
  6
CONTINUOUS
 10
338.408329688
 20
-300.0248026731
  0
VERTEX
  8
0
 62
7
  6
CONTINUOUS
 10
338.5201241131
 20
-299.9213684095
  0
VERTEX
  8
0
 62
7
  6
CONTINUOUS
 10
338.6287162103
 20
-299.8145767654
  0
VERTEX
  8
0
 62
7
  6
CONTINUOUS
 10
338.7340067205
 20
-299.7045285014
  0
VERTEX
  8
0
 62
7
  6
CONTINUOUS
 10
338.8358963847
 20
-299.591324378
  0
VERTEX
  8
0
 62
7
  6
CONTINUOUS
 10
338.934291364
 20
-299.4750631
  0
VERTEX
  8
0
 62
7
  6
CONTINUOUS
 10
339.0290997318
 20
-299.3558587491
  0
VERTEX
  8
0
 62
7
  6
CONTINUOUS
 10
339.1202352174
 20
-299.2338235573
  0
VERTEX
  8
0
 62
7
  6
CONTINUOUS
 10
339.2076115501
 20
-299.1090697565
  0
VERTEX
  8
0
 62
7
  6
CONTINUOUS
 10
339.2911474246
 20
-298.9817070171
  0
VERTEX
  8
0
 62
7
  6
CONTINUOUS
 10
339.37076569
 20
-298.8518589787
  0
VERTEX
  8
0
 62
7
  6
CONTINUOUS
 10
339.4463944036
 20
-298.7196468839
  0
VERTEX
  8
0
 62
7
  6
CONTINUOUS
 10
339.5179616227
 20
-298.5851919752
  0
VERTEX
  8
0
 62
7
  6
CONTINUOUS
 10
339.5853997204
 20
-298.4486133896
  0
VERTEX
  8
0
 62
7
  6
CONTINUOUS
 10
339.6486472761
 20
-298.3100445241
  0
VERTEX
  8
0
 62
7
  6
CONTINUOUS
 10
339.707647413
 20
-298.1696167871
  0
VERTEX
  8
0
 62
7
  6
CONTINUOUS
 10
339.7623432546
 20
-298.0274615871
  0
VERTEX
  8
0
 62
7
  6
CONTINUOUS
 10
339.8126818336
 20
-297.8837066839
  0
VERTEX
  8
0
 62
7
  6
CONTINUOUS
 10
339.8586192692
 20
-297.7384842606
  0
VERTEX
  8
0
 62
7
  6
CONTINUOUS
 10
339.9001157819
 20
-297.5919229219
  0
VERTEX
  8
0
 62
7
  6
CONTINUOUS
 10
339.9371315921
 20
-297.4441512725
  0
VERTEX
  8
0
 62
7
  6
CONTINUOUS
 10
339.9696295773
 20
-297.2953017339
  0
VERTEX
  8
0
 62
7
  6
CONTINUOUS
 10
339.997580366
 20
-297.1455355013
  0
VERTEX
  8
0
 62
7
  6
CONTINUOUS
 10
340.0209573801
 20
-296.9950176194
  0
VERTEX
  8
0
 62
7
  6
CONTINUOUS
 10
340.0397340416
 20
-296.8439131329
  0
SEQEND
  0
POLYLINE
  8
0
 62
7
  6
CONTINUOUS
 66
1
 70
0
  0
VERTEX
  8
0
 62
7
  6
CONTINUOUS
 10
25.5904029447
 20
-296.8439131329
  0
VERTEX
  8
0
 62
7
  6
CONTINUOUS
 10
25.6091796062
 20
-296.9950176194
  0
VERTEX
  8
0
 62
7
  6
CONTINUOUS
 10
25.6325566203
 20
-297.1455355013
  0
VERTEX
  8
0
 62
7
  6
CONTINUOUS
 10
25.660507409
 20
-297.2953017339
  0
VERTEX
  8
0
 62
7
  6
CONTINUOUS
 10
25.6930053942
 20
-297.4441512725
  0
VERTEX
  8
0
 62
7
  6
CONTINUOUS
 10
25.7300212044
 20
-297.5919229219
  0
VERTEX
  8
0
 62
7
  6
CONTINUOUS
 10
25.7715177171
 20
-297.7384842606
  0
VERTEX
  8
0
 62
7
  6
CONTINUOUS
 10
25.8174551527
 20
-297.8837066839
  0
VERTEX
  8
0
 62
7
  6
CONTINUOUS
 10
25.8677937317
 20
-298.0274615871
  0
VERTEX
  8
0
 62
7
  6
CONTINUOUS
 10
25.9224895733
 20
-298.1696167871
  0
VERTEX
  8
0
 62
7
  6
CONTINUOUS
 10
25.9814897102
 20
-298.3100445241
  0
VERTEX
  8
0
 62
7
  6
CONTINUOUS
 10
26.0447372659
 20
-298.4486133896
  0
VERTEX
  8
0
 62
7
  6
CONTINUOUS
 10
26.1121753636
 20
-298.5851919752
  0
VERTEX
  8
0
 62
7
  6
CONTINUOUS
 10
26.1837425827
 20
-298.7196468839
  0
VERTEX
  8
0
 62
7
  6
CONTINUOUS
 10
26.2593712963
 20
-298.8518589787
  0
VERTEX
  8
0
 62
7
  6
CONTINUOUS
 10
26.3389895617
 20
-298.9817070171
  0
VERTEX
  8
0
 62
7
  6
CONTINUOUS
 10
26.4225254362
 20
-299.1090697565
  0
VERTEX
  8
0
 62
7
  6
CONTINUOUS
 10
26.5099017689
 20
-299.2338235573
  0
VERTEX
  8
0
 62
7
  6
CONTINUOUS
 10
26.6010372545
 20
-299.3558587491
  0
VERTEX
  8
0
 62
7
  6
CONTINUOUS
 10
26.6958456223
 20
-299.4750631
  0
VERTEX
  8
0
 62
7
  6
CONTINUOUS
 10
26.7942406016
 20
-299.591324378
  0
VERTEX
  8
0
 62
7
  6
CONTINUOUS
 10
26.8961302658
 20
-299.7045285014
  0
VERTEX
  8
0
 62
7
  6
CONTINUOUS
 10
27.001420776
 20
-299.8145767654
  0
VERTEX
  8
0
 62
7
  6
CONTINUOUS
 10
27.1100128732
 20
-299.9213684095
  0
VERTEX
  8
0
 62
7
  6
CONTINUOUS
 10
27.2218072983
 20
-300.0248026732
  0
VERTEX
  8
0
 62
7
  6
CONTINUOUS
 10
27.3366989417
 20
-300.1247776024
  0
VERTEX
  8
0
 62
7
  6
CONTINUOUS
 10
27.4545826948
 20
-300.2212066261
  0
VERTEX
  8
0
 62
7
  6
CONTINUOUS
 10
27.5753478083
 20
-300.3140017457
  0
VERTEX
  8
0
 62
7
  6
CONTINUOUS
 10
27.6988835327
 20
-300.4030749629
  0
VERTEX
  8
0
 62
7
  6
CONTINUOUS
 10
27.8250733723
 20
-300.4883379746
  0
VERTEX
  8
0
 62
7
  6
CONTINUOUS
 10
27.9538020943
 20
-300.5697174647
  0
VERTEX
  8
0
 62
7
  6
CONTINUOUS
 10
28.0849488892
 20
-300.6471395696
  0
VERTEX
  8
0
 62
7
  6
CONTINUOUS
 10
28.2183929477
 20
-300.7205304254
  0
VERTEX
  8
0
 62
7
  6
CONTINUOUS
 10
28.3540083675
 20
-300.7898168142
  0
VERTEX
  8
0
 62
7
  6
CONTINUOUS
 10
28.4916718359
 20
-300.8549396843
  0
VERTEX
  8
0
 62
7
  6
CONTINUOUS
 10
28.6312550696
 20
-300.9158403987
  0
VERTEX
  8
0
 62
7
  6
CONTINUOUS
 10
28.7726297855
 20
-300.9724603204
  0
VERTEX
  8
0
 62
7
  6
CONTINUOUS
 10
28.9156630105
 20
-301.0247423601
  0
VERTEX
  8
0
 62
7
  6
CONTINUOUS
 10
29.0602225348
 20
-301.072642642
  0
VERTEX
  8
0
 62
7
  6
CONTINUOUS
 10
29.2061715342
 20
-301.1161186412
  0
VERTEX
  8
0
 62
7
  6
CONTINUOUS
 10
29.3533731847
 20
-301.1551278324
  0
VERTEX
  8
0
 62
7
  6
CONTINUOUS
 10
29.5016890564
 20
-301.1896299689
  0
VERTEX
  8
0
 62
7
  6
CONTINUOUS
 10
29.6509884893
 20
-301.2195971415
  0
VERTEX
  8
0
 62
7
  6
CONTINUOUS
 10
29.8011392532
 20
-301.2450035761
  0
VERTEX
  8
0
 62
7
  6
CONTINUOUS
 10
29.9520091182
 20
-301.2658234983
  0
VERTEX
  8
0
 62
7
  6
CONTINUOUS
 10
30.1034587998
 20
-301.2820338763
  0
VERTEX
  8
0
 62
7
  6
CONTINUOUS
 10
30.2553282578
 20
-301.2936234084
  0
VERTEX
  8
0
 62
7
  6
CONTINUOUS
 10
30.4074504073
 20
-301.3005834599
  0
VERTEX
  8
0
 62
7
  6
CONTINUOUS
 10
30.5596581637
 20
-301.3029053959
  0
SEQEND
  0
POLYLINE
  8
0
 62
7
  6
CONTINUOUS
 66
1
 70
0
  0
VERTEX
  8
0
 62
7
  6
CONTINUOUS
 10
374.0094651989
 20
153.6971012704
  0
VERTEX
  8
0
 62
7
  6
CONTINUOUS
 10
373.9709399346
 20
151.5841922808
  0
VERTEX
  8
0
 62
7
  6
CONTINUOUS
 10
373.9277774862
 20
149.3364701285
  0
VERTEX
  8
0
 62
7
  6
CONTINUOUS
 10
373.8792905081
 20
146.9396563086
  0
VERTEX
  8
0
 62
7
  6
CONTINUOUS
 10
373.8257055035
 20
144.4250534354
  0
VERTEX
  8
0
 62
7
  6
CONTINUOUS
 10
373.7620099056
 20
141.5913604883
  0
VERTEX
  8
0
 62
7
  6
CONTINUOUS
 10
373.6860344131
 20
138.3971810574
  0
VERTEX
  8
0
 62
7
  6
CONTINUOUS
 10
373.59587142
 20
134.8252032151
  0
VERTEX
  8
0
 62
7
  6
CONTINUOUS
 10
373.4872774654
 20
130.7830773682
  0
VERTEX
  8
0
 62
7
  6
CONTINUOUS
 10
373.3562906357
 20
126.2162954146
  0
VERTEX
  8
0
 62
7
  6
CONTINUOUS
 10
373.1990457004
 20
121.0948279458
  0
VERTEX
  8
0
 62
7
  6
CONTINUOUS
 10
373.0082989775
 20
115.3054650156
  0
VERTEX
  8
0
 62
7
  6
CONTINUOUS
 10
372.7881039349
 20
109.0819893141
  0
VERTEX
  8
0
 62
7
  6
CONTINUOUS
 10
372.5558923143
 20
102.9457094481
  0
VERTEX
  8
0
 62
7
  6
CONTINUOUS
 10
372.3189425113
 20
97.0472784523
  0
VERTEX
  8
0
 62
7
  6
CONTINUOUS
 10
372.0815829632
 20
91.4379384561
  0
VERTEX
  8
0
 62
7
  6
CONTINUOUS
 10
371.8423746994
 20
86.0367569735
  0
VERTEX
  8
0
 62
7
  6
CONTINUOUS
 10
371.5999888864
 20
80.7818217416
  0
VERTEX
  8
0
 62
7
  6
CONTINUOUS
 10
371.3534773648
 20
75.6301643666
  0
VERTEX
  8
0
 62
7
  6
CONTINUOUS
 10
371.1039932651
 20
70.5875877409
  0
VERTEX
  8
0
 62
7
  6
CONTINUOUS
 10
370.8469406838
 20
65.5491188778
  0
VERTEX
  8
0
 62
7
  6
CONTINUOUS
 10
370.5754648919
 20
60.3796206361
  0
VERTEX
  8
0
 62
7
  6
CONTINUOUS
 10
370.2797149773
 20
54.9036935795
  0
VERTEX
  8
0
 62
7
  6
CONTINUOUS
 10
369.9472326027
 20
48.9212512139
  0
VERTEX
  8
0
 62
7
  6
CONTINUOUS
 10
369.5605602658
 20
42.172268184
  0
VERTEX
  8
0
 62
7
  6
CONTINUOUS
 10
369.1032689398
 20
34.449712791
  0
VERTEX
  8
0
 62
7
  6
CONTINUOUS
 10
368.5617432207
 20
25.6262623974
  0
VERTEX
  8
0
 62
7
  6
CONTINUOUS
 10
367.9230768371
 20
15.6129190712
  0
VERTEX
  8
0
 62
7
  6
CONTINUOUS
 10
367.1790504828
 20
4.4140622517
  0
VERTEX
  8
0
 62
7
  6
CONTINUOUS
 10
366.3274724376
 20
-7.8633388006
  0
VERTEX
  8
0
 62
7
  6
CONTINUOUS
 10
365.4958850296
 20
-19.3607133737
  0
VERTEX
  8
0
 62
7
  6
CONTINUOUS
 10
364.7385904018
 20
-29.4542902316
  0
VERTEX
  8
0
 62
7
  6
CONTINUOUS
 10
364.0502314675
 20
-38.3477429403
  0
VERTEX
  8
0
 62
7
  6
CONTINUOUS
 10
363.4330424225
 20
-46.1158965352
  0
VERTEX
  8
0
 62
7
  6
CONTINUOUS
 10
362.8809081708
 20
-52.9155853873
  0
VERTEX
  8
0
 62
7
  6
CONTINUOUS
 10
362.379674443
 20
-58.9758022187
  0
VERTEX
  8
0
 62
7
  6
CONTINUOUS
 10
361.9203400529
 20
-64.4418875116
  0
VERTEX
  8
0
 62
7
  6
CONTINUOUS
 10
361.4816328271
 20
-69.5892305501
  0
VERTEX
  8
0
 62
7
  6
CONTINUOUS
 10
361.0632060308
 20
-74.4357345997
  0
VERTEX
  8
0
 62
7
  6
CONTINUOUS
 10
360.6889589417
 20
-78.721220588
  0
VERTEX
  8
0
 62
7
  6
CONTINUOUS
 10
360.3565735401
 20
-82.4905964882
  0
VERTEX
  8
0
 62
7
  6
CONTINUOUS
 10
360.0394309271
 20
-86.0576885398
  0
VERTEX
  8
0
 62
7
  6
CONTINUOUS
 10
359.7593887501
 20
-89.1856826648
  0
VERTEX
  8
0
 62
7
  6
CONTINUOUS
 10
359.4692760104
 20
-92.4064364985
  0
VERTEX
  8
0
 62
7
  6
CONTINUOUS
 10
359.1968817693
 20
-95.4137432331
  0
VERTEX
  8
0
 62
7
  6
CONTINUOUS
 10
358.9292525867
 20
-98.3540041481
  0
VERTEX
  8
0
 62
7
  6
CONTINUOUS
 10
358.651761159
 20
-101.3888327416
  0
VERTEX
  8
0
 62
7
  6
CONTINUOUS
 10
358.3933759967
 20
-104.2032330683
  0
VERTEX
  8
0
 62
7
  6
CONTINUOUS
 10
358.1141220901
 20
-107.23371596
  0
VERTEX
  8
0
 62
7
  6
CONTINUOUS
 10
357.8434678925
 20
-110.1608940391
  0
VERTEX
  8
0
 62
7
  6
CONTINUOUS
 10
357.5794730364
 20
-113.0076458963
  0
VERTEX
  8
0
 62
7
  6
CONTINUOUS
 10
357.2938842821
 20
-116.0790594233
  0
VERTEX
  8
0
 62
7
  6
CONTINUOUS
 10
357.017407461
 20
-119.0454833526
  0
VERTEX
  8
0
 62
7
  6
CONTINUOUS
 10
356.7442261346
 20
-121.9708573032
  0
VERTEX
  8
0
 62
7
  6
CONTINUOUS
 10
356.4502034126
 20
-125.1142574837
  0
VERTEX
  8
0
 62
7
  6
CONTINUOUS
 10
356.154848376
 20
-128.2676059584
  0
VERTEX
  8
0
 62
7
  6
CONTINUOUS
 10
355.8610202439
 20
-131.4013209887
  0
VERTEX
  8
0
 62
7
  6
CONTINUOUS
 10
355.5627722346
 20
-134.5797210719
  0
VERTEX
  8
0
 62
7
  6
CONTINUOUS
 10
355.227430656
 20
-138.1516491609
  0
VERTEX
  8
0
 62
7
  6
CONTINUOUS
 10
354.8738041956
 20
-141.9177347424
  0
VERTEX
  8
0
 62
7
  6
CONTINUOUS
 10
354.5401557406
 20
-145.4718759042
  0
VERTEX
  8
0
 62
7
  6
CONTINUOUS
 10
354.1596698357
 20
-149.5276384403
  0
VERTEX
  8
0
 62
7
  6
CONTINUOUS
 10
353.7558818862
 20
-153.8370379682
  0
VERTEX
  8
0
 62
7
  6
CONTINUOUS
 10
353.3705715631
 20
-157.9564217322
  0
VERTEX
  8
0
 62
7
  6
CONTINUOUS
 10
352.9337518411
 20
-162.6376820303
  0
VERTEX
  8
0
 62
7
  6
CONTINUOUS
 10
352.4832203326
 20
-167.4814958868
  0
VERTEX
  8
0
 62
7
  6
CONTINUOUS
 10
352.0339530657
 20
-172.3287371761
  0
VERTEX
  8
0
 62
7
  6
CONTINUOUS
 10
351.5583153032
 20
-177.4764464261
  0
VERTEX
  8
0
 62
7
  6
CONTINUOUS
 10
351.1051338868
 20
-182.3934853519
  0
VERTEX
  8
0
 62
7
  6
CONTINUOUS
 10
350.6880275112
 20
-186.9272739281
  0
VERTEX
  8
0
 62
7
  6
CONTINUOUS
 10
350.3238015034
 20
-190.8908399367
  0
VERTEX
  8
0
 62
7
  6
CONTINUOUS
 10
349.9573914382
 20
-194.8808433478
  0
VERTEX
  8
0
 62
7
  6
CONTINUOUS
 10
349.575647409
 20
-199.0389780523
  0
VERTEX
  8
0
 62
7
  6
CONTINUOUS
 10
349.2435441911
 20
-202.655986289
  0
VERTEX
  8
0
 62
7
  6
CONTINUOUS
 10
348.9155905825
 20
-206.2262118313
  0
VERTEX
  8
0
 62
7
  6
CONTINUOUS
 10
348.5874123068
 20
-209.7961539356
  0
VERTEX
  8
0
 62
7
  6
CONTINUOUS
 10
348.2885797348
 20
-213.0432384625
  0
VERTEX
  8
0
 62
7
  6
CONTINUOUS
 10
348.0047136286
 20
-216.1231356845
  0
VERTEX
  8
0
 62
7
  6
CONTINUOUS
 10
347.7191982717
 20
-219.2151734003
  0
VERTEX
  8
0
 62
7
  6
CONTINUOUS
 10
347.4544336016
 20
-222.0762591766
  0
VERTEX
  8
0
 62
7
  6
CONTINUOUS
 10
347.2085739047
 20
-224.7268246668
  0
VERTEX
  8
0
 62
7
  6
CONTINUOUS
 10
346.9713179468
 20
-227.2782238154
  0
VERTEX
  8
0
 62
7
  6
CONTINUOUS
 10
346.7283734906
 20
-229.8835751921
  0
VERTEX
  8
0
 62
7
  6
CONTINUOUS
 10
346.4912008837
 20
-232.4193293779
  0
VERTEX
  8
0
 62
7
  6
CONTINUOUS
 10
346.2761377146
 20
-234.7115990113
  0
VERTEX
  8
0
 62
7
  6
CONTINUOUS
 10
346.0446610363
 20
-237.1707399145
  0
VERTEX
  8
0
 62
7
  6
CONTINUOUS
 10
345.7920055496
 20
-239.844707593
  0
VERTEX
  8
0
 62
7
  6
CONTINUOUS
 10
345.5601349333
 20
-242.2888005201
  0
VERTEX
  8
0
 62
7
  6
CONTINUOUS
 10
345.3078924425
 20
-244.9362726287
  0
VERTEX
  8
0
 62
7
  6
CONTINUOUS
 10
345.0481857384
 20
-247.6490990557
  0
VERTEX
  8
0
 62
7
  6
CONTINUOUS
 10
344.8009990813
 20
-250.2183352504
  0
VERTEX
  8
0
 62
7
  6
CONTINUOUS
 10
344.5165865867
 20
-253.1583826513
  0
VERTEX
  8
0
 62
7
  6
CONTINUOUS
 10
344.2207921047
 20
-256.1971851049
  0
VERTEX
  8
0
 62
7
  6
CONTINUOUS
 10
343.8958480213
 20
-259.5125431085
  0
VERTEX
  8
0
 62
7
  6
CONTINUOUS
 10
343.5549978419
 20
-262.9636633136
  0
VERTEX
  8
0
 62
7
  6
CONTINUOUS
 10
343.2002586075
 20
-266.5257922942
  0
VERTEX
  8
0
 62
7
  6
CONTINUOUS
 10
342.8409872269
 20
-270.1019037774
  0
VERTEX
  8
0
 62
7
  6
CONTINUOUS
 10
342.4932007591
 20
-273.5328578005
  0
VERTEX
  8
0
 62
7
  6
CONTINUOUS
 10
342.1152589981
 20
-277.2263009521
  0
VERTEX
  8
0
 62
7
  6
CONTINUOUS
 10
341.6952120511
 20
-281.2878118574
  0
VERTEX
  8
0
 62
7
  6
CONTINUOUS
 10
341.2964219543
 20
-285.1009833814
  0
VERTEX
  8
0
 62
7
  6
CONTINUOUS
 10
340.9429477333
 20
-288.445683595
  0
VERTEX
  8
0
 62
7
  6
CONTINUOUS
 10
340.6292748762
 20
-291.3859319842
  0
VERTEX
  8
0
 62
7
  6
CONTINUOUS
 10
340.3310451356
 20
-294.1571399175
  0
VERTEX
  8
0
 62
7
  6
CONTINUOUS
 10
340.0396090359
 20
-296.8439048215
  0
SEQEND
  0
LINE
  8
0
 62
7
  6
CONTINUOUS
 10
175.9116685092
 20
613.8086976867
 11
176.2965818419
 21
613.9265369932
  0
LINE
  8
0
 62
7
  6
CONTINUOUS
 10
27.2522359923
 20
-301.3029053959
 11
338.3779184454
 21
-301.3029053959
  0
POLYLINE
  8
0
 62
7
  6
CONTINUOUS
 66
1
 70
0
  0
VERTEX
  8
0
 62
7
  6
CONTINUOUS
 10
182.0407465505
 20
615.3808528752
  0
VERTEX
  8
0
 62
7
  6
CONTINUOUS
 10
182.0569543012
 20
615.3967036986
  0
VERTEX
  8
0
 62
7
  6
CONTINUOUS
 10
182.0703664951
 20
615.4182891247
  0
VERTEX
  8
0
 62
7
  6
CONTINUOUS
 10
182.0747747789
 20
615.4393086541
  0
SEQEND
  0
LINE
  8
0
 62
7
  6
CONTINUOUS
 10
164.3063674833
 20
613.8086975235
 11
161.6730516273
 21
610.4111896705
  0
POLYLINE
  8
0
 62
7
  6
CONTINUOUS
 66
1
 70
0
  0
VERTEX
  8
0
 62
7
  6
CONTINUOUS
 10
173.9097644345
 20
610.4111890495
  0
VERTEX
  8
0
 62
7
  6
CONTINUOUS
 10
174.2678035629
 20
611.0237694157
  0
VERTEX
  8
0
 62
7
  6
CONTINUOUS
 10
174.6161112576
 20
611.6178364537
  0
VERTEX
  8
0
 62
7
  6
CONTINUOUS
 10
174.9547099681
 20
612.1934072658
  0
VERTEX
  8
0
 62
7
  6
CONTINUOUS
 10
175.2835323461
 20
612.7504305451
  0
VERTEX
  8
0
 62
7
  6
CONTINUOUS
 10
175.6025110434
 20
613.2888549846
  0
VERTEX
  8
0
 62
7
  6
CONTINUOUS
 10
175.9116685092
 20
613.8086976867
  0
SEQEND
  0
LINE
  8
0
 62
7
  6
CONTINUOUS
 10
174.7351156761
 20
611.3100254892
 11
174.1525003335
 21
610.3230081987
  0
POLYLINE
  8
0
 62
7
  6
CONTINUOUS
 66
1
 70
0
  0
VERTEX
  8
0
 62
7
  6
CONTINUOUS
 10
176.3323801871
 20
613.986130544
  0
VERTEX
  8
0
 62
7
  6
CONTINUOUS
 10
175.8250556029
 20
613.1415866619
  0
VERTEX
  8
0
 62
7
  6
CONTINUOUS
 10
175.2926340992
 20
612.2495516436
  0
VERTEX
  8
0
 62
7
  6
CONTINUOUS
 10
174.7351156761
 20
611.3100254892
  0
SEQEND
  0
LINE
  8
0
 62
7
  6
CONTINUOUS
 10
-18.144164275
 20
591.9905837791
 11
-18.5492304765
 21
568.7843566363
  0
POLYLINE
  8
0
 62
7
  6
CONTINUOUS
 66
1
 70
0
  0
VERTEX
  8
0
 62
7
  6
CONTINUOUS
 10
-8.3794835555
 20
153.697161206
  0
VERTEX
  8
0
 62
7
  6
CONTINUOUS
 10
-7.9650036685
 20
134.7656414621
  0
VERTEX
  8
0
 62
7
  6
CONTINUOUS
 10
-7.3910479432
 20
115.6711993675
  0
VERTEX
  8
0
 62
7
  6
CONTINUOUS
 10
-6.6230174858
 20
95.4659328356
  0
VERTEX
  8
0
 62
7
  6
CONTINUOUS
 10
-6.3798795155
 20
89.7965118118
  0
SEQEND
  0
POLYLINE
  8
0
 62
7
  6
CONTINUOUS
 66
1
 70
0
  0
VERTEX
  8
0
 62
7
  6
CONTINUOUS
 10
-15.9470214163
 20
558.6076103298
  0
VERTEX
  8
0
 62
7
  6
CONTINUOUS
 10
-15.1126902197
 20
511.9987138372
  0
VERTEX
  8
0
 62
7
  6
CONTINUOUS
 10
-14.9065234144
 20
500.4806997714
  0
VERTEX
  8
0
 62
7
  6
CONTINUOUS
 10
-13.8700091629
 20
442.1287145831
  0
VERTEX
  8
0
 62
7
  6
CONTINUOUS
 10
-13.4138751484
 20
416.1873408179
  0
VERTEX
  8
0
 62
7
  6
CONTINUOUS
 10
-13.4654150461
 20
419.1266910081
  0
VERTEX
  8
0
 62
7
  6
CONTINUOUS
 10
-13.3080084017
 20
410.1429361671
  0
VERTEX
  8
0
 62
7
  6
CONTINUOUS
 10
-13.1203417055
 20
399.4063529473
  0
VERTEX
  8
0
 62
7
  6
CONTINUOUS
 10
-12.8103873057
 20
381.6116119689
  0
VERTEX
  8
0
 62
7
  6
CONTINUOUS
 10
-12.4723378511
 20
362.1151953339
  0
SEQEND
  0
POLYLINE
  8
0
 62
7
  6
CONTINUOUS
 66
1
 70
0
  0
VERTEX
  8
0
 62
7
  6
CONTINUOUS
 10
-12.4723378511
 20
362.1151953339
  0
VERTEX
  8
0
 62
7
  6
CONTINUOUS
 10
-9.5759491021
 20
194.7371715939
  0
VERTEX
  8
0
 62
7
  6
CONTINUOUS
 10
-9.2440696532
 20
175.5586767133
  0
SEQEND
  0
POLYLINE
  8
0
 62
7
  6
CONTINUOUS
 66
1
 70
0
  0
VERTEX
  8
0
 62
7
  6
CONTINUOUS
 10
-8.4770503555
 20
159.5723218094
  0
VERTEX
  8
0
 62
7
  6
CONTINUOUS
 10
-8.4621665179
 20
158.6267789395
  0
VERTEX
  8
0
 62
7
  6
CONTINUOUS
 10
-8.444828658
 20
157.5475830345
  0
VERTEX
  8
0
 62
7
  6
CONTINUOUS
 10
-8.4276258253
 20
156.5006368554
  0
VERTEX
  8
0
 62
7
  6
CONTINUOUS
 10
-8.4105347426
 20
155.4840859954
  0
VERTEX
  8
0
 62
7
  6
CONTINUOUS
 10
-8.3936596981
 20
154.5034110138
  0
VERTEX
  8
0
 62
7
  6
CONTINUOUS
 10
-8.379481098
 20
153.6970232298
  0
SEQEND
  0
POLYLINE
  8
0
 62
7
  6
CONTINUOUS
 66
1
 70
0
  0
VERTEX
  8
0
 62
7
  6
CONTINUOUS
 10
182.5747747789
 20
615.6441385614
  0
VERTEX
  8
0
 62
7
  6
CONTINUOUS
 10
182.5701732376
 20
615.6210303493
  0
VERTEX
  8
0
 62
7
  6
CONTINUOUS
 10
182.5557084344
 20
615.5966995949
  0
VERTEX
  8
0
 62
7
  6
CONTINUOUS
 10
182.5301991316
 20
615.5709583935
  0
VERTEX
  8
0
 62
7
  6
CONTINUOUS
 10
182.4932256938
 20
615.5443704595
  0
VERTEX
  8
0
 62
7
  6
CONTINUOUS
 10
182.4450653574
 20
615.5173983726
  0
VERTEX
  8
0
 62
7
  6
CONTINUOUS
 10
182.3857462681
 20
615.490157632
  0
VERTEX
  8
0
 62
7
  6
CONTINUOUS
 10
182.3158079463
 20
615.4629067012
  0
VERTEX
  8
0
 62
7
  6
CONTINUOUS
 10
182.235364703
 20
615.4356792662
  0
VERTEX
  8
0
 62
7
  6
CONTINUOUS
 10
182.1446817046
 20
615.408565149
  0
SEQEND
  0
LINE
  8
0
 62
7
  6
CONTINUOUS
 10
182.0747747789
 20
615.3898679079
 11
182.0747747789
 21
616.0608222972
  0
LINE
  8
0
 62
7
  6
CONTINUOUS
 10
182.5747747789
 20
616.2640044609
 11
182.5747747789
 21
615.6441384809
  0
POLYLINE
  8
0
 62
7
  6
CONTINUOUS
 66
1
 70
0
  0
VERTEX
  8
0
 62
7
  6
CONTINUOUS
 10
366.8842357321
 20
167.6971154514
  0
VERTEX
  8
0
 62
7
  6
CONTINUOUS
 10
367.3677760069
 20
167.7122775232
  0
VERTEX
  8
0
 62
7
  6
CONTINUOUS
 10
367.8495121623
 20
167.7566388435
  0
VERTEX
  8
0
 62
7
  6
CONTINUOUS
 10
368.3276813015
 20
167.8300363029
  0
VERTEX
  8
0
 62
7
  6
CONTINUOUS
 10
368.8005394763
 20
167.9322017284
  0
VERTEX
  8
0
 62
7
  6
CONTINUOUS
 10
369.2663618558
 20
168.0627628204
  0
VERTEX
  8
0
 62
7
  6
CONTINUOUS
 10
369.7234436161
 20
168.2212424226
  0
VERTEX
  8
0
 62
7
  6
CONTINUOUS
 10
370.1701134976
 20
168.4070616828
  0
VERTEX
  8
0
 62
7
  6
CONTINUOUS
 10
370.6047372506
 20
168.6195413384
  0
VERTEX
  8
0
 62
7
  6
CONTINUOUS
 10
371.0257251501
 20
168.8579047429
  0
VERTEX
  8
0
 62
7
  6
CONTINUOUS
 10
371.4315364633
 20
169.12127996
  0
VERTEX
  8
0
 62
7
  6
CONTINUOUS
 10
371.8206860676
 20
169.4087033255
  0
VERTEX
  8
0
 62
7
  6
CONTINUOUS
 10
372.1917507379
 20
169.7191237172
  0
VERTEX
  8
0
 62
7
  6
CONTINUOUS
 10
372.5433731042
 20
170.0514056031
  0
VERTEX
  8
0
 62
7
  6
CONTINUOUS
 10
372.8742673503
 20
170.4043338388
  0
VERTEX
  8
0
 62
7
  6
CONTINUOUS
 10
373.1832233172
 20
170.7766176155
  0
VERTEX
  8
0
 62
7
  6
CONTINUOUS
 10
373.4691112896
 20
171.1668955889
  0
VERTEX
  8
0
 62
7
  6
CONTINUOUS
 10
373.7308858516
 20
171.5737405899
  0
VERTEX
  8
0
 62
7
  6
CONTINUOUS
 10
373.9675897
 20
171.9956647904
  0
VERTEX
  8
0
 62
7
  6
CONTINUOUS
 10
374.1783572344
 20
172.4311252688
  0
VERTEX
  8
0
 62
7
  6
CONTINUOUS
 10
374.3624176471
 20
172.878529501
  0
VERTEX
  8
0
 62
7
  6
CONTINUOUS
 10
374.5190978175
 20
173.3362413084
  0
VERTEX
  8
0
 62
7
  6
CONTINUOUS
 10
374.647824756
 20
173.8025868103
  0
VERTEX
  8
0
 62
7
  6
CONTINUOUS
 10
374.7481277034
 20
174.2758605531
  0
VERTEX
  8
0
 62
7
  6
CONTINUOUS
 10
374.8196398514
 20
174.7543317444
  0
VERTEX
  8
0
 62
7
  6
CONTINUOUS
 10
374.8620996841
 20
175.2362505767
  0
VERTEX
  8
0
 62
7
  6
CONTINUOUS
 10
374.8741867755
 20
175.5586778348
  0
SEQEND
  0
POLYLINE
  8
0
 62
7
  6
CONTINUOUS
 66
1
 70
0
  0
VERTEX
  8
0
 62
7
  6
CONTINUOUS
 10
-1.1514238651
 20
167.6686905411
  0
VERTEX
  8
0
 62
7
  6
CONTINUOUS
 10
-1.5843192984
 20
167.6202204831
  0
VERTEX
  8
0
 62
7
  6
CONTINUOUS
 10
-2.0139732684
 20
167.5482479351
  0
VERTEX
  8
0
 62
7
  6
CONTINUOUS
 10
-2.4390991177
 20
167.4529780923
  0
VERTEX
  8
0
 62
7
  6
CONTINUOUS
 10
-2.8584325346
 20
167.3347088794
  0
VERTEX
  8
0
 62
7
  6
CONTINUOUS
 10
-3.2707212362
 20
167.1937907904
  0
VERTEX
  8
0
 62
7
  6
CONTINUOUS
 10
-3.6747284578
 20
167.0306227135
  0
VERTEX
  8
0
 62
7
  6
CONTINUOUS
 10
-4.0692524596
 20
166.8457083508
  0
VERTEX
  8
0
 62
7
  6
CONTINUOUS
 10
-4.4531043042
 20
166.6395756067
  0
VERTEX
  8
0
 62
7
  6
CONTINUOUS
 10
-4.8251516721
 20
166.4128628995
  0
VERTEX
  8
0
 62
7
  6
CONTINUOUS
 10
-5.184311395
 20
166.1662696774
  0
VERTEX
  8
0
 62
7
  6
CONTINUOUS
 10
-5.5294994566
 20
165.9005011017
  0
VERTEX
  8
0
 62
7
  6
CONTINUOUS
 10
-5.8596862307
 20
165.6163318539
  0
VERTEX
  8
0
 62
7
  6
CONTINUOUS
 10
-6.1739012507
 20
165.3146135738
  0
VERTEX
  8
0
 62
7
  6
CONTINUOUS
 10
-6.4712165548
 20
164.9962578372
  0
VERTEX
  8
0
 62
7
  6
CONTINUOUS
 10
-6.7507608595
 20
164.662220003
  0
VERTEX
  8
0
 62
7
  6
CONTINUOUS
 10
-7.0116789618
 20
164.3134848444
  0
VERTEX
  8
0
 62
7
  6
CONTINUOUS
 10
-7.2532076939
 20
163.9511133294
  0
VERTEX
  8
0
 62
7
  6
CONTINUOUS
 10
-7.4746197727
 20
163.5761795259
  0
VERTEX
  8
0
 62
7
  6
CONTINUOUS
 10
-7.6752634976
 20
163.1898163022
  0
VERTEX
  8
0
 62
7
  6
CONTINUOUS
 10
-7.8546051134
 20
162.7931609791
  0
VERTEX
  8
0
 62
7
  6
CONTINUOUS
 10
-8.0121047191
 20
162.3873657561
  0
VERTEX
  8
0
 62
7
  6
CONTINUOUS
 10
-8.1472809441
 20
161.973590533
  0
VERTEX
  8
0
 62
7
  6
CONTINUOUS
 10
-8.2597609201
 20
161.5530435157
  0
VERTEX
  8
0
 62
7
  6
CONTINUOUS
 10
-8.3491914307
 20
161.1269391288
  0
VERTEX
  8
0
 62
7
  6
CONTINUOUS
 10
-8.4153259075
 20
160.6965135326
  0
VERTEX
  8
0
 62
7
  6
CONTINUOUS
 10
-8.4579752544
 20
160.263018744
  0
VERTEX
  8
0
 62
7
  6
CONTINUOUS
 10
-8.476950744
 20
159.8276947331
  0
VERTEX
  8
0
 62
7
  6
CONTINUOUS
 10
-8.477031306
 20
159.5723388798
  0
SEQEND
  0
POLYLINE
  8
0
 62
7
  6
CONTINUOUS
 66
1
 70
0
  0
VERTEX
  8
0
 62
7
  6
CONTINUOUS
 10
-0.4779151904
 20
167.6970850417
  0
VERTEX
  8
0
 62
7
  6
CONTINUOUS
 10
-0.7165831728
 20
167.6935203237
  0
VERTEX
  8
0
 62
7
  6
CONTINUOUS
 10
-1.1514238651
 20
167.6686905411
  0
SEQEND
  0
LINE
  8
0
 62
7
  6
CONTINUOUS
 10
366.8771055001
 20
167.6970949263
 11
-1.2452562252
 21
167.6970946041
  0
POLYLINE
  8
0
 62
7
  6
CONTINUOUS
 66
1
 70
0
  0
VERTEX
  8
0
 62
7
  6
CONTINUOUS
 10
366.781345956
 20
167.6687086488
  0
VERTEX
  8
0
 62
7
  6
CONTINUOUS
 10
366.3464849282
 20
167.6935271614
  0
VERTEX
  8
0
 62
7
  6
CONTINUOUS
 10
366.1080519054
 20
167.6970848672
  0
SEQEND
  0
LINE
  8
0
 62
7
  6
CONTINUOUS
 10
367.2142606568
 20
167.6202478241
 11
366.781345956
 21
167.6687086488
  0
POLYLINE
  8
0
 62
7
  6
CONTINUOUS
 66
1
 70
0
  0
VERTEX
  8
0
 62
7
  6
CONTINUOUS
 10
374.1071679387
 20
159.5723378113
  0
VERTEX
  8
0
 62
7
  6
CONTINUOUS
 10
374.1070910994
 20
159.8274781195
  0
VERTEX
  8
0
 62
7
  6
CONTINUOUS
 10
374.0881262798
 20
160.2628220789
  0
VERTEX
  8
0
 62
7
  6
CONTINUOUS
 10
374.0454853709
 20
160.6963357755
  0
VERTEX
  8
0
 62
7
  6
CONTINUOUS
 10
373.9793574111
 20
161.1267795669
  0
VERTEX
  8
0
 62
7
  6
CONTINUOUS
 10
373.8899316754
 20
161.5529019738
  0
VERTEX
  8
0
 62
7
  6
CONTINUOUS
 10
373.777454919
 20
161.9734661514
  0
VERTEX
  8
0
 62
7
  6
CONTINUOUS
 10
373.6422802132
 20
162.387257985
  0
VERTEX
  8
0
 62
7
  6
CONTINUOUS
 10
373.4847802077
 20
162.7930700262
  0
VERTEX
  8
0
 62
7
  6
CONTINUOUS
 10
373.3054364303
 20
163.1897420138
  0
VERTEX
  8
0
 62
7
  6
CONTINUOUS
 10
373.1047889368
 20
163.5761214015
  0
VERTEX
  8
0
 62
7
  6
CONTINUOUS
 10
372.8833716871
 20
163.9510703945
  0
VERTEX
  8
0
 62
7
  6
CONTINUOUS
 10
372.6418362774
 20
164.3134561778
  0
VERTEX
  8
0
 62
7
  6
CONTINUOUS
 10
372.3809097618
 20
164.6622049445
  0
VERTEX
  8
0
 62
7
  6
CONTINUOUS
 10
372.10135525
 20
164.9962557793
  0
VERTEX
  8
0
 62
7
  6
CONTINUOUS
 10
371.8040284971
 20
165.3146233794
  0
VERTEX
  8
0
 62
7
  6
CONTINUOUS
 10
371.4898015395
 20
165.6163516214
  0
VERTEX
  8
0
 62
7
  6
CONTINUOUS
 10
371.1596019208
 20
165.9005292574
  0
VERTEX
  8
0
 62
7
  6
CONTINUOUS
 10
370.8143998881
 20
166.1663049169
  0
VERTEX
  8
0
 62
7
  6
CONTINUOUS
 10
370.4552253261
 20
166.4129038554
  0
VERTEX
  8
0
 62
7
  6
CONTINUOUS
 10
370.0831624417
 20
166.6396207537
  0
VERTEX
  8
0
 62
7
  6
CONTINUOUS
 10
369.6992950499
 20
166.8457557629
  0
VERTEX
  8
0
 62
7
  6
CONTINUOUS
 10
369.3047550907
 20
167.0306707795
  0
VERTEX
  8
0
 62
7
  6
CONTINUOUS
 10
368.9007316283
 20
167.1938379403
  0
VERTEX
  8
0
 62
7
  6
CONTINUOUS
 10
368.4884266886
 20
167.3347534166
  0
VERTEX
  8
0
 62
7
  6
CONTINUOUS
 10
368.0690764478
 20
167.4530184794
  0
VERTEX
  8
0
 62
7
  6
CONTINUOUS
 10
367.6439329723
 20
167.5482826198
  0
VERTEX
  8
0
 62
7
  6
CONTINUOUS
 10
367.2142606568
 20
167.6202478241
  0
SEQEND
  0
POLYLINE
  8
0
 62
7
  6
CONTINUOUS
 66
1
 70
0
  0
VERTEX
  8
0
 62
7
  6
CONTINUOUS
 10
374.8742066235
 20
175.5586757795
  0
VERTEX
  8
0
 62
7
  6
CONTINUOUS
 10
377.8474848888
 20
347.3794875358
  0
VERTEX
  8
0
 62
7
  6
CONTINUOUS
 10
378.2832695307
 20
372.5536926162
  0
VERTEX
  8
0
 62
7
  6
CONTINUOUS
 10
378.7157366079
 20
397.4156342366
  0
VERTEX
  8
0
 62
7
  6
CONTINUOUS
 10
379.0966518661
 20
419.1893933456
  0
VERTEX
  8
0
 62
7
  6
CONTINUOUS
 10
379.6361137252
 20
449.8300661861
  0
VERTEX
  8
0
 62
7
  6
CONTINUOUS
 10
380.2891364727
 20
486.6199963895
  0
VERTEX
  8
0
 62
7
  6
CONTINUOUS
 10
380.5451757524
 20
500.9564571235
  0
VERTEX
  8
0
 62
7
  6
CONTINUOUS
 10
380.6684784854
 20
507.8453330649
  0
VERTEX
  8
0
 62
7
  6
CONTINUOUS
 10
381.5771584077
 20
558.6076106129
  0
SEQEND
  0
POLYLINE
  8
0
 62
7
  6
CONTINUOUS
 66
1
 70
0
  0
VERTEX
  8
0
 62
7
  6
CONTINUOUS
 10
374.0096193161
 20
153.6970925686
  0
VERTEX
  8
0
 62
7
  6
CONTINUOUS
 10
374.0237982872
 20
154.5035030226
  0
VERTEX
  8
0
 62
7
  6
CONTINUOUS
 10
374.0406721227
 20
155.4841091455
  0
VERTEX
  8
0
 62
7
  6
CONTINUOUS
 10
374.0577630788
 20
156.5006529873
  0
VERTEX
  8
0
 62
7
  6
CONTINUOUS
 10
374.0749659861
 20
157.547604076
  0
VERTEX
  8
0
 62
7
  6
CONTINUOUS
 10
374.0923037541
 20
158.6267946778
  0
VERTEX
  8
0
 62
7
  6
CONTINUOUS
 10
374.107187601
 20
159.5723384037
  0
SEQEND
  0
POLYLINE
  8
0
 62
7
  6
CONTINUOUS
 66
1
 70
0
  0
VERTEX
  8
0
 62
7
  6
CONTINUOUS
 10
372.0188592828
 20
89.9981009754
  0
VERTEX
  8
0
 62
7
  6
CONTINUOUS
 10
372.346232754
 20
97.7117596581
  0
VERTEX
  8
0
 62
7
  6
CONTINUOUS
 10
373.0824268806
 20
117.4906772357
  0
VERTEX
  8
0
 62
7
  6
CONTINUOUS
 10
373.620953871
 20
135.7664044926
  0
VERTEX
  8
0
 62
7
  6
CONTINUOUS
 10
374.0096193176
 20
153.6970922397
  0
SEQEND
  0
POLYLINE
  8
0
 62
7
  6
CONTINUOUS
 66
1
 70
0
  0
VERTEX
  8
0
 62
7
  6
CONTINUOUS
 10
383.7743005351
 20
591.9905834461
  0
VERTEX
  8
0
 62
7
  6
CONTINUOUS
 10
383.7545434044
 20
592.4680962963
  0
VERTEX
  8
0
 62
7
  6
CONTINUOUS
 10
383.6925053657
 20
593.1042476076
  0
VERTEX
  8
0
 62
7
  6
CONTINUOUS
 10
383.5899284868
 20
593.7352673615
  0
VERTEX
  8
0
 62
7
  6
CONTINUOUS
 10
383.4472121536
 20
594.358551743
  0
VERTEX
  8
0
 62
7
  6
CONTINUOUS
 10
383.2649236177
 20
594.9715334197
  0
VERTEX
  8
0
 62
7
  6
CONTINUOUS
 10
383.0437950861
 20
595.571688882
  0
VERTEX
  8
0
 62
7
  6
CONTINUOUS
 10
382.7847221005
 20
596.1565443854
  0
VERTEX
  8
0
 62
7
  6
CONTINUOUS
 10
382.4887564261
 20
596.723694091
  0
VERTEX
  8
0
 62
7
  6
CONTINUOUS
 10
382.1571052485
 20
597.2708013545
  0
VERTEX
  8
0
 62
7
  6
CONTINUOUS
 10
381.7911199494
 20
597.7956189052
  0
VERTEX
  8
0
 62
7
  6
CONTINUOUS
 10
381.3922947165
 20
598.2959892637
  0
VERTEX
  8
0
 62
7
  6
CONTINUOUS
 10
380.9622614093
 20
598.7698533958
  0
VERTEX
  8
0
 62
7
  6
CONTINUOUS
 10
380.5027811597
 20
599.2152618823
  0
VERTEX
  8
0
 62
7
  6
CONTINUOUS
 10
380.015737231
 20
599.6303827402
  0
VERTEX
  8
0
 62
7
  6
CONTINUOUS
 10
379.5031273106
 20
600.0135089701
  0
VERTEX
  8
0
 62
7
  6
CONTINUOUS
 10
378.9670549356
 20
600.3630658995
  0
VERTEX
  8
0
 62
7
  6
CONTINUOUS
 10
378.4097208948
 20
600.6776176195
  0
VERTEX
  8
0
 62
7
  6
CONTINUOUS
 10
377.8334138598
 20
600.9558730999
  0
VERTEX
  8
0
 62
7
  6
CONTINUOUS
 10
377.2405008748
 20
601.1966915276
  0
VERTEX
  8
0
 62
7
  6
CONTINUOUS
 10
376.6334175514
 20
601.3990870331
  0
VERTEX
  8
0
 62
7
  6
CONTINUOUS
 10
376.0146577059
 20
601.5622328655
  0
VERTEX
  8
0
 62
7
  6
CONTINUOUS
 10
375.3867630054
 20
601.6854647838
  0
VERTEX
  8
0
 62
7
  6
CONTINUOUS
 10
374.7523155895
 20
601.7682834859
  0
VERTEX
  8
0
 62
7
  6
CONTINUOUS
 10
374.261716417
 20
601.8042633541
  0
SEQEND
  0
LINE
  8
0
 62
7
  6
CONTINUOUS
 10
383.7743012615
 20
591.9905837716
 11
384.1793674628
 21
568.7843566363
  0
LINE
  8
0
 62
7
  6
CONTINUOUS
 10
201.4393014691
 20
613.9861112747
 11
204.2780538601
 21
610.3235489128
  0
LINE
  8
0
 62
7
  6
CONTINUOUS
 10
-13.5499920008
 20
563.6970946041
 11
379.1801289871
 21
563.6970946041
  0
LINE
  8
0
 62
7
  6
CONTINUOUS
 10
161.6730516273
 20
610.4111896705
 11
155.7370763004
 21
608.7903659025
  0
LINE
  8
0
 62
7
  6
CONTINUOUS
 10
182.1446817046
 20
615.408565149
 11
182.0440653935
 21
615.3816544044
  0
LINE
  8
0
 62
7
  6
CONTINUOUS
 10
182.0440653935
 20
615.3816544044
 11
181.9338535211
 21
615.3550372879
  0
POLYLINE
  8
0
 62
7
  6
CONTINUOUS
 66
1
 70
0
  0
VERTEX
  8
0
 62
7
  6
CONTINUOUS
 10
181.9338535211
 20
615.3550372879
  0
VERTEX
  8
0
 62
7
  6
CONTINUOUS
 10
181.8144304921
 20
615.3288030197
  0
VERTEX
  8
0
 62
7
  6
CONTINUOUS
 10
181.6862221946
 20
615.303085818
  0
VERTEX
  8
0
 62
7
  6
CONTINUOUS
 10
181.5496485131
 20
615.2778409435
  0
SEQEND
  0
POLYLINE
  8
0
 62
7
  6
CONTINUOUS
 66
1
 70
0
  0
VERTEX
  8
0
 62
7
  6
CONTINUOUS
 10
181.5496485131
 20
615.277838826
  0
VERTEX
  8
0
 62
7
  6
CONTINUOUS
 10
180.7825646732
 20
615.1355883085
  0
VERTEX
  8
0
 62
7
  6
CONTINUOUS
 10
179.9741775881
 20
614.9656795286
  0
VERTEX
  8
0
 62
7
  6
CONTINUOUS
 10
179.1241882959
 20
614.7695706887
  0
VERTEX
  8
0
 62
7
  6
CONTINUOUS
 10
178.2334936824
 20
614.5428871814
  0
VERTEX
  8
0
 62
7
  6
CONTINUOUS
 10
177.3029906334
 20
614.281254399
  0
VERTEX
  8
0
 62
7
  6
CONTINUOUS
 10
176.3323801871
 20
613.986130544
  0
SEQEND
  0
POLYLINE
  8
0
 62
7
  6
CONTINUOUS
 66
1
 70
0
  0
VERTEX
  8
0
 62
7
  6
CONTINUOUS
 10
-8.6314684649
 20
601.8042688265
  0
VERTEX
  8
0
 62
7
  6
CONTINUOUS
 10
-9.1088636146
 20
601.7695810209
  0
VERTEX
  8
0
 62
7
  6
CONTINUOUS
 10
-9.7434257163
 20
601.6876104362
  0
VERTEX
  8
0
 62
7
  6
CONTINUOUS
 10
-10.3714884194
 20
601.5652174842
  0
VERTEX
  8
0
 62
7
  6
CONTINUOUS
 10
-10.9904690441
 20
601.4028981032
  0
VERTEX
  8
0
 62
7
  6
CONTINUOUS
 10
-11.5978251182
 20
601.201313205
  0
VERTEX
  8
0
 62
7
  6
CONTINUOUS
 10
-12.1910618068
 20
600.96128625
  0
VERTEX
  8
0
 62
7
  6
CONTINUOUS
 10
-12.7677422659
 20
600.6837998706
  0
VERTEX
  8
0
 62
7
  6
CONTINUOUS
 10
-13.3254980067
 20
600.3699917108
  0
VERTEX
  8
0
 62
7
  6
CONTINUOUS
 10
-13.8620387033
 20
600.021149714
  0
VERTEX
  8
0
 62
7
  6
CONTINUOUS
 10
-14.3751617077
 20
599.6387067984
  0
VERTEX
  8
0
 62
7
  6
CONTINUOUS
 10
-14.8627614218
 20
599.2242347577
  0
VERTEX
  8
0
 62
7
  6
CONTINUOUS
 10
-15.3228379026
 20
598.7794378378
  0
VERTEX
  8
0
 62
7
  6
CONTINUOUS
 10
-15.7535054415
 20
598.3061454088
  0
VERTEX
  8
0
 62
7
  6
CONTINUOUS
 10
-16.1530002817
 20
597.8063044302
  0
VERTEX
  8
0
 62
7
  6
CONTINUOUS
 10
-16.5196877709
 20
597.2819716367
  0
VERTEX
  8
0
 62
7
  6
CONTINUOUS
 10
-16.8520707509
 20
596.735302421
  0
VERTEX
  8
0
 62
7
  6
CONTINUOUS
 10
-17.1487947194
 20
596.1685421797
  0
VERTEX
  8
0
 62
7
  6
CONTINUOUS
 10
-17.4086492737
 20
595.5840257891
  0
VERTEX
  8
0
 62
7
  6
CONTINUOUS
 10
-17.6305792828
 20
594.984157575
  0
VERTEX
  8
0
 62
7
  6
CONTINUOUS
 10
-17.8136857355
 20
594.3714099219
  0
VERTEX
  8
0
 62
7
  6
CONTINUOUS
 10
-17.9572328372
 20
593.7483052364
  0
VERTEX
  8
0
 62
7
  6
CONTINUOUS
 10
-18.060649651
 20
593.1174099719
  0
VERTEX
  8
0
 62
7
  6
CONTINUOUS
 10
-18.1235330202
 20
592.4813272313
  0
VERTEX
  8
0
 62
7
  6
CONTINUOUS
 10
-18.1441635026
 20
591.9905834404
  0
SEQEND
  0
LINE
  8
0
 62
7
  6
CONTINUOUS
 10
174.1497677866
 20
610.3235489128
 11
204.2780538601
 21
610.3235489128
  0
LINE
  8
0
 62
7
  6
CONTINUOUS
 10
161.6730516273
 20
610.4111896705
 11
174.2045519834
 21
610.4111896705
  0
LINE
  8
0
 62
7
  6
CONTINUOUS
 10
164.3063674833
 20
613.8086975235
 11
175.9116707812
 21
613.8086975235
  0
LINE
  8
0
 62
7
  6
CONTINUOUS
 10
176.3324868307
 20
613.9861112747
 11
201.4393014691
 21
613.9861112747
  0
LINE
  8
0
 62
7
  6
CONTINUOUS
 10
204.2780538601
 20
610.3235489128
 11
209.8930606859
 21
608.7903659025
  0
ARC
  8
0
 62
7
  6
CONTINUOUS
 10
182.8150684931
 20
-3333.5748660838
 40
3940.0330882891
 50
90.0107653833
 51
92.785103405
  0
ARC
  8
0
 62
7
  6
CONTINUOUS
 10
182.8150684932
 20
-3333.5748660838
 40
3940.0330882891
 50
87.2148949704
 51
89.9999999446
  0
ARC
  8
0
 62
7
  6
CONTINUOUS
 10
182.8150684932
 20
539.0011388512
 40
77.2632392753
 50
76.0515336486
 51
90.1781938991
  0
ARC
  8
0
 62
7
  6
CONTINUOUS
 10
182.8150684932
 20
539.0011388512
 40
77.0632392753
 50
90.5504097442
 51
103.8968979651
  0
ARC
  8
0
 62
7
  6
CONTINUOUS
 10
-1.245255206
 20
175.6970946041
 40
8.0
 50
180.9913787848
 51
270.0000000001
  0
ARC
  8
0
 62
7
  6
CONTINUOUS
 10
376.5779597455
 20
558.6970946041
 40
5.0000002013
 50
358.9744898788
 51
89.9950473474
  0
ARC
  8
0
 62
7
  6
CONTINUOUS
 10
379.1801289871
 20
568.6970946041
 40
5.0
 50
270.0
 51
1.0
  0
ARC
  8
0
 62
7
  6
CONTINUOUS
 10
-13.5499920008
 20
568.6970946041
 40
5.0
 50
179.0
 51
270.0
  0
ARC
  8
0
 62
7
  6
CONTINUOUS
 10
-10.9478227592
 20
558.6970946041
 40
5.0
 50
90.0
 51
181.0255349389
  0
ARC
  8
0
 62
7
  6
CONTINUOUS
 10
27.2522185409
 20
-296.3029053959
 40
5.0
 50
187.5726492668
 51
269.9992941381
  0
ARC
  8
0
 62
7
  6
CONTINUOUS
 10
338.3779184454
 20
-296.3029053959
 40
5.0
 50
270.0000000015
 51
352.4273620503
  0
ARC
  8
0
 62
7
  6
CONTINUOUS
 10
209.6296526527
 20
607.8256813903
 40
1.0
 50
20.0
 51
74.7276206907
  0
ARC
  8
0
 62
7
  6
CONTINUOUS
 10
156.0004843336
 20
607.8256813903
 40
1.0
 50
105.2723793093
 51
160.0
  0
ENDSEC
  0
EOF
