999
DXF file: K:\Client\125_Heirloom\001\00\Final_Data\Drawings\TOILETS\heiko-374120d_1.dxf
999
Pro/ENGINEER 2017110 by Parametric Technology Corporation
  0
SECTION
  2
HEADER
  9
$EXTMAX
 10
420.0
 20
297.0
 30
0.0
  9
$EXTMIN
 10
0.0
 20
0.0
 30
0.0
  9
$LIMMIN
 10
0.0
 20
0.0
  9
$LIMMAX
 10
420.0
 20
297.0
  9
$VIEWCTR
 10
210.0
 20
148.5
  9
$VIEWSIZE
 40
297.0
  9
$CLAYER
  8
0
  9
$LTSCALE
 40
23.1
  9
$CELTYPE
  6
BYLAYER
  9
$DIMSCALE
 40
1.0
  9
$DIMASZ
 40
3.0
  9
$DIMEXO
 40
1.0
  9
$DIMDLI
 40
15.96
  9
$DIMEXE
 40
1.0
  9
$DIMCEN
 40
3.78
  9
$DIMLFAC
 40
1.0
  9
$DIMBLK
  1
_FILLED
  9
$DIMALT
 70
0
  9
$DIMALTF
 40
0.0393700787
  9
$DIMTXT
 40
3.0
  9
$AUNITS
 70
0
  9
$PDMODE
 70
3
  9
$PDSIZE
 40
5.0
  9
$TILEMODE
 70
1
  0
ENDSEC
  0
SECTION
  2
TABLES
  0
TABLE
  2
LTYPE
 70
6
  0
LTYPE
  2
BYBLOCK
 70
0
  3

 72
65
 73
0
 40
0.0
  0
LTYPE
  2
BYLAYER
 70
0
  3

 72
65
 73
0
 40
0.0
  0
LTYPE
  2
CONTINUOUS
 70
64
  3
Solid line
 72
65
 73
0
 40
0.0
  0
LTYPE
  2
CENTER
 70
64
  3
____ _ ____ _ ____ _ ____ _ ____ _ ____ _ ____
 72
65
 73
4
 40
0.6
 49
0.375
 49
-0.075
 49
0.075
 49
-0.075
  0
LTYPE
  2
HIDDEN
 70
64
  3
- - - - - - - - - - - - - - - - - - - -
 72
65
 73
2
 40
0.2
 49
0.1
 49
-0.1
  0
LTYPE
  2
PHANTOM
 70
64
  3
_____ _ _ _____ _ _ _____ _ _ _____
 72
65
 73
6
 40
0.8
 49
0.45
 49
-0.05
 49
0.1
 49
-0.05
 49
0.1
 49
-0.05
  0
LTYPE
  2
DOT
 70
64
  3
. . . . . . . . . . . . . . . . . . . .
 72
65
 73
2
 40
0.2
 49
0.1
 49
-0.1
  0
LTYPE
  2
DASHED
 70
64
  3
- - - - - - - - - - - - - - - - - - - -
 72
65
 73
2
 40
0.2
 49
0.1
 49
-0.1
  0
ENDTAB
  0
TABLE
  2
LAYER
 70
36
  0
LAYER
  2
0
 70
0
 62
7
  6
CONTINUOUS
  0
LAYER
  2
DEFAULT_1
 70
0
 62
7
  6
CENTER
  0
LAYER
  2
DEFAULT_2
 70
0
 62
8
  6
HIDDEN
  0
LAYER
  2
DEFAULT_3
 70
0
 62
7
  6
PHANTOM
  0
LAYER
  2
0000_BOM
 70
0
 62
7
  6
CONTINUOUS
  0
LAYER
  2
0000_REV_TABLE
 70
0
 62
7
  6
CONTINUOUS
  0
LAYER
  2
0000_STEVENS_NOTE
 70
0
 62
7
  6
CONTINUOUS
  0
LAYER
  2
01_DATUM_PLANES
 70
0
 62
7
  6
CONTINUOUS
  0
LAYER
  2
01_DEF_PLANES
 70
0
 62
7
  6
CONTINUOUS
  0
LAYER
  2
02_DATUM_COS
 70
0
 62
7
  6
CONTINUOUS
  0
LAYER
  2
90_IMP_FEAT
 70
0
 62
7
  6
CONTINUOUS
  0
LAYER
  2
95_STL
 70
0
 62
7
  6
CONTINUOUS
  0
LAYER
  2
99_SOLID
 70
0
 62
7
  6
CONTINUOUS
  0
LAYER
  2
CAD-MASTER_ZINC-PL
 70
0
 62
7
  6
CONTINUOUS
  0
LAYER
  2
CURVE
 70
0
 62
7
  6
CONTINUOUS
  0
LAYER
  2
SHELL
 70
0
 62
7
  6
CONTINUOUS
  0
LAYER
  2
SKEL
 70
0
 62
7
  6
CONTINUOUS
  0
LAYER
  2
SKETCH
 70
0
 62
7
  6
CONTINUOUS
  0
LAYER
  2
SURFACE
 70
0
 62
7
  6
CONTINUOUS
  0
ENDTAB
  0
TABLE
  2
STYLE
 70
1
  0
STYLE
  2
STANDARD
 70
0
 40
0.0
 41
0.75
 50
0.0
 71
0
 42
0.2
  3
txt
  4

  0
STYLE
  2
TEXTSTYLE_1
 70
0
 40
0.0
 41
0.8
 50
0.0
 71
0
 42
0.2
  3
gdt
  4

  0
ENDTAB
  0
ENDSEC
  0
SECTION
  2
BLOCKS
  0
BLOCK
  8
0
 62
1
  6
CONTINUOUS
  2
PLUMBING_BL1
 70
64
 10
184.2753920419
 20
-126.8096222602
  0
CIRCLE
  8
0
 62
1
  6
CONTINUOUS
 10
184.2753920419
 20
-126.8096222602
 40
12.5
  0
LINE
  8
0
 62
1
  6
CONTINUOUS
 10
196.7753920419
 20
-114.3096222602
 11
171.7753920419
 21
-139.3096222602
  0
LINE
  8
0
 62
1
  6
CONTINUOUS
 10
184.2753920419
 20
-126.8096222602
 11
171.7753920419
 21
-114.3096222602
  0
LINE
  8
0
 62
1
  6
CONTINUOUS
 10
184.2753920419
 20
-126.8096222602
 11
196.7753920419
 21
-139.3096222602
  0
ENDBLK
  8
0
  6
BYBLOCK
 62
0
  0
BLOCK
  8
0
 62
5
  6
CONTINUOUS
  2
PLUMBING_BL0
 70
64
 10
184.2753920419
 20
-306.8096222602
  0
CIRCLE
  8
0
 62
5
  6
CONTINUOUS
 10
184.2753920419
 20
-306.8096222602
 40
12.5
  0
LINE
  8
0
 62
5
  6
CONTINUOUS
 10
196.7753920419
 20
-294.3096222602
 11
171.7753920419
 21
-319.3096222602
  0
LINE
  8
0
 62
5
  6
CONTINUOUS
 10
184.2753920419
 20
-306.8096222602
 11
171.7753920419
 21
-294.3096222602
  0
LINE
  8
0
 62
5
  6
CONTINUOUS
 10
184.2753920419
 20
-306.8096222602
 11
196.7753920419
 21
-319.3096222602
  0
ENDBLK
  8
0
  6
BYBLOCK
 62
0
  0
ENDSEC
  0
SECTION
  2
ENTITIES
  0
INSERT
  8
0
 62
5
  6
CONTINUOUS
  2
PLUMBING_BL0
 10
184.2753920419
 20
-306.8096222602
  0
INSERT
  8
0
 62
1
  6
CONTINUOUS
  2
PLUMBING_BL1
 10
184.2753920419
 20
-126.8096222602
  0
POLYLINE
  8
0
 62
7
  6
CONTINUOUS
 66
1
 70
0
  0
VERTEX
  8
0
 62
7
  6
CONTINUOUS
 10
-6.9190046638
 20
148.1903844061
  0
VERTEX
  8
0
 62
7
  6
CONTINUOUS
 10
-6.8804793995
 20
146.0774754166
  0
VERTEX
  8
0
 62
7
  6
CONTINUOUS
 10
-6.8373169511
 20
143.8297532642
  0
VERTEX
  8
0
 62
7
  6
CONTINUOUS
 10
-6.788829973
 20
141.4329394443
  0
VERTEX
  8
0
 62
7
  6
CONTINUOUS
 10
-6.7352449684
 20
138.9183365711
  0
VERTEX
  8
0
 62
7
  6
CONTINUOUS
 10
-6.6715493705
 20
136.084643624
  0
VERTEX
  8
0
 62
7
  6
CONTINUOUS
 10
-6.595573878
 20
132.8904641931
  0
VERTEX
  8
0
 62
7
  6
CONTINUOUS
 10
-6.5054108849
 20
129.3184863508
  0
VERTEX
  8
0
 62
7
  6
CONTINUOUS
 10
-6.3968169303
 20
125.2763605039
  0
VERTEX
  8
0
 62
7
  6
CONTINUOUS
 10
-6.2658301006
 20
120.7095785503
  0
VERTEX
  8
0
 62
7
  6
CONTINUOUS
 10
-6.1085851653
 20
115.5881110815
  0
VERTEX
  8
0
 62
7
  6
CONTINUOUS
 10
-5.9178384424
 20
109.7987481513
  0
VERTEX
  8
0
 62
7
  6
CONTINUOUS
 10
-5.6976433998
 20
103.5752724498
  0
VERTEX
  8
0
 62
7
  6
CONTINUOUS
 10
-5.4654317792
 20
97.4389925838
  0
VERTEX
  8
0
 62
7
  6
CONTINUOUS
 10
-5.2284819762
 20
91.540561588
  0
VERTEX
  8
0
 62
7
  6
CONTINUOUS
 10
-4.9911224281
 20
85.9312215918
  0
VERTEX
  8
0
 62
7
  6
CONTINUOUS
 10
-4.7519141643
 20
80.5300401092
  0
VERTEX
  8
0
 62
7
  6
CONTINUOUS
 10
-4.5095283513
 20
75.2751048773
  0
VERTEX
  8
0
 62
7
  6
CONTINUOUS
 10
-4.2630168297
 20
70.1234475023
  0
VERTEX
  8
0
 62
7
  6
CONTINUOUS
 10
-4.01353273
 20
65.0808708766
  0
VERTEX
  8
0
 62
7
  6
CONTINUOUS
 10
-3.7564801487
 20
60.0424020135
  0
VERTEX
  8
0
 62
7
  6
CONTINUOUS
 10
-3.4850043568
 20
54.8729037718
  0
VERTEX
  8
0
 62
7
  6
CONTINUOUS
 10
-3.1892544422
 20
49.3969767152
  0
VERTEX
  8
0
 62
7
  6
CONTINUOUS
 10
-2.8567720676
 20
43.4145343496
  0
VERTEX
  8
0
 62
7
  6
CONTINUOUS
 10
-2.4700997307
 20
36.6655513197
  0
VERTEX
  8
0
 62
7
  6
CONTINUOUS
 10
-2.0128084047
 20
28.9429959267
  0
VERTEX
  8
0
 62
7
  6
CONTINUOUS
 10
-1.4712826856
 20
20.1195455331
  0
VERTEX
  8
0
 62
7
  6
CONTINUOUS
 10
-0.832616302
 20
10.1062022069
  0
VERTEX
  8
0
 62
7
  6
CONTINUOUS
 10
-0.0885899477
 20
-1.0926546126
  0
VERTEX
  8
0
 62
7
  6
CONTINUOUS
 10
0.7629880975
 20
-13.3700556649
  0
VERTEX
  8
0
 62
7
  6
CONTINUOUS
 10
1.5945755055
 20
-24.867430238
  0
VERTEX
  8
0
 62
7
  6
CONTINUOUS
 10
2.3518701333
 20
-34.9610070959
  0
VERTEX
  8
0
 62
7
  6
CONTINUOUS
 10
3.0402290676
 20
-43.8544598046
  0
VERTEX
  8
0
 62
7
  6
CONTINUOUS
 10
3.6574181126
 20
-51.6226133995
  0
VERTEX
  8
0
 62
7
  6
CONTINUOUS
 10
4.2095523643
 20
-58.4223022516
  0
VERTEX
  8
0
 62
7
  6
CONTINUOUS
 10
4.7107860921
 20
-64.482519083
  0
VERTEX
  8
0
 62
7
  6
CONTINUOUS
 10
5.1701204822
 20
-69.9486043759
  0
VERTEX
  8
0
 62
7
  6
CONTINUOUS
 10
5.608827708
 20
-75.0959474144
  0
VERTEX
  8
0
 62
7
  6
CONTINUOUS
 10
6.0272545043
 20
-79.942451464
  0
VERTEX
  8
0
 62
7
  6
CONTINUOUS
 10
6.4015015934
 20
-84.2279374523
  0
VERTEX
  8
0
 62
7
  6
CONTINUOUS
 10
6.733886995
 20
-87.9973133525
  0
VERTEX
  8
0
 62
7
  6
CONTINUOUS
 10
7.051029608
 20
-91.5644054041
  0
VERTEX
  8
0
 62
7
  6
CONTINUOUS
 10
7.331071785
 20
-94.6923995291
  0
VERTEX
  8
0
 62
7
  6
CONTINUOUS
 10
7.6211845247
 20
-97.9131533628
  0
VERTEX
  8
0
 62
7
  6
CONTINUOUS
 10
7.8935787658
 20
-100.9204600974
  0
VERTEX
  8
0
 62
7
  6
CONTINUOUS
 10
8.1612079484
 20
-103.8607210124
  0
VERTEX
  8
0
 62
7
  6
CONTINUOUS
 10
8.4386993761
 20
-106.8955496059
  0
VERTEX
  8
0
 62
7
  6
CONTINUOUS
 10
8.6970845384
 20
-109.7099499326
  0
VERTEX
  8
0
 62
7
  6
CONTINUOUS
 10
8.976338445
 20
-112.7404328243
  0
VERTEX
  8
0
 62
7
  6
CONTINUOUS
 10
9.2469926426
 20
-115.6676109034
  0
VERTEX
  8
0
 62
7
  6
CONTINUOUS
 10
9.5109874987
 20
-118.5143627606
  0
VERTEX
  8
0
 62
7
  6
CONTINUOUS
 10
9.796576253
 20
-121.5857762876
  0
VERTEX
  8
0
 62
7
  6
CONTINUOUS
 10
10.0730530741
 20
-124.5522002169
  0
VERTEX
  8
0
 62
7
  6
CONTINUOUS
 10
10.3462344005
 20
-127.4775741675
  0
VERTEX
  8
0
 62
7
  6
CONTINUOUS
 10
10.6402571225
 20
-130.620974348
  0
VERTEX
  8
0
 62
7
  6
CONTINUOUS
 10
10.9356121591
 20
-133.7743228227
  0
VERTEX
  8
0
 62
7
  6
CONTINUOUS
 10
11.2294402912
 20
-136.908037853
  0
VERTEX
  8
0
 62
7
  6
CONTINUOUS
 10
11.5276883005
 20
-140.0864379362
  0
VERTEX
  8
0
 62
7
  6
CONTINUOUS
 10
11.8630298791
 20
-143.6583660252
  0
VERTEX
  8
0
 62
7
  6
CONTINUOUS
 10
12.2166563396
 20
-147.4244516067
  0
VERTEX
  8
0
 62
7
  6
CONTINUOUS
 10
12.5503047945
 20
-150.9785927685
  0
VERTEX
  8
0
 62
7
  6
CONTINUOUS
 10
12.9307906994
 20
-155.0343553046
  0
VERTEX
  8
0
 62
7
  6
CONTINUOUS
 10
13.3345786489
 20
-159.3437548325
  0
VERTEX
  8
0
 62
7
  6
CONTINUOUS
 10
13.719888972
 20
-163.4631385965
  0
VERTEX
  8
0
 62
7
  6
CONTINUOUS
 10
14.156708694
 20
-168.1443988946
  0
VERTEX
  8
0
 62
7
  6
CONTINUOUS
 10
14.6072402025
 20
-172.9882127511
  0
VERTEX
  8
0
 62
7
  6
CONTINUOUS
 10
15.0565074694
 20
-177.8354540404
  0
VERTEX
  8
0
 62
7
  6
CONTINUOUS
 10
15.5321452319
 20
-182.9831632904
  0
VERTEX
  8
0
 62
7
  6
CONTINUOUS
 10
15.9853266483
 20
-187.9002022162
  0
VERTEX
  8
0
 62
7
  6
CONTINUOUS
 10
16.4024330239
 20
-192.4339907924
  0
VERTEX
  8
0
 62
7
  6
CONTINUOUS
 10
16.7666590317
 20
-196.397556801
  0
VERTEX
  8
0
 62
7
  6
CONTINUOUS
 10
17.1330690969
 20
-200.3875602121
  0
VERTEX
  8
0
 62
7
  6
CONTINUOUS
 10
17.5148131261
 20
-204.5456949166
  0
VERTEX
  8
0
 62
7
  6
CONTINUOUS
 10
17.846916344
 20
-208.1627031533
  0
VERTEX
  8
0
 62
7
  6
CONTINUOUS
 10
18.1748699526
 20
-211.7329286956
  0
VERTEX
  8
0
 62
7
  6
CONTINUOUS
 10
18.5030482283
 20
-215.3028707999
  0
VERTEX
  8
0
 62
7
  6
CONTINUOUS
 10
18.8018808003
 20
-218.5499553268
  0
VERTEX
  8
0
 62
7
  6
CONTINUOUS
 10
19.0857469065
 20
-221.6298525488
  0
VERTEX
  8
0
 62
7
  6
CONTINUOUS
 10
19.3712622634
 20
-224.7218902646
  0
VERTEX
  8
0
 62
7
  6
CONTINUOUS
 10
19.6360269335
 20
-227.5829760409
  0
VERTEX
  8
0
 62
7
  6
CONTINUOUS
 10
19.8818866304
 20
-230.2335415311
  0
VERTEX
  8
0
 62
7
  6
CONTINUOUS
 10
20.1191425883
 20
-232.7849406797
  0
VERTEX
  8
0
 62
7
  6
CONTINUOUS
 10
20.3620870445
 20
-235.3902920564
  0
VERTEX
  8
0
 62
7
  6
CONTINUOUS
 10
20.5992596514
 20
-237.9260462422
  0
VERTEX
  8
0
 62
7
  6
CONTINUOUS
 10
20.8143228205
 20
-240.2183158756
  0
VERTEX
  8
0
 62
7
  6
CONTINUOUS
 10
21.0457994988
 20
-242.6774567788
  0
VERTEX
  8
0
 62
7
  6
CONTINUOUS
 10
21.2984549855
 20
-245.3514244573
  0
VERTEX
  8
0
 62
7
  6
CONTINUOUS
 10
21.5303256018
 20
-247.7955173844
  0
VERTEX
  8
0
 62
7
  6
CONTINUOUS
 10
21.7825680926
 20
-250.442989493
  0
VERTEX
  8
0
 62
7
  6
CONTINUOUS
 10
22.0422747967
 20
-253.15581592
  0
VERTEX
  8
0
 62
7
  6
CONTINUOUS
 10
22.2894614538
 20
-255.7250521147
  0
VERTEX
  8
0
 62
7
  6
CONTINUOUS
 10
22.5738739484
 20
-258.6650995156
  0
VERTEX
  8
0
 62
7
  6
CONTINUOUS
 10
22.8696684304
 20
-261.7039019692
  0
VERTEX
  8
0
 62
7
  6
CONTINUOUS
 10
23.1946125138
 20
-265.0192599728
  0
VERTEX
  8
0
 62
7
  6
CONTINUOUS
 10
23.5354626932
 20
-268.4703801779
  0
VERTEX
  8
0
 62
7
  6
CONTINUOUS
 10
23.8902019276
 20
-272.0325091585
  0
VERTEX
  8
0
 62
7
  6
CONTINUOUS
 10
24.2494733082
 20
-275.6086206417
  0
VERTEX
  8
0
 62
7
  6
CONTINUOUS
 10
24.597259776
 20
-279.0395746648
  0
VERTEX
  8
0
 62
7
  6
CONTINUOUS
 10
24.975201537
 20
-282.7330178164
  0
VERTEX
  8
0
 62
7
  6
CONTINUOUS
 10
25.395248484
 20
-286.7945287217
  0
VERTEX
  8
0
 62
7
  6
CONTINUOUS
 10
25.7940385808
 20
-290.6077002457
  0
VERTEX
  8
0
 62
7
  6
CONTINUOUS
 10
26.1475128018
 20
-293.9524004593
  0
VERTEX
  8
0
 62
7
  6
CONTINUOUS
 10
26.4611856589
 20
-296.8926488485
  0
VERTEX
  8
0
 62
7
  6
CONTINUOUS
 10
26.7594153995
 20
-299.6638567818
  0
VERTEX
  8
0
 62
7
  6
CONTINUOUS
 10
27.0508514992
 20
-302.3506216858
  0
SEQEND
  0
POLYLINE
  8
0
 62
7
  6
CONTINUOUS
 66
1
 70
0
  0
VERTEX
  8
0
 62
7
  6
CONTINUOUS
 10
341.4999325845
 20
-302.3506216858
  0
VERTEX
  8
0
 62
7
  6
CONTINUOUS
 10
341.8173459968
 20
-299.423390246
  0
VERTEX
  8
0
 62
7
  6
CONTINUOUS
 10
342.1223411909
 20
-296.5869574854
  0
VERTEX
  8
0
 62
7
  6
CONTINUOUS
 10
342.459143843
 20
-293.425922425
  0
VERTEX
  8
0
 62
7
  6
CONTINUOUS
 10
342.8316386763
 20
-289.894782216
  0
VERTEX
  8
0
 62
7
  6
CONTINUOUS
 10
343.2476073764
 20
-285.9082106616
  0
VERTEX
  8
0
 62
7
  6
CONTINUOUS
 10
343.6859699828
 20
-281.6580552245
  0
VERTEX
  8
0
 62
7
  6
CONTINUOUS
 10
344.098663386
 20
-277.6114846323
  0
VERTEX
  8
0
 62
7
  6
CONTINUOUS
 10
344.4781755142
 20
-273.8521545542
  0
VERTEX
  8
0
 62
7
  6
CONTINUOUS
 10
344.8377291642
 20
-270.2575028661
  0
VERTEX
  8
0
 62
7
  6
CONTINUOUS
 10
345.1942272496
 20
-266.6623840033
  0
VERTEX
  8
0
 62
7
  6
CONTINUOUS
 10
345.5403194597
 20
-263.1434106911
  0
VERTEX
  8
0
 62
7
  6
CONTINUOUS
 10
345.8669704113
 20
-259.7968318915
  0
VERTEX
  8
0
 62
7
  6
CONTINUOUS
 10
346.1736235942
 20
-256.6334863609
  0
VERTEX
  8
0
 62
7
  6
CONTINUOUS
 10
346.4627352452
 20
-253.6325461091
  0
VERTEX
  8
0
 62
7
  6
CONTINUOUS
 10
346.7379499818
 20
-250.7598305008
  0
VERTEX
  8
0
 62
7
  6
CONTINUOUS
 10
347.0017842101
 20
-247.9919304101
  0
VERTEX
  8
0
 62
7
  6
CONTINUOUS
 10
347.2578870388
 20
-245.2927210487
  0
VERTEX
  8
0
 62
7
  6
CONTINUOUS
 10
347.5051856709
 20
-242.6753242803
  0
VERTEX
  8
0
 62
7
  6
CONTINUOUS
 10
347.7464477685
 20
-240.1120301666
  0
VERTEX
  8
0
 62
7
  6
CONTINUOUS
 10
347.9858242012
 20
-237.5598216177
  0
VERTEX
  8
0
 62
7
  6
CONTINUOUS
 10
348.2246944698
 20
-235.0047410923
  0
VERTEX
  8
0
 62
7
  6
CONTINUOUS
 10
348.4661840242
 20
-232.4138954577
  0
VERTEX
  8
0
 62
7
  6
CONTINUOUS
 10
348.7138559848
 20
-229.7493363238
  0
VERTEX
  8
0
 62
7
  6
CONTINUOUS
 10
348.9706979091
 20
-226.9790216435
  0
VERTEX
  8
0
 62
7
  6
CONTINUOUS
 10
349.2387161984
 20
-224.0813693742
  0
VERTEX
  8
0
 62
7
  6
CONTINUOUS
 10
349.5199885738
 20
-221.0340465824
  0
VERTEX
  8
0
 62
7
  6
CONTINUOUS
 10
349.8157086634
 20
-217.8244331454
  0
VERTEX
  8
0
 62
7
  6
CONTINUOUS
 10
350.1270808898
 20
-214.4400687147
  0
VERTEX
  8
0
 62
7
  6
CONTINUOUS
 10
350.454012277
 20
-210.8829270573
  0
VERTEX
  8
0
 62
7
  6
CONTINUOUS
 10
350.7984529517
 20
-207.1326690759
  0
VERTEX
  8
0
 62
7
  6
CONTINUOUS
 10
351.1672124353
 20
-203.1161272089
  0
VERTEX
  8
0
 62
7
  6
CONTINUOUS
 10
351.5643387415
 20
-198.7906872571
  0
VERTEX
  8
0
 62
7
  6
CONTINUOUS
 10
351.9968313232
 20
-194.0824323214
  0
VERTEX
  8
0
 62
7
  6
CONTINUOUS
 10
352.4799855174
 20
-188.8286912036
  0
VERTEX
  8
0
 62
7
  6
CONTINUOUS
 10
353.0211035653
 20
-182.9564513572
  0
VERTEX
  8
0
 62
7
  6
CONTINUOUS
 10
353.608033333
 20
-176.6066141854
  0
VERTEX
  8
0
 62
7
  6
CONTINUOUS
 10
354.1887465604
 20
-170.3497964433
  0
VERTEX
  8
0
 62
7
  6
CONTINUOUS
 10
354.7331898436
 20
-164.5090842507
  0
VERTEX
  8
0
 62
7
  6
CONTINUOUS
 10
355.2329435925
 20
-159.1649806731
  0
VERTEX
  8
0
 62
7
  6
CONTINUOUS
 10
355.6862102439
 20
-154.3282349586
  0
VERTEX
  8
0
 62
7
  6
CONTINUOUS
 10
356.0974599975
 20
-149.945357721
  0
VERTEX
  8
0
 62
7
  6
CONTINUOUS
 10
356.4704941376
 20
-145.9721401365
  0
VERTEX
  8
0
 62
7
  6
CONTINUOUS
 10
356.8138105905
 20
-142.3158031322
  0
VERTEX
  8
0
 62
7
  6
CONTINUOUS
 10
357.135279001
 20
-138.8911422871
  0
VERTEX
  8
0
 62
7
  6
CONTINUOUS
 10
357.4414024096
 20
-135.6279394244
  0
VERTEX
  8
0
 62
7
  6
CONTINUOUS
 10
357.7369739011
 20
-132.4743680926
  0
VERTEX
  8
0
 62
7
  6
CONTINUOUS
 10
358.0265733532
 20
-129.3808851877
  0
VERTEX
  8
0
 62
7
  6
CONTINUOUS
 10
358.3122350092
 20
-126.3250306735
  0
VERTEX
  8
0
 62
7
  6
CONTINUOUS
 10
358.593468173
 20
-123.3111787075
  0
VERTEX
  8
0
 62
7
  6
CONTINUOUS
 10
358.8714280847
 20
-120.3260660888
  0
VERTEX
  8
0
 62
7
  6
CONTINUOUS
 10
359.1487478956
 20
-117.3404422044
  0
VERTEX
  8
0
 62
7
  6
CONTINUOUS
 10
359.4255312907
 20
-114.3521137979
  0
VERTEX
  8
0
 62
7
  6
CONTINUOUS
 10
359.7014160268
 20
-111.3639102418
  0
VERTEX
  8
0
 62
7
  6
CONTINUOUS
 10
359.9771989189
 20
-108.3660726499
  0
VERTEX
  8
0
 62
7
  6
CONTINUOUS
 10
360.2515760567
 20
-105.3716527814
  0
VERTEX
  8
0
 62
7
  6
CONTINUOUS
 10
360.5276934142
 20
-102.3450282357
  0
VERTEX
  8
0
 62
7
  6
CONTINUOUS
 10
360.8100331048
 20
-99.235110169
  0
VERTEX
  8
0
 62
7
  6
CONTINUOUS
 10
361.1021151869
 20
-96.000252756
  0
VERTEX
  8
0
 62
7
  6
CONTINUOUS
 10
361.4118374758
 20
-92.5485286366
  0
VERTEX
  8
0
 62
7
  6
CONTINUOUS
 10
361.7474851788
 20
-88.7803915836
  0
VERTEX
  8
0
 62
7
  6
CONTINUOUS
 10
362.1193421041
 20
-84.5688451647
  0
VERTEX
  8
0
 62
7
  6
CONTINUOUS
 10
362.5276806602
 20
-79.8946612548
  0
VERTEX
  8
0
 62
7
  6
CONTINUOUS
 10
362.9687685793
 20
-74.7833349746
  0
VERTEX
  8
0
 62
7
  6
CONTINUOUS
 10
363.4354938374
 20
-69.3003417034
  0
VERTEX
  8
0
 62
7
  6
CONTINUOUS
 10
363.9305961525
 20
-63.3947053324
  0
VERTEX
  8
0
 62
7
  6
CONTINUOUS
 10
364.4751097312
 20
-56.7858716747
  0
VERTEX
  8
0
 62
7
  6
CONTINUOUS
 10
365.0840691148
 20
-49.2419300348
  0
VERTEX
  8
0
 62
7
  6
CONTINUOUS
 10
365.7628542135
 20
-40.6242193013
  0
VERTEX
  8
0
 62
7
  6
CONTINUOUS
 10
366.5110476353
 20
-30.8417741372
  0
VERTEX
  8
0
 62
7
  6
CONTINUOUS
 10
367.322048899
 20
-19.8655033718
  0
VERTEX
  8
0
 62
7
  6
CONTINUOUS
 10
368.1901551702
 20
-7.6365898329
  0
VERTEX
  8
0
 62
7
  6
CONTINUOUS
 10
369.0319149457
 20
4.7571568118
  0
VERTEX
  8
0
 62
7
  6
CONTINUOUS
 10
369.7454866351
 20
15.7342071993
  0
VERTEX
  8
0
 62
7
  6
CONTINUOUS
 10
370.3501345826
 20
25.4256492989
  0
VERTEX
  8
0
 62
7
  6
CONTINUOUS
 10
370.8632852244
 20
33.9739411437
  0
VERTEX
  8
0
 62
7
  6
CONTINUOUS
 10
371.2984689513
 20
41.4887920724
  0
VERTEX
  8
0
 62
7
  6
CONTINUOUS
 10
371.6663444746
 20
48.0557429298
  0
VERTEX
  8
0
 62
7
  6
CONTINUOUS
 10
371.982155196
 20
53.8683742819
  0
VERTEX
  8
0
 62
7
  6
CONTINUOUS
 10
372.262254167
 20
59.1750665209
  0
VERTEX
  8
0
 62
7
  6
CONTINUOUS
 10
372.5217448605
 20
64.23596551
  0
VERTEX
  8
0
 62
7
  6
CONTINUOUS
 10
372.7716911511
 20
69.2608936124
  0
VERTEX
  8
0
 62
7
  6
CONTINUOUS
 10
373.0180026403
 20
74.3778821064
  0
VERTEX
  8
0
 62
7
  6
CONTINUOUS
 10
373.2625171086
 20
79.6446706404
  0
VERTEX
  8
0
 62
7
  6
CONTINUOUS
 10
373.5039087572
 20
85.057490457
  0
VERTEX
  8
0
 62
7
  6
CONTINUOUS
 10
373.743704702
 20
90.682493216
  0
VERTEX
  8
0
 62
7
  6
CONTINUOUS
 10
373.9826873126
 20
96.5838883106
  0
VERTEX
  8
0
 62
7
  6
CONTINUOUS
 10
374.2164708053
 20
102.7069118273
  0
VERTEX
  8
0
 62
7
  6
CONTINUOUS
 10
374.4388959678
 20
108.9321537277
  0
VERTEX
  8
0
 62
7
  6
CONTINUOUS
 10
374.6415707643
 20
115.0297632896
  0
VERTEX
  8
0
 62
7
  6
CONTINUOUS
 10
374.8157483132
 20
120.6803708704
  0
VERTEX
  8
0
 62
7
  6
CONTINUOUS
 10
374.9600940789
 20
125.7285736062
  0
VERTEX
  8
0
 62
7
  6
CONTINUOUS
 10
375.0777736189
 20
130.1539692921
  0
VERTEX
  8
0
 62
7
  6
CONTINUOUS
 10
375.1753265954
 20
134.0866596805
  0
VERTEX
  8
0
 62
7
  6
CONTINUOUS
 10
375.2571320942
 20
137.6134390337
  0
VERTEX
  8
0
 62
7
  6
CONTINUOUS
 10
375.3255863075
 20
140.7619231547
  0
VERTEX
  8
0
 62
7
  6
CONTINUOUS
 10
375.3828043648
 20
143.5617031527
  0
VERTEX
  8
0
 62
7
  6
CONTINUOUS
 10
375.430265436
 20
146.0241487217
  0
VERTEX
  8
0
 62
7
  6
CONTINUOUS
 10
375.469788748
 20
148.1903844061
  0
SEQEND
  0
LINE
  8
0
 62
7
  6
CONTINUOUS
 10
339.8382245428
 20
-306.8096222602
 11
34.3248777334
 21
-306.8096222602
  0
LINE
  8
0
 62
7
  6
CONTINUOUS
 10
34.3247689635
 20
-306.8096222602
 11
28.7125381239
 21
-306.8096222602
  0
LINE
  8
0
 62
7
  6
CONTINUOUS
 10
165.651159066
 20
608.4793944104
 11
162.812406675
 21
604.8168320485
  0
LINE
  8
0
 62
7
  6
CONTINUOUS
 10
-16.6838407264
 20
586.4838669073
 11
-17.0889069277
 21
563.277639772
  0
POLYLINE
  8
0
 62
7
  6
CONTINUOUS
 66
1
 70
0
  0
VERTEX
  8
0
 62
7
  6
CONTINUOUS
 10
4.7812217591
 20
159.5442822612
  0
VERTEX
  8
0
 62
7
  6
CONTINUOUS
 10
4.794588304
 20
159.3393173419
  0
VERTEX
  8
0
 62
7
  6
CONTINUOUS
 10
4.8080121046
 20
159.1480000558
  0
VERTEX
  8
0
 62
7
  6
CONTINUOUS
 10
4.82152687
 20
158.9696674505
  0
VERTEX
  8
0
 62
7
  6
CONTINUOUS
 10
4.8352083164
 20
158.8032558917
  0
VERTEX
  8
0
 62
7
  6
CONTINUOUS
 10
4.8491268607
 20
158.6479670524
  0
VERTEX
  8
0
 62
7
  6
CONTINUOUS
 10
4.8634623119
 20
158.5020976217
  0
VERTEX
  8
0
 62
7
  6
CONTINUOUS
 10
4.8783832593
 20
158.3645488154
  0
VERTEX
  8
0
 62
7
  6
CONTINUOUS
 10
4.8943155327
 20
158.232547939
  0
VERTEX
  8
0
 62
7
  6
CONTINUOUS
 10
4.911684992
 20
158.1044125236
  0
VERTEX
  8
0
 62
7
  6
CONTINUOUS
 10
4.9315186194
 20
157.9756039839
  0
VERTEX
  8
0
 62
7
  6
CONTINUOUS
 10
4.9548006982
 20
157.8441761265
  0
VERTEX
  8
0
 62
7
  6
CONTINUOUS
 10
4.9846350856
 20
157.7001124986
  0
VERTEX
  8
0
 62
7
  6
CONTINUOUS
 10
5.0242036167
 20
157.5396300634
  0
VERTEX
  8
0
 62
7
  6
CONTINUOUS
 10
5.0830960036
 20
157.3436284254
  0
VERTEX
  8
0
 62
7
  6
CONTINUOUS
 10
5.1775487899
 20
157.0938890053
  0
SEQEND
  0
POLYLINE
  8
0
 62
7
  6
CONTINUOUS
 66
1
 70
0
  0
VERTEX
  8
0
 62
7
  6
CONTINUOUS
 10
4.6745623498
 20
161.7422269877
  0
VERTEX
  8
0
 62
7
  6
CONTINUOUS
 10
4.68787419
 20
161.409717844
  0
VERTEX
  8
0
 62
7
  6
CONTINUOUS
 10
4.7012031795
 20
161.0942371091
  0
VERTEX
  8
0
 62
7
  6
CONTINUOUS
 10
4.7145394731
 20
160.7956119942
  0
VERTEX
  8
0
 62
7
  6
CONTINUOUS
 10
4.7278778275
 20
160.5135693862
  0
VERTEX
  8
0
 62
7
  6
CONTINUOUS
 10
4.7412136907
 20
160.2478307612
  0
VERTEX
  8
0
 62
7
  6
CONTINUOUS
 10
4.7545474556
 20
159.9979932269
  0
VERTEX
  8
0
 62
7
  6
CONTINUOUS
 10
4.7678791574
 20
159.7636681379
  0
VERTEX
  8
0
 62
7
  6
CONTINUOUS
 10
4.7812217591
 20
159.5442822612
  0
SEQEND
  0
POLYLINE
  8
0
 62
7
  6
CONTINUOUS
 66
1
 70
0
  0
VERTEX
  8
0
 62
7
  6
CONTINUOUS
 10
-7.7837262404
 20
170.0519609705
  0
VERTEX
  8
0
 62
7
  6
CONTINUOUS
 10
-7.771639149
 20
169.7295337124
  0
VERTEX
  8
0
 62
7
  6
CONTINUOUS
 10
-7.7291793163
 20
169.2476148801
  0
VERTEX
  8
0
 62
7
  6
CONTINUOUS
 10
-7.6576671683
 20
168.7691436888
  0
VERTEX
  8
0
 62
7
  6
CONTINUOUS
 10
-7.5573642209
 20
168.2958699461
  0
VERTEX
  8
0
 62
7
  6
CONTINUOUS
 10
-7.4286372824
 20
167.8295244441
  0
VERTEX
  8
0
 62
7
  6
CONTINUOUS
 10
-7.2719571121
 20
167.3718126367
  0
VERTEX
  8
0
 62
7
  6
CONTINUOUS
 10
-7.0878966993
 20
166.9244084045
  0
VERTEX
  8
0
 62
7
  6
CONTINUOUS
 10
-6.8771291649
 20
166.4889479261
  0
VERTEX
  8
0
 62
7
  6
CONTINUOUS
 10
-6.6404253165
 20
166.0670237257
  0
VERTEX
  8
0
 62
7
  6
CONTINUOUS
 10
-6.3786507545
 20
165.6601787246
  0
VERTEX
  8
0
 62
7
  6
CONTINUOUS
 10
-6.0927627822
 20
165.2699007512
  0
VERTEX
  8
0
 62
7
  6
CONTINUOUS
 10
-5.7838068152
 20
164.8976169746
  0
VERTEX
  8
0
 62
7
  6
CONTINUOUS
 10
-5.4529125691
 20
164.5446887389
  0
VERTEX
  8
0
 62
7
  6
CONTINUOUS
 10
-5.1012902029
 20
164.212406853
  0
VERTEX
  8
0
 62
7
  6
CONTINUOUS
 10
-4.7302255325
 20
163.9019864613
  0
VERTEX
  8
0
 62
7
  6
CONTINUOUS
 10
-4.3410759282
 20
163.6145630957
  0
VERTEX
  8
0
 62
7
  6
CONTINUOUS
 10
-3.9352646151
 20
163.3511878786
  0
VERTEX
  8
0
 62
7
  6
CONTINUOUS
 10
-3.5142767155
 20
163.1128244742
  0
VERTEX
  8
0
 62
7
  6
CONTINUOUS
 10
-3.0796529625
 20
162.9003448186
  0
VERTEX
  8
0
 62
7
  6
CONTINUOUS
 10
-2.6329830811
 20
162.7145255583
  0
VERTEX
  8
0
 62
7
  6
CONTINUOUS
 10
-2.1759013207
 20
162.5560459561
  0
VERTEX
  8
0
 62
7
  6
CONTINUOUS
 10
-1.7100789413
 20
162.4254848641
  0
VERTEX
  8
0
 62
7
  6
CONTINUOUS
 10
-1.2372207664
 20
162.3233194386
  0
VERTEX
  8
0
 62
7
  6
CONTINUOUS
 10
-0.7590516272
 20
162.2499219792
  0
VERTEX
  8
0
 62
7
  6
CONTINUOUS
 10
-0.2773154718
 20
162.2055606589
  0
VERTEX
  8
0
 62
7
  6
CONTINUOUS
 10
0.206224803
 20
162.1903985871
  0
SEQEND
  0
POLYLINE
  8
0
 62
7
  6
CONTINUOUS
 66
1
 70
0
  0
VERTEX
  8
0
 62
7
  6
CONTINUOUS
 10
4.6480289764
 20
162.4588417522
  0
VERTEX
  8
0
 62
7
  6
CONTINUOUS
 10
4.6612768633
 20
162.0919124309
  0
VERTEX
  8
0
 62
7
  6
CONTINUOUS
 10
4.6745623498
 20
161.7422269877
  0
SEQEND
  0
LINE
  8
0
 62
7
  6
CONTINUOUS
 10
4.6340955253
 20
162.864976216
 11
4.6480289764
 21
162.4588417522
  0
LINE
  8
0
 62
7
  6
CONTINUOUS
 10
4.6340961877
 20
162.8649534594
 11
4.4617869911
 21
168.0182161818
  0
LINE
  8
0
 62
7
  6
CONTINUOUS
 10
4.4493689488
 20
168.4253904166
 11
4.4618069193
 21
168.0176264182
  0
POLYLINE
  8
0
 62
7
  6
CONTINUOUS
 66
1
 70
0
  0
VERTEX
  8
0
 62
7
  6
CONTINUOUS
 10
4.4274632149
 20
169.3453378248
  0
VERTEX
  8
0
 62
7
  6
CONTINUOUS
 10
4.4380320561
 20
168.8657185212
  0
VERTEX
  8
0
 62
7
  6
CONTINUOUS
 10
4.4493689488
 20
168.4253904166
  0
SEQEND
  0
POLYLINE
  8
0
 62
7
  6
CONTINUOUS
 66
1
 70
0
  0
VERTEX
  8
0
 62
7
  6
CONTINUOUS
 10
-6.9191587825
 20
148.1903753755
  0
VERTEX
  8
0
 62
7
  6
CONTINUOUS
 10
-6.5304933359
 20
130.2596876283
  0
VERTEX
  8
0
 62
7
  6
CONTINUOUS
 10
-5.9919663455
 20
111.9839603714
  0
VERTEX
  8
0
 62
7
  6
CONTINUOUS
 10
-5.2557722189
 20
92.2050427938
  0
VERTEX
  8
0
 62
7
  6
CONTINUOUS
 10
-4.9283987477
 20
84.4913841111
  0
SEQEND
  0
POLYLINE
  8
0
 62
7
  6
CONTINUOUS
 66
1
 70
0
  0
VERTEX
  8
0
 62
7
  6
CONTINUOUS
 10
-14.4866978726
 20
553.1008937486
  0
VERTEX
  8
0
 62
7
  6
CONTINUOUS
 10
-13.5780179503
 20
502.3386162006
  0
VERTEX
  8
0
 62
7
  6
CONTINUOUS
 10
-13.4547152173
 20
495.4497402592
  0
VERTEX
  8
0
 62
7
  6
CONTINUOUS
 10
-13.1986759376
 20
481.1132795252
  0
VERTEX
  8
0
 62
7
  6
CONTINUOUS
 10
-12.5456531901
 20
444.3233493218
  0
VERTEX
  8
0
 62
7
  6
CONTINUOUS
 10
-12.006191331
 20
413.6826764813
  0
VERTEX
  8
0
 62
7
  6
CONTINUOUS
 10
-11.6252760728
 20
391.9089173723
  0
VERTEX
  8
0
 62
7
  6
CONTINUOUS
 10
-11.1928089956
 20
367.0469757519
  0
VERTEX
  8
0
 62
7
  6
CONTINUOUS
 10
-10.7570243537
 20
341.8727706715
  0
SEQEND
  0
LINE
  8
0
 62
7
  6
CONTINUOUS
 10
-10.7570243537
 20
341.8727706715
 11
-7.7837460884
 21
170.0519589152
  0
POLYLINE
  8
0
 62
7
  6
CONTINUOUS
 66
1
 70
0
  0
VERTEX
  8
0
 62
7
  6
CONTINUOUS
 10
-7.0167270659
 20
154.0656215394
  0
VERTEX
  8
0
 62
7
  6
CONTINUOUS
 10
-7.001843219
 20
153.1200778135
  0
VERTEX
  8
0
 62
7
  6
CONTINUOUS
 10
-6.984505451
 20
152.0408872117
  0
VERTEX
  8
0
 62
7
  6
CONTINUOUS
 10
-6.9673025437
 20
150.993936123
  0
VERTEX
  8
0
 62
7
  6
CONTINUOUS
 10
-6.9502115876
 20
149.9773922812
  0
VERTEX
  8
0
 62
7
  6
CONTINUOUS
 10
-6.9333377521
 20
148.9967861583
  0
VERTEX
  8
0
 62
7
  6
CONTINUOUS
 10
-6.919158781
 20
148.1903757043
  0
SEQEND
  0
LINE
  8
0
 62
7
  6
CONTINUOUS
 10
4.8071244772
 20
181.3590525304
 11
4.8071236693
 21
181.3591341386
  0
POLYLINE
  8
0
 62
7
  6
CONTINUOUS
 66
1
 70
0
  0
VERTEX
  8
0
 62
7
  6
CONTINUOUS
 10
4.3656533875
 20
175.5111547927
  0
VERTEX
  8
0
 62
7
  6
CONTINUOUS
 10
4.3681809041
 20
174.8396397782
  0
VERTEX
  8
0
 62
7
  6
CONTINUOUS
 10
4.3715036183
 20
174.1706940328
  0
VERTEX
  8
0
 62
7
  6
CONTINUOUS
 10
4.3756389648
 20
173.5077526364
  0
VERTEX
  8
0
 62
7
  6
CONTINUOUS
 10
4.3805910516
 20
172.854275301
  0
VERTEX
  8
0
 62
7
  6
CONTINUOUS
 10
4.3863703705
 20
172.2138310681
  0
VERTEX
  8
0
 62
7
  6
CONTINUOUS
 10
4.3929731199
 20
171.5903652666
  0
VERTEX
  8
0
 62
7
  6
CONTINUOUS
 10
4.4003972895
 20
170.9878358912
  0
VERTEX
  8
0
 62
7
  6
CONTINUOUS
 10
4.4086284015
 20
170.4101934707
  0
VERTEX
  8
0
 62
7
  6
CONTINUOUS
 10
4.4176557222
 20
169.8614612663
  0
VERTEX
  8
0
 62
7
  6
CONTINUOUS
 10
4.4274632149
 20
169.3453378248
  0
SEQEND
  0
LINE
  8
0
 62
7
  6
CONTINUOUS
 10
4.3639076237
 20
176.1820128607
 11
4.3656533875
 21
175.5111547927
  0
POLYLINE
  8
0
 62
7
  6
CONTINUOUS
 66
1
 70
0
  0
VERTEX
  8
0
 62
7
  6
CONTINUOUS
 10
4.36314182
 20
178.1606735828
  0
VERTEX
  8
0
 62
7
  6
CONTINUOUS
 10
4.3626760317
 20
177.5095708297
  0
VERTEX
  8
0
 62
7
  6
CONTINUOUS
 10
4.3629267486
 20
176.8491178676
  0
VERTEX
  8
0
 62
7
  6
CONTINUOUS
 10
4.3639076237
 20
176.1820128607
  0
SEQEND
  0
POLYLINE
  8
0
 62
7
  6
CONTINUOUS
 66
1
 70
0
  0
VERTEX
  8
0
 62
7
  6
CONTINUOUS
 10
4.3660921751
 20
179.425043425
  0
VERTEX
  8
0
 62
7
  6
CONTINUOUS
 10
4.3642899322
 20
178.7999269325
  0
VERTEX
  8
0
 62
7
  6
CONTINUOUS
 10
4.36314182
 20
178.1606735828
  0
SEQEND
  0
LINE
  8
0
 62
7
  6
CONTINUOUS
 10
4.3685135321
 20
180.0339420759
 11
4.3660921751
 21
179.425043425
  0
POLYLINE
  8
0
 62
7
  6
CONTINUOUS
 66
1
 70
0
  0
VERTEX
  8
0
 62
7
  6
CONTINUOUS
 10
4.3750846141
 20
181.1958544749
  0
VERTEX
  8
0
 62
7
  6
CONTINUOUS
 10
4.3715234516
 20
180.6247552512
  0
VERTEX
  8
0
 62
7
  6
CONTINUOUS
 10
4.3685135321
 20
180.0339420759
  0
SEQEND
  0
LINE
  8
0
 62
7
  6
CONTINUOUS
 10
4.3791627804
 20
181.7456896097
 11
4.3750846141
 21
181.1958544749
  0
LINE
  8
0
 62
7
  6
CONTINUOUS
 10
4.3837238366
 20
182.2730454508
 11
4.3791627804
 21
181.7456896097
  0
LINE
  8
0
 62
7
  6
CONTINUOUS
 10
156.5211152616
 20
602.6609846694
 11
155.857589141
 21
600.8379616356
  0
LINE
  8
0
 62
7
  6
CONTINUOUS
 10
5.3958097466
 20
174.785092704
 11
5.3917320095
 21
174.791733267
  0
LINE
  8
0
 62
7
  6
CONTINUOUS
 10
9.3597207509
 20
168.3487154467
 11
9.365552208
 21
168.3392070091
  0
POLYLINE
  8
0
 62
7
  6
CONTINUOUS
 66
1
 70
0
  0
VERTEX
  8
0
 62
7
  6
CONTINUOUS
 10
5.1775487899
 20
157.0938890053
  0
VERTEX
  8
0
 62
7
  6
CONTINUOUS
 10
5.3223840132
 20
156.797619044
  0
VERTEX
  8
0
 62
7
  6
CONTINUOUS
 10
5.5429844095
 20
156.4559013323
  0
VERTEX
  8
0
 62
7
  6
CONTINUOUS
 10
5.7827667834
 20
156.1715230591
  0
SEQEND
  0
POLYLINE
  8
0
 62
7
  6
CONTINUOUS
 66
1
 70
0
  0
VERTEX
  8
0
 62
7
  6
CONTINUOUS
 10
9.7395522602
 20
152.0086753818
  0
VERTEX
  8
0
 62
7
  6
CONTINUOUS
 10
10.1142870139
 20
151.670687269
  0
VERTEX
  8
0
 62
7
  6
CONTINUOUS
 10
10.429471799
 20
151.4564027826
  0
VERTEX
  8
0
 62
7
  6
CONTINUOUS
 10
10.7019927662
 20
151.3091095074
  0
VERTEX
  8
0
 62
7
  6
CONTINUOUS
 10
10.9397872205
 20
151.2036157348
  0
VERTEX
  8
0
 62
7
  6
CONTINUOUS
 10
11.1489649728
 20
151.1254410985
  0
VERTEX
  8
0
 62
7
  6
CONTINUOUS
 10
11.3433087907
 20
151.0629784838
  0
VERTEX
  8
0
 62
7
  6
CONTINUOUS
 10
11.5264509423
 20
151.0115218142
  0
VERTEX
  8
0
 62
7
  6
CONTINUOUS
 10
11.70709528
 20
150.9665421047
  0
VERTEX
  8
0
 62
7
  6
CONTINUOUS
 10
11.8876715233
 20
150.9262591933
  0
VERTEX
  8
0
 62
7
  6
CONTINUOUS
 10
12.0734174722
 20
150.8887962066
  0
VERTEX
  8
0
 62
7
  6
CONTINUOUS
 10
12.2657327423
 20
150.8534638454
  0
VERTEX
  8
0
 62
7
  6
CONTINUOUS
 10
12.4674036388
 20
150.8194923406
  0
VERTEX
  8
0
 62
7
  6
CONTINUOUS
 10
12.679593629
 20
150.7865360187
  0
VERTEX
  8
0
 62
7
  6
CONTINUOUS
 10
12.9040497382
 20
150.7542340603
  0
VERTEX
  8
0
 62
7
  6
CONTINUOUS
 10
13.1417303204
 20
150.7224029649
  0
VERTEX
  8
0
 62
7
  6
CONTINUOUS
 10
13.3939059817
 20
150.690854179
  0
VERTEX
  8
0
 62
7
  6
CONTINUOUS
 10
13.6613313377
 20
150.6594940929
  0
VERTEX
  8
0
 62
7
  6
CONTINUOUS
 10
13.9449444216
 20
150.6282246266
  0
VERTEX
  8
0
 62
7
  6
CONTINUOUS
 10
14.2453719824
 20
150.5969960407
  0
VERTEX
  8
0
 62
7
  6
CONTINUOUS
 10
14.5633400199
 20
150.5657567469
  0
VERTEX
  8
0
 62
7
  6
CONTINUOUS
 10
14.899378765
 20
150.5344816369
  0
VERTEX
  8
0
 62
7
  6
CONTINUOUS
 10
15.2540740992
 20
150.5031446846
  0
VERTEX
  8
0
 62
7
  6
CONTINUOUS
 10
15.6278697773
 20
150.4717358602
  0
VERTEX
  8
0
 62
7
  6
CONTINUOUS
 10
16.0212312376
 20
150.4402444465
  0
VERTEX
  8
0
 62
7
  6
CONTINUOUS
 10
16.4345280427
 20
150.4086684928
  0
VERTEX
  8
0
 62
7
  6
CONTINUOUS
 10
16.8681348555
 20
150.377006274
  0
VERTEX
  8
0
 62
7
  6
CONTINUOUS
 10
17.3223651051
 20
150.3452609688
  0
VERTEX
  8
0
 62
7
  6
CONTINUOUS
 10
17.7974215676
 20
150.3134430251
  0
VERTEX
  8
0
 62
7
  6
CONTINUOUS
 10
18.293873479
 20
150.2815383505
  0
VERTEX
  8
0
 62
7
  6
CONTINUOUS
 10
18.8120877182
 20
150.2495476216
  0
VERTEX
  8
0
 62
7
  6
CONTINUOUS
 10
19.3529155918
 20
150.2174439076
  0
VERTEX
  8
0
 62
7
  6
CONTINUOUS
 10
19.9171393767
 20
150.1852085947
  0
VERTEX
  8
0
 62
7
  6
CONTINUOUS
 10
20.5055909494
 20
150.1528238731
  0
VERTEX
  8
0
 62
7
  6
CONTINUOUS
 10
21.1191542911
 20
150.1202728097
  0
VERTEX
  8
0
 62
7
  6
CONTINUOUS
 10
21.758742225
 20
150.0875403018
  0
VERTEX
  8
0
 62
7
  6
CONTINUOUS
 10
22.4253200375
 20
150.0546116567
  0
VERTEX
  8
0
 62
7
  6
CONTINUOUS
 10
23.1198909721
 20
150.0214737244
  0
VERTEX
  8
0
 62
7
  6
CONTINUOUS
 10
23.8435099941
 20
149.9881139205
  0
VERTEX
  8
0
 62
7
  6
CONTINUOUS
 10
24.5972707628
 20
149.9545208193
  0
VERTEX
  8
0
 62
7
  6
CONTINUOUS
 10
25.3823231566
 20
149.9206837761
  0
VERTEX
  8
0
 62
7
  6
CONTINUOUS
 10
26.1998566273
 20
149.8865936336
  0
VERTEX
  8
0
 62
7
  6
CONTINUOUS
 10
27.0511400689
 20
149.8522406257
  0
VERTEX
  8
0
 62
7
  6
CONTINUOUS
 10
27.9373682689
 20
149.8176209288
  0
VERTEX
  8
0
 62
7
  6
CONTINUOUS
 10
28.8598505745
 20
149.7827291285
  0
VERTEX
  8
0
 62
7
  6
CONTINUOUS
 10
29.8197827817
 20
149.7475663704
  0
VERTEX
  8
0
 62
7
  6
CONTINUOUS
 10
30.8184318088
 20
149.7121330292
  0
VERTEX
  8
0
 62
7
  6
CONTINUOUS
 10
31.8570928825
 20
149.6764309938
  0
VERTEX
  8
0
 62
7
  6
CONTINUOUS
 10
32.9371054585
 20
149.6404631818
  0
VERTEX
  8
0
 62
7
  6
CONTINUOUS
 10
34.0598292893
 20
149.6042338705
  0
VERTEX
  8
0
 62
7
  6
CONTINUOUS
 10
35.2267681936
 20
149.5677446447
  0
VERTEX
  8
0
 62
7
  6
CONTINUOUS
 10
36.439012424
 20
149.5310122944
  0
VERTEX
  8
0
 62
7
  6
CONTINUOUS
 10
37.6979408496
 20
149.4940460331
  0
VERTEX
  8
0
 62
7
  6
CONTINUOUS
 10
39.0042502843
 20
149.4568756442
  0
VERTEX
  8
0
 62
7
  6
CONTINUOUS
 10
40.3587974115
 20
149.4195263502
  0
VERTEX
  8
0
 62
7
  6
CONTINUOUS
 10
41.7623604764
 20
149.3820258888
  0
VERTEX
  8
0
 62
7
  6
CONTINUOUS
 10
43.215695461
 20
149.3444018178
  0
VERTEX
  8
0
 62
7
  6
CONTINUOUS
 10
44.7195235811
 20
149.3066820636
  0
VERTEX
  8
0
 62
7
  6
CONTINUOUS
 10
46.2745398668
 20
149.2688954856
  0
VERTEX
  8
0
 62
7
  6
CONTINUOUS
 10
47.8814062153
 20
149.2310717267
  0
VERTEX
  8
0
 62
7
  6
CONTINUOUS
 10
49.5407222084
 20
149.1932410784
  0
VERTEX
  8
0
 62
7
  6
CONTINUOUS
 10
51.2531303446
 20
149.1554326391
  0
VERTEX
  8
0
 62
7
  6
CONTINUOUS
 10
53.0188380727
 20
149.1176843855
  0
VERTEX
  8
0
 62
7
  6
CONTINUOUS
 10
54.8395288917
 20
149.0800034085
  0
VERTEX
  8
0
 62
7
  6
CONTINUOUS
 10
56.7161943975
 20
149.0424128119
  0
VERTEX
  8
0
 62
7
  6
CONTINUOUS
 10
58.6512029841
 20
149.0049105802
  0
VERTEX
  8
0
 62
7
  6
CONTINUOUS
 10
60.6466448544
 20
148.9675042439
  0
VERTEX
  8
0
 62
7
  6
CONTINUOUS
 10
62.7047071532
 20
148.930202547
  0
VERTEX
  8
0
 62
7
  6
CONTINUOUS
 10
64.827629958
 20
148.8930176513
  0
VERTEX
  8
0
 62
7
  6
CONTINUOUS
 10
67.0177065402
 20
148.8559646772
  0
VERTEX
  8
0
 62
7
  6
CONTINUOUS
 10
69.277284478
 20
148.8190606001
  0
VERTEX
  8
0
 62
7
  6
CONTINUOUS
 10
71.6086929231
 20
148.7823271083
  0
VERTEX
  8
0
 62
7
  6
CONTINUOUS
 10
74.0147921938
 20
148.7457820193
  0
VERTEX
  8
0
 62
7
  6
CONTINUOUS
 10
76.4965731087
 20
148.7094741993
  0
VERTEX
  8
0
 62
7
  6
CONTINUOUS
 10
79.0559803339
 20
148.6734400951
  0
VERTEX
  8
0
 62
7
  6
CONTINUOUS
 10
81.6928194523
 20
148.6377477874
  0
VERTEX
  8
0
 62
7
  6
CONTINUOUS
 10
84.407324526
 20
148.6024576895
  0
VERTEX
  8
0
 62
7
  6
CONTINUOUS
 10
87.1995118079
 20
148.5676321242
  0
VERTEX
  8
0
 62
7
  6
CONTINUOUS
 10
90.069319038
 20
148.533334487
  0
VERTEX
  8
0
 62
7
  6
CONTINUOUS
 10
93.0165578802
 20
148.4996280429
  0
VERTEX
  8
0
 62
7
  6
CONTINUOUS
 10
96.0406565757
 20
148.4665790111
  0
VERTEX
  8
0
 62
7
  6
CONTINUOUS
 10
99.1419563579
 20
148.4342431001
  0
VERTEX
  8
0
 62
7
  6
CONTINUOUS
 10
102.3196157288
 20
148.402688071
  0
VERTEX
  8
0
 62
7
  6
CONTINUOUS
 10
105.5759898849
 20
148.3719504037
  0
VERTEX
  8
0
 62
7
  6
CONTINUOUS
 10
108.9124214333
 20
148.3420800939
  0
VERTEX
  8
0
 62
7
  6
CONTINUOUS
 10
112.3308611441
 20
148.3131252481
  0
VERTEX
  8
0
 62
7
  6
CONTINUOUS
 10
115.8330507155
 20
148.2851397865
  0
VERTEX
  8
0
 62
7
  6
CONTINUOUS
 10
119.4206663024
 20
148.2581814171
  0
VERTEX
  8
0
 62
7
  6
CONTINUOUS
 10
123.0953138341
 20
148.2323129193
  0
VERTEX
  8
0
 62
7
  6
CONTINUOUS
 10
126.8585098543
 20
148.2076017391
  0
VERTEX
  8
0
 62
7
  6
CONTINUOUS
 10
129.6640381723
 20
148.190324321
  0
SEQEND
  0
LINE
  8
0
 62
7
  6
CONTINUOUS
 10
9.745529761
 20
152.002367997
 11
5.7793183577
 21
156.175145572
  0
LINE
  8
0
 62
7
  6
CONTINUOUS
 10
109.275392042
 20
187.3648156542
 11
109.275392042
 21
187.3684253949
  0
LINE
  8
0
 62
7
  6
CONTINUOUS
 10
184.5156857562
 20
610.1374216166
 11
184.5156857562
 21
610.7572875966
  0
LINE
  8
0
 62
7
  6
CONTINUOUS
 10
185.0156857562
 20
610.5541054329
 11
185.0156857562
 21
609.8831575332
  0
POLYLINE
  8
0
 62
7
  6
CONTINUOUS
 66
1
 70
0
  0
VERTEX
  8
0
 62
7
  6
CONTINUOUS
 10
238.8956708125
 20
148.1903777398
  0
VERTEX
  8
0
 62
7
  6
CONTINUOUS
 10
239.733889753
 20
148.1954394657
  0
VERTEX
  8
0
 62
7
  6
CONTINUOUS
 10
243.5622625204
 20
148.2196588799
  0
VERTEX
  8
0
 62
7
  6
CONTINUOUS
 10
247.2993877302
 20
148.2450759685
  0
VERTEX
  8
0
 62
7
  6
CONTINUOUS
 10
250.9469955163
 20
148.2716206306
  0
VERTEX
  8
0
 62
7
  6
CONTINUOUS
 10
254.5069113637
 20
148.2992276447
  0
VERTEX
  8
0
 62
7
  6
CONTINUOUS
 10
257.9810341723
 20
148.3278371871
  0
VERTEX
  8
0
 62
7
  6
CONTINUOUS
 10
261.3713328653
 20
148.3573933202
  0
VERTEX
  8
0
 62
7
  6
CONTINUOUS
 10
264.6798919506
 20
148.3878466456
  0
VERTEX
  8
0
 62
7
  6
CONTINUOUS
 10
267.90851999
 20
148.4191491347
  0
VERTEX
  8
0
 62
7
  6
CONTINUOUS
 10
271.059947489
 20
148.4512659994
  0
VERTEX
  8
0
 62
7
  6
CONTINUOUS
 10
274.1336733195
 20
148.4841322203
  0
VERTEX
  8
0
 62
7
  6
CONTINUOUS
 10
277.1305949432
 20
148.517697947
  0
VERTEX
  8
0
 62
7
  6
CONTINUOUS
 10
280.0497677997
 20
148.5518935478
  0
VERTEX
  8
0
 62
7
  6
CONTINUOUS
 10
282.8908879295
 20
148.5866536288
  0
VERTEX
  8
0
 62
7
  6
CONTINUOUS
 10
285.6537419161
 20
148.6219136599
  0
VERTEX
  8
0
 62
7
  6
CONTINUOUS
 10
288.3382389803
 20
148.6576095477
  0
VERTEX
  8
0
 62
7
  6
CONTINUOUS
 10
290.9444380086
 20
148.6936776509
  0
VERTEX
  8
0
 62
7
  6
CONTINUOUS
 10
293.472108389
 20
148.7300489369
  0
VERTEX
  8
0
 62
7
  6
CONTINUOUS
 10
295.9227167674
 20
148.7666788102
  0
VERTEX
  8
0
 62
7
  6
CONTINUOUS
 10
298.2967715302
 20
148.8035087969
  0
VERTEX
  8
0
 62
7
  6
CONTINUOUS
 10
300.597268309
 20
148.8405211411
  0
VERTEX
  8
0
 62
7
  6
CONTINUOUS
 10
302.8264959915
 20
148.8776907199
  0
VERTEX
  8
0
 62
7
  6
CONTINUOUS
 10
304.9869158601
 20
148.9149991112
  0
VERTEX
  8
0
 62
7
  6
CONTINUOUS
 10
307.0808779978
 20
148.9524307221
  0
VERTEX
  8
0
 62
7
  6
CONTINUOUS
 10
309.1106902809
 20
148.9899722399
  0
VERTEX
  8
0
 62
7
  6
CONTINUOUS
 10
311.0786076134
 20
149.0276130979
  0
VERTEX
  8
0
 62
7
  6
CONTINUOUS
 10
312.9868069667
 20
149.0653457971
  0
VERTEX
  8
0
 62
7
  6
CONTINUOUS
 10
314.8376559954
 20
149.1031703138
  0
VERTEX
  8
0
 62
7
  6
CONTINUOUS
 10
316.6324706058
 20
149.141068329
  0
VERTEX
  8
0
 62
7
  6
CONTINUOUS
 10
318.3732318927
 20
149.1790380165
  0
VERTEX
  8
0
 62
7
  6
CONTINUOUS
 10
320.0601245874
 20
149.2170404664
  0
VERTEX
  8
0
 62
7
  6
CONTINUOUS
 10
321.6938721417
 20
149.2550478225
  0
VERTEX
  8
0
 62
7
  6
CONTINUOUS
 10
323.2750543856
 20
149.2930282685
  0
VERTEX
  8
0
 62
7
  6
CONTINUOUS
 10
324.8043287949
 20
149.3309520008
  0
VERTEX
  8
0
 62
7
  6
CONTINUOUS
 10
326.2823845713
 20
149.368790018
  0
VERTEX
  8
0
 62
7
  6
CONTINUOUS
 10
327.7099512825
 20
149.4065135169
  0
VERTEX
  8
0
 62
7
  6
CONTINUOUS
 10
329.0877905084
 20
149.4440943833
  0
VERTEX
  8
0
 62
7
  6
CONTINUOUS
 10
330.4166894727
 20
149.4815048127
  0
VERTEX
  8
0
 62
7
  6
CONTINUOUS
 10
331.6974856395
 20
149.5187185651
  0
VERTEX
  8
0
 62
7
  6
CONTINUOUS
 10
332.9308951792
 20
149.5557056063
  0
VERTEX
  8
0
 62
7
  6
CONTINUOUS
 10
334.1182191625
 20
149.5924534653
  0
VERTEX
  8
0
 62
7
  6
CONTINUOUS
 10
335.2604722217
 20
149.6289420558
  0
VERTEX
  8
0
 62
7
  6
CONTINUOUS
 10
336.3592064089
 20
149.6651696
  0
VERTEX
  8
0
 62
7
  6
CONTINUOUS
 10
337.4157897941
 20
149.701131097
  0
VERTEX
  8
0
 62
7
  6
CONTINUOUS
 10
338.4315832565
 20
149.7368234145
  0
VERTEX
  8
0
 62
7
  6
CONTINUOUS
 10
339.4079070996
 20
149.7722441021
  0
VERTEX
  8
0
 62
7
  6
CONTINUOUS
 10
340.3460491007
 20
149.8073920879
  0
VERTEX
  8
0
 62
7
  6
CONTINUOUS
 10
341.2472317517
 20
149.8422658399
  0
VERTEX
  8
0
 62
7
  6
CONTINUOUS
 10
342.1127697656
 20
149.8768695719
  0
VERTEX
  8
0
 62
7
  6
CONTINUOUS
 10
342.9438624214
 20
149.9112058476
  0
VERTEX
  8
0
 62
7
  6
CONTINUOUS
 10
343.7418114943
 20
149.9452844665
  0
VERTEX
  8
0
 62
7
  6
CONTINUOUS
 10
344.5078291216
 20
149.9791143376
  0
VERTEX
  8
0
 62
7
  6
CONTINUOUS
 10
345.2430945915
 20
150.0127059231
  0
VERTEX
  8
0
 62
7
  6
CONTINUOUS
 10
345.9487292473
 20
150.0460704011
  0
VERTEX
  8
0
 62
7
  6
CONTINUOUS
 10
346.6258168373
 20
150.0792201404
  0
VERTEX
  8
0
 62
7
  6
CONTINUOUS
 10
347.2753864694
 20
150.112168172
  0
VERTEX
  8
0
 62
7
  6
CONTINUOUS
 10
347.8984274863
 20
150.1449290842
  0
VERTEX
  8
0
 62
7
  6
CONTINUOUS
 10
348.495874276
 20
150.1775179937
  0
VERTEX
  8
0
 62
7
  6
CONTINUOUS
 10
349.0686332534
 20
150.2099516767
  0
VERTEX
  8
0
 62
7
  6
CONTINUOUS
 10
349.6175562129
 20
150.2422476228
  0
VERTEX
  8
0
 62
7
  6
CONTINUOUS
 10
350.1434530722
 20
150.2744248145
  0
VERTEX
  8
0
 62
7
  6
CONTINUOUS
 10
350.6471850542
 20
150.3065094535
  0
VERTEX
  8
0
 62
7
  6
CONTINUOUS
 10
351.1291857931
 20
150.3385036812
  0
VERTEX
  8
0
 62
7
  6
CONTINUOUS
 10
351.5900842438
 20
150.3704247054
  0
VERTEX
  8
0
 62
7
  6
CONTINUOUS
 10
352.0300690669
 20
150.4022610797
  0
VERTEX
  8
0
 62
7
  6
CONTINUOUS
 10
352.4494605192
 20
150.4340100018
  0
VERTEX
  8
0
 62
7
  6
CONTINUOUS
 10
352.8486263953
 20
150.4656720893
  0
VERTEX
  8
0
 62
7
  6
CONTINUOUS
 10
353.2279371571
 20
150.4972480847
  0
VERTEX
  8
0
 62
7
  6
CONTINUOUS
 10
353.5878640651
 20
150.5287480863
  0
VERTEX
  8
0
 62
7
  6
CONTINUOUS
 10
353.9288530638
 20
150.560181886
  0
VERTEX
  8
0
 62
7
  6
CONTINUOUS
 10
354.2514813667
 20
150.5915737637
  0
VERTEX
  8
0
 62
7
  6
CONTINUOUS
 10
354.5562776669
 20
150.6229468984
  0
VERTEX
  8
0
 62
7
  6
CONTINUOUS
 10
354.8439718917
 20
150.6543509494
  0
VERTEX
  8
0
 62
7
  6
CONTINUOUS
 10
355.1151953374
 20
150.6858337272
  0
VERTEX
  8
0
 62
7
  6
CONTINUOUS
 10
355.3708782483
 20
150.7174897724
  0
VERTEX
  8
0
 62
7
  6
CONTINUOUS
 10
355.6117751292
 20
150.7494097742
  0
VERTEX
  8
0
 62
7
  6
CONTINUOUS
 10
355.8391393643
 20
150.7817745143
  0
VERTEX
  8
0
 62
7
  6
CONTINUOUS
 10
356.0539164902
 20
150.8147585029
  0
VERTEX
  8
0
 62
7
  6
CONTINUOUS
 10
356.2578539189
 20
150.8487124417
  0
VERTEX
  8
0
 62
7
  6
CONTINUOUS
 10
356.4521216829
 20
150.8839723014
  0
VERTEX
  8
0
 62
7
  6
CONTINUOUS
 10
356.6394534038
 20
150.9212792153
  0
VERTEX
  8
0
 62
7
  6
CONTINUOUS
 10
356.8212437966
 20
150.9612985726
  0
VERTEX
  8
0
 62
7
  6
CONTINUOUS
 10
357.0026051061
 20
151.0058301653
  0
VERTEX
  8
0
 62
7
  6
CONTINUOUS
 10
357.1858928298
 20
151.0565684187
  0
VERTEX
  8
0
 62
7
  6
CONTINUOUS
 10
357.3797278072
 20
151.117882813
  0
VERTEX
  8
0
 62
7
  6
CONTINUOUS
 10
357.5877671221
 20
151.1943077167
  0
VERTEX
  8
0
 62
7
  6
CONTINUOUS
 10
357.8236097704
 20
151.2970010876
  0
VERTEX
  8
0
 62
7
  6
CONTINUOUS
 10
358.0931545524
 20
151.4397059798
  0
VERTEX
  8
0
 62
7
  6
CONTINUOUS
 10
358.405696742
 20
151.6473167164
  0
VERTEX
  8
0
 62
7
  6
CONTINUOUS
 10
358.7635953515
 20
151.9593667953
  0
VERTEX
  8
0
 62
7
  6
CONTINUOUS
 10
358.8117290109
 20
152.0092013402
  0
SEQEND
  0
LINE
  8
0
 62
7
  6
CONTINUOUS
 10
266.5424192198
 20
148.1903777398
 11
256.4625007565
 21
148.1903777398
  0
LINE
  8
0
 62
7
  6
CONTINUOUS
 10
238.8870405385
 20
148.1903777398
 11
129.6640373455
 21
148.1903777398
  0
LINE
  8
0
 62
7
  6
CONTINUOUS
 10
110.7035107364
 20
148.1903777398
 11
102.0009767582
 21
148.1903777398
  0
POLYLINE
  8
0
 62
7
  6
CONTINUOUS
 66
1
 70
0
  0
VERTEX
  8
0
 62
7
  6
CONTINUOUS
 10
0.3091145791
 20
162.1619917845
  0
VERTEX
  8
0
 62
7
  6
CONTINUOUS
 10
-0.1238001217
 20
162.1135309598
  0
VERTEX
  8
0
 62
7
  6
CONTINUOUS
 10
-0.5534724372
 20
162.0415657555
  0
VERTEX
  8
0
 62
7
  6
CONTINUOUS
 10
-0.9786159127
 20
161.9463016151
  0
VERTEX
  8
0
 62
7
  6
CONTINUOUS
 10
-1.3979661535
 20
161.8280365523
  0
VERTEX
  8
0
 62
7
  6
CONTINUOUS
 10
-1.8102710932
 20
161.687121076
  0
VERTEX
  8
0
 62
7
  6
CONTINUOUS
 10
-2.2142945556
 20
161.5239539152
  0
VERTEX
  8
0
 62
7
  6
CONTINUOUS
 10
-2.6088345148
 20
161.3390388986
  0
VERTEX
  8
0
 62
7
  6
CONTINUOUS
 10
-2.9927019066
 20
161.1329038894
  0
VERTEX
  8
0
 62
7
  6
CONTINUOUS
 10
-3.364764791
 20
160.9061869911
  0
VERTEX
  8
0
 62
7
  6
CONTINUOUS
 10
-3.723939353
 20
160.6595880526
  0
VERTEX
  8
0
 62
7
  6
CONTINUOUS
 10
-4.0691413857
 20
160.3938123931
  0
VERTEX
  8
0
 62
7
  6
CONTINUOUS
 10
-4.3993410044
 20
160.1096347571
  0
VERTEX
  8
0
 62
7
  6
CONTINUOUS
 10
-4.713567962
 20
159.8079065151
  0
VERTEX
  8
0
 62
7
  6
CONTINUOUS
 10
-5.0108947149
 20
159.489538915
  0
VERTEX
  8
0
 62
7
  6
CONTINUOUS
 10
-5.2904492267
 20
159.1554880802
  0
VERTEX
  8
0
 62
7
  6
CONTINUOUS
 10
-5.5513757423
 20
158.8067393135
  0
VERTEX
  8
0
 62
7
  6
CONTINUOUS
 10
-5.792911152
 20
158.4443535302
  0
VERTEX
  8
0
 62
7
  6
CONTINUOUS
 10
-6.0143284017
 20
158.0694045372
  0
VERTEX
  8
0
 62
7
  6
CONTINUOUS
 10
-6.2149758952
 20
157.6830251495
  0
VERTEX
  8
0
 62
7
  6
CONTINUOUS
 10
-6.3943196726
 20
157.2863531619
  0
VERTEX
  8
0
 62
7
  6
CONTINUOUS
 10
-6.5518196781
 20
156.8805411207
  0
VERTEX
  8
0
 62
7
  6
CONTINUOUS
 10
-6.6869943839
 20
156.4667492871
  0
VERTEX
  8
0
 62
7
  6
CONTINUOUS
 10
-6.7994711403
 20
156.0461851095
  0
VERTEX
  8
0
 62
7
  6
CONTINUOUS
 10
-6.888896876
 20
155.6200627026
  0
VERTEX
  8
0
 62
7
  6
CONTINUOUS
 10
-6.9550248358
 20
155.1896189112
  0
VERTEX
  8
0
 62
7
  6
CONTINUOUS
 10
-6.9976657447
 20
154.7561052146
  0
VERTEX
  8
0
 62
7
  6
CONTINUOUS
 10
-7.0166305643
 20
154.3207612552
  0
VERTEX
  8
0
 62
7
  6
CONTINUOUS
 10
-7.0167074036
 20
154.065620947
  0
SEQEND
  0
POLYLINE
  8
0
 62
7
  6
CONTINUOUS
 66
1
 70
0
  0
VERTEX
  8
0
 62
7
  6
CONTINUOUS
 10
0.9824086297
 20
162.1903680029
  0
VERTEX
  8
0
 62
7
  6
CONTINUOUS
 10
0.7439756069
 20
162.1868102971
  0
VERTEX
  8
0
 62
7
  6
CONTINUOUS
 10
0.3091145791
 20
162.1619917845
  0
SEQEND
  0
LINE
  8
0
 62
7
  6
CONTINUOUS
 10
368.3357167603
 20
162.1903777398
 11
363.8931007232
 21
162.1903777398
  0
LINE
  8
0
 62
7
  6
CONTINUOUS
 10
4.6577217991
 20
162.1903777398
 11
0.2133550351
 21
162.190378062
  0
POLYLINE
  8
0
 62
7
  6
CONTINUOUS
 66
1
 70
0
  0
VERTEX
  8
0
 62
7
  6
CONTINUOUS
 10
368.2418844002
 20
162.1619736768
  0
VERTEX
  8
0
 62
7
  6
CONTINUOUS
 10
367.8070437079
 20
162.1868034594
  0
VERTEX
  8
0
 62
7
  6
CONTINUOUS
 10
367.5683768502
 20
162.1903681774
  0
SEQEND
  0
LINE
  8
0
 62
7
  6
CONTINUOUS
 10
368.6747798335
 20
162.1135036188
 11
368.2418844002
 21
162.1619736768
  0
POLYLINE
  8
0
 62
7
  6
CONTINUOUS
 66
1
 70
0
  0
VERTEX
  8
0
 62
7
  6
CONTINUOUS
 10
7.5341529389
 20
190.4675184032
  0
VERTEX
  8
0
 62
7
  6
CONTINUOUS
 10
7.4492814464
 20
190.4663189107
  0
VERTEX
  8
0
 62
7
  6
CONTINUOUS
 10
6.9737856281
 20
190.4147727751
  0
VERTEX
  8
0
 62
7
  6
CONTINUOUS
 10
6.529271799
 20
190.2944037747
  0
VERTEX
  8
0
 62
7
  6
CONTINUOUS
 10
6.1249571005
 20
190.1163675659
  0
VERTEX
  8
0
 62
7
  6
CONTINUOUS
 10
5.7663318812
 20
189.8921103472
  0
VERTEX
  8
0
 62
7
  6
CONTINUOUS
 10
5.4572088752
 20
189.6336729355
  0
VERTEX
  8
0
 62
7
  6
CONTINUOUS
 10
5.196302587
 20
189.3498258666
  0
VERTEX
  8
0
 62
7
  6
CONTINUOUS
 10
4.9802576018
 20
189.0454525213
  0
VERTEX
  8
0
 62
7
  6
CONTINUOUS
 10
4.8119071193
 20
188.7350647199
  0
VERTEX
  8
0
 62
7
  6
CONTINUOUS
 10
4.685673451
 20
188.4220650507
  0
VERTEX
  8
0
 62
7
  6
CONTINUOUS
 10
4.6039038291
 20
188.1388487348
  0
VERTEX
  8
0
 62
7
  6
CONTINUOUS
 10
4.5599229444
 20
187.9234999525
  0
VERTEX
  8
0
 62
7
  6
CONTINUOUS
 10
4.5341213185
 20
187.7485451337
  0
VERTEX
  8
0
 62
7
  6
CONTINUOUS
 10
4.5179979985
 20
187.602485482
  0
VERTEX
  8
0
 62
7
  6
CONTINUOUS
 10
4.5062092175
 20
187.4667388292
  0
VERTEX
  8
0
 62
7
  6
CONTINUOUS
 10
4.4958734007
 20
187.3204844834
  0
VERTEX
  8
0
 62
7
  6
CONTINUOUS
 10
4.4866554313
 20
187.1640613256
  0
VERTEX
  8
0
 62
7
  6
CONTINUOUS
 10
4.4781824554
 20
186.9955426409
  0
VERTEX
  8
0
 62
7
  6
CONTINUOUS
 10
4.470149175
 20
186.8115291661
  0
VERTEX
  8
0
 62
7
  6
CONTINUOUS
 10
4.4623312167
 20
186.6076753426
  0
VERTEX
  8
0
 62
7
  6
CONTINUOUS
 10
4.4547122247
 20
186.3833063149
  0
VERTEX
  8
0
 62
7
  6
CONTINUOUS
 10
4.4472425132
 20
186.1365728303
  0
VERTEX
  8
0
 62
7
  6
CONTINUOUS
 10
4.4399259514
 20
185.8665694212
  0
VERTEX
  8
0
 62
7
  6
CONTINUOUS
 10
4.4327596588
 20
185.572119061
  0
VERTEX
  8
0
 62
7
  6
CONTINUOUS
 10
4.4257593965
 20
185.2524060038
  0
VERTEX
  8
0
 62
7
  6
CONTINUOUS
 10
4.4189419709
 20
184.9064518934
  0
VERTEX
  8
0
 62
7
  6
CONTINUOUS
 10
4.4123368791
 20
184.5339166918
  0
VERTEX
  8
0
 62
7
  6
CONTINUOUS
 10
4.4059700534
 20
184.1343036281
  0
VERTEX
  8
0
 62
7
  6
CONTINUOUS
 10
4.3998864834
 20
183.7079176823
  0
VERTEX
  8
0
 62
7
  6
CONTINUOUS
 10
4.3941239507
 20
183.2551171675
  0
VERTEX
  8
0
 62
7
  6
CONTINUOUS
 10
4.3887216377
 20
182.7765395016
  0
VERTEX
  8
0
 62
7
  6
CONTINUOUS
 10
4.3837238366
 20
182.2730454508
  0
SEQEND
  0
LINE
  8
0
 62
7
  6
CONTINUOUS
 10
7.5341499984
 20
190.4675182854
 11
361.0166340855
 21
190.4675182854
  0
LINE
  8
0
 62
7
  6
CONTINUOUS
 10
259.275392042
 20
187.3684253949
 11
259.275392042
 21
187.3648156542
  0
POLYLINE
  8
0
 62
7
  6
CONTINUOUS
 66
1
 70
0
  0
VERTEX
  8
0
 62
7
  6
CONTINUOUS
 10
185.0156857562
 20
609.9325917898
  0
VERTEX
  8
0
 62
7
  6
CONTINUOUS
 10
185.0193999036
 20
609.9133241774
  0
VERTEX
  8
0
 62
7
  6
CONTINUOUS
 10
185.0309748173
 20
609.8931809464
  0
VERTEX
  8
0
 62
7
  6
CONTINUOUS
 10
185.0490136448
 20
609.8742854214
  0
SEQEND
  0
POLYLINE
  8
0
 62
7
  6
CONTINUOUS
 66
1
 70
0
  0
VERTEX
  8
0
 62
7
  6
CONTINUOUS
 10
362.7689405332
 20
156.1724916188
  0
VERTEX
  8
0
 62
7
  6
CONTINUOUS
 10
363.0414299244
 20
156.5020085757
  0
VERTEX
  8
0
 62
7
  6
CONTINUOUS
 10
363.2597684872
 20
156.8554827322
  0
VERTEX
  8
0
 62
7
  6
CONTINUOUS
 10
363.3969724512
 20
157.1511538816
  0
SEQEND
  0
LINE
  8
0
 62
7
  6
CONTINUOUS
 10
358.8052543229
 20
152.002367997
 11
362.7714657262
 21
156.175145572
  0
LINE
  8
0
 62
7
  6
CONTINUOUS
 10
362.7714657262
 20
156.175145572
 11
362.7689402868
 21
156.1724918526
  0
POLYLINE
  8
0
 62
7
  6
CONTINUOUS
 66
1
 70
0
  0
VERTEX
  8
0
 62
7
  6
CONTINUOUS
 10
363.3969724512
 20
157.1511538816
  0
VERTEX
  8
0
 62
7
  6
CONTINUOUS
 10
363.4840316888
 20
157.394032329
  0
VERTEX
  8
0
 62
7
  6
CONTINUOUS
 10
363.5377117861
 20
157.5819091202
  0
VERTEX
  8
0
 62
7
  6
CONTINUOUS
 10
363.5734751085
 20
157.7333435761
  0
VERTEX
  8
0
 62
7
  6
CONTINUOUS
 10
363.6006782601
 20
157.869171767
  0
VERTEX
  8
0
 62
7
  6
CONTINUOUS
 10
363.6220147013
 20
157.9924539175
  0
VERTEX
  8
0
 62
7
  6
CONTINUOUS
 10
363.6403761599
 20
158.1133163653
  0
VERTEX
  8
0
 62
7
  6
CONTINUOUS
 10
363.6565551965
 20
158.2332269343
  0
VERTEX
  8
0
 62
7
  6
CONTINUOUS
 10
363.6715056902
 20
158.3567376183
  0
VERTEX
  8
0
 62
7
  6
CONTINUOUS
 10
363.6855435324
 20
158.4849568585
  0
VERTEX
  8
0
 62
7
  6
CONTINUOUS
 10
363.6990310049
 20
158.6201931804
  0
VERTEX
  8
0
 62
7
  6
CONTINUOUS
 10
363.7121048691
 20
158.7632286752
  0
VERTEX
  8
0
 62
7
  6
CONTINUOUS
 10
363.7249159505
 20
158.9153482748
  0
VERTEX
  8
0
 62
7
  6
CONTINUOUS
 10
363.7375213659
 20
159.0770388374
  0
VERTEX
  8
0
 62
7
  6
CONTINUOUS
 10
363.7499774572
 20
159.2489085266
  0
VERTEX
  8
0
 62
7
  6
CONTINUOUS
 10
363.7623229373
 20
159.4314567354
  0
SEQEND
  0
LINE
  8
0
 62
7
  6
CONTINUOUS
 10
359.1908685581
 20
168.3483965724
 11
359.1852318759
 21
168.3392070091
  0
POLYLINE
  8
0
 62
7
  6
CONTINUOUS
 66
1
 70
0
  0
VERTEX
  8
0
 62
7
  6
CONTINUOUS
 10
364.1645936159
 20
182.5299860135
  0
VERTEX
  8
0
 62
7
  6
CONTINUOUS
 10
364.1607356101
 20
182.8996757723
  0
VERTEX
  8
0
 62
7
  6
CONTINUOUS
 10
364.1566386058
 20
183.2569440479
  0
VERTEX
  8
0
 62
7
  6
CONTINUOUS
 10
364.1523148972
 20
183.6013780776
  0
VERTEX
  8
0
 62
7
  6
CONTINUOUS
 10
364.1477768115
 20
183.932606939
  0
VERTEX
  8
0
 62
7
  6
CONTINUOUS
 10
364.1430363653
 20
184.2503252643
  0
VERTEX
  8
0
 62
7
  6
CONTINUOUS
 10
364.138105555
 20
184.5542626774
  0
VERTEX
  8
0
 62
7
  6
CONTINUOUS
 10
364.1329957874
 20
184.8442298929
  0
VERTEX
  8
0
 62
7
  6
CONTINUOUS
 10
364.1277182258
 20
185.1200609802
  0
VERTEX
  8
0
 62
7
  6
CONTINUOUS
 10
364.1222826655
 20
185.3816747483
  0
VERTEX
  8
0
 62
7
  6
CONTINUOUS
 10
364.1166987143
 20
185.6290097171
  0
VERTEX
  8
0
 62
7
  6
CONTINUOUS
 10
364.1109733002
 20
185.8621231587
  0
VERTEX
  8
0
 62
7
  6
CONTINUOUS
 10
364.1051129931
 20
186.0810626708
  0
VERTEX
  8
0
 62
7
  6
CONTINUOUS
 10
364.0991187495
 20
186.2860423813
  0
VERTEX
  8
0
 62
7
  6
CONTINUOUS
 10
364.0929914873
 20
186.4772329847
  0
VERTEX
  8
0
 62
7
  6
CONTINUOUS
 10
364.0867191505
 20
186.655098937
  0
VERTEX
  8
0
 62
7
  6
CONTINUOUS
 10
364.0802911262
 20
186.8199229536
  0
VERTEX
  8
0
 62
7
  6
CONTINUOUS
 10
364.0736608078
 20
186.9726849685
  0
VERTEX
  8
0
 62
7
  6
CONTINUOUS
 10
364.0667704634
 20
187.1141890374
  0
VERTEX
  8
0
 62
7
  6
CONTINUOUS
 10
364.0595257754
 20
187.2454799204
  0
VERTEX
  8
0
 62
7
  6
CONTINUOUS
 10
364.0518099241
 20
187.367389814
  0
VERTEX
  8
0
 62
7
  6
CONTINUOUS
 10
364.0432851883
 20
187.4830737324
  0
VERTEX
  8
0
 62
7
  6
CONTINUOUS
 10
364.0336537762
 20
187.5934613659
  0
VERTEX
  8
0
 62
7
  6
CONTINUOUS
 10
364.0214140462
 20
187.709330886
  0
VERTEX
  8
0
 62
7
  6
CONTINUOUS
 10
364.004613702
 20
187.837040916
  0
VERTEX
  8
0
 62
7
  6
CONTINUOUS
 10
363.9782700975
 20
187.9929086957
  0
VERTEX
  8
0
 62
7
  6
CONTINUOUS
 10
363.9318821657
 20
188.1990446733
  0
VERTEX
  8
0
 62
7
  6
CONTINUOUS
 10
363.8580064165
 20
188.4426871212
  0
VERTEX
  8
0
 62
7
  6
CONTINUOUS
 10
363.7458955943
 20
188.7199986638
  0
VERTEX
  8
0
 62
7
  6
CONTINUOUS
 10
363.5903654481
 20
189.0130284432
  0
VERTEX
  8
0
 62
7
  6
CONTINUOUS
 10
363.3914954127
 20
189.3030414123
  0
VERTEX
  8
0
 62
7
  6
CONTINUOUS
 10
363.1473614253
 20
189.5808985181
  0
VERTEX
  8
0
 62
7
  6
CONTINUOUS
 10
362.8612977667
 20
189.8342638496
  0
VERTEX
  8
0
 62
7
  6
CONTINUOUS
 10
362.535879515
 20
190.0548997695
  0
VERTEX
  8
0
 62
7
  6
CONTINUOUS
 10
362.177102673
 20
190.2342418028
  0
VERTEX
  8
0
 62
7
  6
CONTINUOUS
 10
361.7905832721
 20
190.366072624
  0
VERTEX
  8
0
 62
7
  6
CONTINUOUS
 10
361.3836695764
 20
190.4450038182
  0
VERTEX
  8
0
 62
7
  6
CONTINUOUS
 10
361.0166352937
 20
190.4675184049
  0
SEQEND
  0
POLYLINE
  8
0
 62
7
  6
CONTINUOUS
 66
1
 70
0
  0
VERTEX
  8
0
 62
7
  6
CONTINUOUS
 10
364.1715439082
 20
181.7553072307
  0
VERTEX
  8
0
 62
7
  6
CONTINUOUS
 10
364.1682004927
 20
182.1483399969
  0
VERTEX
  8
0
 62
7
  6
CONTINUOUS
 10
364.1645936159
 20
182.5299860135
  0
SEQEND
  0
POLYLINE
  8
0
 62
7
  6
CONTINUOUS
 66
1
 70
0
  0
VERTEX
  8
0
 62
7
  6
CONTINUOUS
 10
364.1820675935
 20
180.07828474
  0
VERTEX
  8
0
 62
7
  6
CONTINUOUS
 10
364.1798860625
 20
180.5122303107
  0
VERTEX
  8
0
 62
7
  6
CONTINUOUS
 10
364.1773976546
 20
180.9367462993
  0
VERTEX
  8
0
 62
7
  6
CONTINUOUS
 10
364.1746132835
 20
181.3512790377
  0
VERTEX
  8
0
 62
7
  6
CONTINUOUS
 10
364.1715439082
 20
181.7553072307
  0
SEQEND
  0
LINE
  8
0
 62
7
  6
CONTINUOUS
 10
364.1839311578
 20
179.6355496028
 11
364.1820675935
 21
180.07828474
  0
POLYLINE
  8
0
 62
7
  6
CONTINUOUS
 66
1
 70
0
  0
VERTEX
  8
0
 62
7
  6
CONTINUOUS
 10
364.1866614538
 20
178.7264592985
  0
VERTEX
  8
0
 62
7
  6
CONTINUOUS
 10
364.1854659828
 20
179.1847002139
  0
VERTEX
  8
0
 62
7
  6
CONTINUOUS
 10
364.1839311578
 20
179.6355496028
  0
SEQEND
  0
POLYLINE
  8
0
 62
7
  6
CONTINUOUS
 66
1
 70
0
  0
VERTEX
  8
0
 62
7
  6
CONTINUOUS
 10
375.5674918411
 20
154.0656220155
  0
VERTEX
  8
0
 62
7
  6
CONTINUOUS
 10
375.5674112791
 20
154.3209778688
  0
VERTEX
  8
0
 62
7
  6
CONTINUOUS
 10
375.5484357895
 20
154.7563018797
  0
VERTEX
  8
0
 62
7
  6
CONTINUOUS
 10
375.5057864426
 20
155.1897966683
  0
VERTEX
  8
0
 62
7
  6
CONTINUOUS
 10
375.4396519658
 20
155.6202222645
  0
VERTEX
  8
0
 62
7
  6
CONTINUOUS
 10
375.3502214552
 20
156.0463266514
  0
VERTEX
  8
0
 62
7
  6
CONTINUOUS
 10
375.2377414792
 20
156.4668736687
  0
VERTEX
  8
0
 62
7
  6
CONTINUOUS
 10
375.1025652542
 20
156.8806488918
  0
VERTEX
  8
0
 62
7
  6
CONTINUOUS
 10
374.9450656486
 20
157.2864441148
  0
VERTEX
  8
0
 62
7
  6
CONTINUOUS
 10
374.7657240327
 20
157.6830994379
  0
VERTEX
  8
0
 62
7
  6
CONTINUOUS
 10
374.5650803078
 20
158.0694626616
  0
VERTEX
  8
0
 62
7
  6
CONTINUOUS
 10
374.343668229
 20
158.4443964651
  0
VERTEX
  8
0
 62
7
  6
CONTINUOUS
 10
374.1021394969
 20
158.8067679801
  0
VERTEX
  8
0
 62
7
  6
CONTINUOUS
 10
373.8412213946
 20
159.1555031387
  0
VERTEX
  8
0
 62
7
  6
CONTINUOUS
 10
373.5616770899
 20
159.4895409729
  0
VERTEX
  8
0
 62
7
  6
CONTINUOUS
 10
373.2643617858
 20
159.8078967095
  0
VERTEX
  8
0
 62
7
  6
CONTINUOUS
 10
372.9501467658
 20
160.1096149896
  0
VERTEX
  8
0
 62
7
  6
CONTINUOUS
 10
372.6199599917
 20
160.3937842374
  0
VERTEX
  8
0
 62
7
  6
CONTINUOUS
 10
372.2747719301
 20
160.6595528131
  0
VERTEX
  8
0
 62
7
  6
CONTINUOUS
 10
371.9156122072
 20
160.9061460352
  0
VERTEX
  8
0
 62
7
  6
CONTINUOUS
 10
371.5435648393
 20
161.1328587424
  0
VERTEX
  8
0
 62
7
  6
CONTINUOUS
 10
371.1597129947
 20
161.3389914865
  0
VERTEX
  8
0
 62
7
  6
CONTINUOUS
 10
370.7651889929
 20
161.5239058492
  0
VERTEX
  8
0
 62
7
  6
CONTINUOUS
 10
370.3611817713
 20
161.6870739261
  0
VERTEX
  8
0
 62
7
  6
CONTINUOUS
 10
369.9488930697
 20
161.8279920151
  0
VERTEX
  8
0
 62
7
  6
CONTINUOUS
 10
369.5295596528
 20
161.946261228
  0
VERTEX
  8
0
 62
7
  6
CONTINUOUS
 10
369.1044338035
 20
162.0415310708
  0
VERTEX
  8
0
 62
7
  6
CONTINUOUS
 10
368.6747798335
 20
162.1135036188
  0
SEQEND
  0
POLYLINE
  8
0
 62
7
  6
CONTINUOUS
 66
1
 70
0
  0
VERTEX
  8
0
 62
7
  6
CONTINUOUS
 10
364.187199457
 20
176.3530146524
  0
VERTEX
  8
0
 62
7
  6
CONTINUOUS
 10
364.1878482819
 20
176.8356972107
  0
VERTEX
  8
0
 62
7
  6
CONTINUOUS
 10
364.188110086
 20
177.3153233158
  0
VERTEX
  8
0
 62
7
  6
CONTINUOUS
 10
364.1879933288
 20
177.7909283613
  0
VERTEX
  8
0
 62
7
  6
CONTINUOUS
 10
364.187507224
 20
178.2615957497
  0
VERTEX
  8
0
 62
7
  6
CONTINUOUS
 10
364.1866614538
 20
178.7264592985
  0
SEQEND
  0
LINE
  8
0
 62
7
  6
CONTINUOUS
 10
364.1861552138
 20
175.8682913525
 11
364.187199457
 21
176.3530146524
  0
LINE
  8
0
 62
7
  6
CONTINUOUS
 10
363.7436638188
 20
181.3591307337
 11
363.7436632444
 21
181.359072646
  0
POLYLINE
  8
0
 62
7
  6
CONTINUOUS
 66
1
 70
0
  0
VERTEX
  8
0
 62
7
  6
CONTINUOUS
 10
376.3345301883
 20
170.051959849
  0
VERTEX
  8
0
 62
7
  6
CONTINUOUS
 10
379.1925557912
 20
335.2124120179
  0
VERTEX
  8
0
 62
7
  6
CONTINUOUS
 10
379.5627983862
 20
356.6084784696
  0
VERTEX
  8
0
 62
7
  6
CONTINUOUS
 10
379.9008478408
 20
376.1048951046
  0
VERTEX
  8
0
 62
7
  6
CONTINUOUS
 10
380.2108022406
 20
393.899636083
  0
VERTEX
  8
0
 62
7
  6
CONTINUOUS
 10
380.3984689368
 20
404.6362193028
  0
VERTEX
  8
0
 62
7
  6
CONTINUOUS
 10
380.5558755812
 20
413.6199741438
  0
VERTEX
  8
0
 62
7
  6
CONTINUOUS
 10
380.5043356835
 20
410.6806239536
  0
VERTEX
  8
0
 62
7
  6
CONTINUOUS
 10
380.960469698
 20
436.6219977188
  0
VERTEX
  8
0
 62
7
  6
CONTINUOUS
 10
381.9969839495
 20
494.9739829071
  0
VERTEX
  8
0
 62
7
  6
CONTINUOUS
 10
382.2031507548
 20
506.491996973
  0
SEQEND
  0
POLYLINE
  8
0
 62
7
  6
CONTINUOUS
 66
1
 70
0
  0
VERTEX
  8
0
 62
7
  6
CONTINUOUS
 10
375.4699416331
 20
148.1903063655
  0
VERTEX
  8
0
 62
7
  6
CONTINUOUS
 10
375.4841202333
 20
148.9966941495
  0
VERTEX
  8
0
 62
7
  6
CONTINUOUS
 10
375.5009952777
 20
149.9773691311
  0
VERTEX
  8
0
 62
7
  6
CONTINUOUS
 10
375.5180863604
 20
150.9939199911
  0
VERTEX
  8
0
 62
7
  6
CONTINUOUS
 10
375.5352891931
 20
152.0408661702
  0
VERTEX
  8
0
 62
7
  6
CONTINUOUS
 10
375.552627053
 20
153.1200620752
  0
VERTEX
  8
0
 62
7
  6
CONTINUOUS
 10
375.5675108906
 20
154.0656049451
  0
SEQEND
  0
LINE
  8
0
 62
7
  6
CONTINUOUS
 10
382.2031507548
 20
506.491996973
 11
383.0374819514
 21
553.1008934655
  0
POLYLINE
  8
0
 62
7
  6
CONTINUOUS
 66
1
 70
0
  0
VERTEX
  8
0
 62
7
  6
CONTINUOUS
 10
364.1198329126
 20
169.1789661162
  0
VERTEX
  8
0
 62
7
  6
CONTINUOUS
 10
364.1272454994
 20
169.542904563
  0
VERTEX
  8
0
 62
7
  6
CONTINUOUS
 10
364.1342408301
 20
169.9249281356
  0
VERTEX
  8
0
 62
7
  6
CONTINUOUS
 10
364.1408140789
 20
170.3235227129
  0
VERTEX
  8
0
 62
7
  6
CONTINUOUS
 10
364.1469617627
 20
170.7372363674
  0
VERTEX
  8
0
 62
7
  6
CONTINUOUS
 10
364.1526798681
 20
171.1645431239
  0
VERTEX
  8
0
 62
7
  6
CONTINUOUS
 10
364.1579657951
 20
171.603948925
  0
VERTEX
  8
0
 62
7
  6
CONTINUOUS
 10
364.1628174618
 20
172.0539548606
  0
VERTEX
  8
0
 62
7
  6
CONTINUOUS
 10
364.1672342052
 20
172.5130845555
  0
VERTEX
  8
0
 62
7
  6
CONTINUOUS
 10
364.1712164531
 20
172.9798987155
  0
VERTEX
  8
0
 62
7
  6
CONTINUOUS
 10
364.1747655315
 20
173.452955962
  0
VERTEX
  8
0
 62
7
  6
CONTINUOUS
 10
364.1778849838
 20
173.9309886665
  0
VERTEX
  8
0
 62
7
  6
CONTINUOUS
 10
364.1805787429
 20
174.4127632666
  0
VERTEX
  8
0
 62
7
  6
CONTINUOUS
 10
364.1828512766
 20
174.8970256015
  0
VERTEX
  8
0
 62
7
  6
CONTINUOUS
 10
364.1847081121
 20
175.38259053
  0
VERTEX
  8
0
 62
7
  6
CONTINUOUS
 10
364.1861552138
 20
175.8682913525
  0
SEQEND
  0
POLYLINE
  8
0
 62
7
  6
CONTINUOUS
 66
1
 70
0
  0
VERTEX
  8
0
 62
7
  6
CONTINUOUS
 10
364.1037598182
 20
168.5107041941
  0
VERTEX
  8
0
 62
7
  6
CONTINUOUS
 10
364.1120035464
 20
168.8344150898
  0
VERTEX
  8
0
 62
7
  6
CONTINUOUS
 10
364.1198329126
 20
169.1789661162
  0
SEQEND
  0
POLYLINE
  8
0
 62
7
  6
CONTINUOUS
 66
1
 70
0
  0
VERTEX
  8
0
 62
7
  6
CONTINUOUS
 10
364.088986665
 20
168.0179050967
  0
VERTEX
  8
0
 62
7
  6
CONTINUOUS
 10
364.0950865061
 20
168.208722394
  0
VERTEX
  8
0
 62
7
  6
CONTINUOUS
 10
364.1037598182
 20
168.5107041941
  0
SEQEND
  0
LINE
  8
0
 62
7
  6
CONTINUOUS
 10
363.9166835926
 20
162.8648247503
 11
364.0889970928
 21
168.0182161818
  0
POLYLINE
  8
0
 62
7
  6
CONTINUOUS
 66
1
 70
0
  0
VERTEX
  8
0
 62
7
  6
CONTINUOUS
 10
363.8709971092
 20
161.6096183177
  0
VERTEX
  8
0
 62
7
  6
CONTINUOUS
 10
363.8827962604
 20
161.9130188188
  0
VERTEX
  8
0
 62
7
  6
CONTINUOUS
 10
363.8945149864
 20
162.2284445974
  0
VERTEX
  8
0
 62
7
  6
CONTINUOUS
 10
363.9061434181
 20
162.5556701058
  0
VERTEX
  8
0
 62
7
  6
CONTINUOUS
 10
363.9166840753
 20
162.8648398095
  0
SEQEND
  0
POLYLINE
  8
0
 62
7
  6
CONTINUOUS
 66
1
 70
0
  0
VERTEX
  8
0
 62
7
  6
CONTINUOUS
 10
373.4703400506
 20
84.2897949475
  0
VERTEX
  8
0
 62
7
  6
CONTINUOUS
 10
373.7134780209
 20
89.9592159713
  0
VERTEX
  8
0
 62
7
  6
CONTINUOUS
 10
374.4815084783
 20
110.1644825032
  0
VERTEX
  8
0
 62
7
  6
CONTINUOUS
 10
375.0554642036
 20
129.2589245978
  0
VERTEX
  8
0
 62
7
  6
CONTINUOUS
 10
375.4699440906
 20
148.1904443417
  0
SEQEND
  0
POLYLINE
  8
0
 62
7
  6
CONTINUOUS
 66
1
 70
0
  0
VERTEX
  8
0
 62
7
  6
CONTINUOUS
 10
363.7623229373
 20
159.4314567354
  0
VERTEX
  8
0
 62
7
  6
CONTINUOUS
 10
363.7745904638
 20
159.6252013582
  0
VERTEX
  8
0
 62
7
  6
CONTINUOUS
 10
363.7867973972
 20
159.8305005936
  0
VERTEX
  8
0
 62
7
  6
CONTINUOUS
 10
363.7989622644
 20
160.0477869127
  0
VERTEX
  8
0
 62
7
  6
CONTINUOUS
 10
363.8110847011
 20
160.2771979198
  0
VERTEX
  8
0
 62
7
  6
CONTINUOUS
 10
363.8231666767
 20
160.5189184995
  0
VERTEX
  8
0
 62
7
  6
CONTINUOUS
 10
363.8352040729
 20
160.7730097351
  0
VERTEX
  8
0
 62
7
  6
CONTINUOUS
 10
363.847192997
 20
161.0395185576
  0
VERTEX
  8
0
 62
7
  6
CONTINUOUS
 10
363.8591263382
 20
161.318406707
  0
VERTEX
  8
0
 62
7
  6
CONTINUOUS
 10
363.8709971092
 20
161.6096183177
  0
SEQEND
  0
LINE
  8
0
 62
7
  6
CONTINUOUS
 10
212.0296688223
 20
602.6609846694
 11
212.6931949497
 21
600.8379616169
  0
POLYLINE
  8
0
 62
7
  6
CONTINUOUS
 66
1
 70
0
  0
VERTEX
  8
0
 62
7
  6
CONTINUOUS
 10
385.2346240377
 20
586.4838665761
  0
VERTEX
  8
0
 62
7
  6
CONTINUOUS
 10
385.2139935553
 20
586.974610367
  0
VERTEX
  8
0
 62
7
  6
CONTINUOUS
 10
385.1511101861
 20
587.6106931076
  0
VERTEX
  8
0
 62
7
  6
CONTINUOUS
 10
385.0476933723
 20
588.2415883721
  0
VERTEX
  8
0
 62
7
  6
CONTINUOUS
 10
384.9041462706
 20
588.8646930576
  0
VERTEX
  8
0
 62
7
  6
CONTINUOUS
 10
384.7210398179
 20
589.4774407107
  0
VERTEX
  8
0
 62
7
  6
CONTINUOUS
 10
384.4991098088
 20
590.0773089248
  0
VERTEX
  8
0
 62
7
  6
CONTINUOUS
 10
384.2392552546
 20
590.6618253154
  0
VERTEX
  8
0
 62
7
  6
CONTINUOUS
 10
383.942531286
 20
591.2285855567
  0
VERTEX
  8
0
 62
7
  6
CONTINUOUS
 10
383.610148306
 20
591.7752547724
  0
VERTEX
  8
0
 62
7
  6
CONTINUOUS
 10
383.2434608168
 20
592.2995875659
  0
VERTEX
  8
0
 62
7
  6
CONTINUOUS
 10
382.8439659766
 20
592.7994285445
  0
VERTEX
  8
0
 62
7
  6
CONTINUOUS
 10
382.4132984377
 20
593.2727209735
  0
VERTEX
  8
0
 62
7
  6
CONTINUOUS
 10
381.9532219569
 20
593.7175178934
  0
VERTEX
  8
0
 62
7
  6
CONTINUOUS
 10
381.4656222428
 20
594.1319899341
  0
VERTEX
  8
0
 62
7
  6
CONTINUOUS
 10
380.9524992384
 20
594.5144328497
  0
VERTEX
  8
0
 62
7
  6
CONTINUOUS
 10
380.4159585418
 20
594.8632748465
  0
VERTEX
  8
0
 62
7
  6
CONTINUOUS
 10
379.858202801
 20
595.1770830063
  0
VERTEX
  8
0
 62
7
  6
CONTINUOUS
 10
379.2815223419
 20
595.4545693857
  0
VERTEX
  8
0
 62
7
  6
CONTINUOUS
 10
378.6882856533
 20
595.6945963407
  0
VERTEX
  8
0
 62
7
  6
CONTINUOUS
 10
378.0809295792
 20
595.896181239
  0
VERTEX
  8
0
 62
7
  6
CONTINUOUS
 10
377.4619489545
 20
596.0585006199
  0
VERTEX
  8
0
 62
7
  6
CONTINUOUS
 10
376.8338862514
 20
596.1808935719
  0
VERTEX
  8
0
 62
7
  6
CONTINUOUS
 10
376.1993241497
 20
596.2628641566
  0
VERTEX
  8
0
 62
7
  6
CONTINUOUS
 10
375.721929
 20
596.2975519622
  0
SEQEND
  0
LINE
  8
0
 62
7
  6
CONTINUOUS
 10
385.2346248101
 20
586.4838669148
 11
385.6396910116
 21
563.277639772
  0
POLYLINE
  8
0
 62
7
  6
CONTINUOUS
 66
1
 70
0
  0
VERTEX
  8
0
 62
7
  6
CONTINUOUS
 10
192.9379602016
 20
604.8162913344
  0
VERTEX
  8
0
 62
7
  6
CONTINUOUS
 10
192.355344859
 20
605.8033086249
  0
VERTEX
  8
0
 62
7
  6
CONTINUOUS
 10
191.7978264359
 20
606.7428347793
  0
VERTEX
  8
0
 62
7
  6
CONTINUOUS
 10
191.2654049322
 20
607.6348697976
  0
SEQEND
  0
LINE
  8
0
 62
7
  6
CONTINUOUS
 10
191.2654049322
 20
607.6348697976
 11
190.758080348
 21
608.4794136797
  0
POLYLINE
  8
0
 62
7
  6
CONTINUOUS
 66
1
 70
0
  0
VERTEX
  8
0
 62
7
  6
CONTINUOUS
 10
191.1787920259
 20
608.3019808224
  0
VERTEX
  8
0
 62
7
  6
CONTINUOUS
 10
191.4879494917
 20
607.7821381203
  0
VERTEX
  8
0
 62
7
  6
CONTINUOUS
 10
191.806928189
 20
607.2437136808
  0
VERTEX
  8
0
 62
7
  6
CONTINUOUS
 10
192.135750567
 20
606.6866904015
  0
VERTEX
  8
0
 62
7
  6
CONTINUOUS
 10
192.4743492775
 20
606.1111195894
  0
VERTEX
  8
0
 62
7
  6
CONTINUOUS
 10
192.8226569722
 20
605.5170525514
  0
VERTEX
  8
0
 62
7
  6
CONTINUOUS
 10
193.1806961006
 20
604.9044721852
  0
SEQEND
  0
LINE
  8
0
 62
7
  6
CONTINUOUS
 10
202.7840930518
 20
608.3019806592
 11
205.4174089078
 21
604.9044728062
  0
LINE
  8
0
 62
7
  6
CONTINUOUS
 10
380.6404525359
 20
558.1903777398
 11
-12.089668452
 21
558.1903777398
  0
POLYLINE
  8
0
 62
7
  6
CONTINUOUS
 66
1
 70
0
  0
VERTEX
  8
0
 62
7
  6
CONTINUOUS
 10
190.758080348
 20
608.4794136797
  0
VERTEX
  8
0
 62
7
  6
CONTINUOUS
 10
189.7874700824
 20
608.7745374848
  0
VERTEX
  8
0
 62
7
  6
CONTINUOUS
 10
188.8569671422
 20
609.0361702399
  0
VERTEX
  8
0
 62
7
  6
CONTINUOUS
 10
187.9662725658
 20
609.2628537451
  0
VERTEX
  8
0
 62
7
  6
CONTINUOUS
 10
187.1162832382
 20
609.4589626005
  0
VERTEX
  8
0
 62
7
  6
CONTINUOUS
 10
186.3078960441
 20
609.628871406
  0
SEQEND
  0
LINE
  8
0
 62
7
  6
CONTINUOUS
 10
190.7938786951
 20
608.4198201256
 11
191.1787920259
 21
608.3019808224
  0
LINE
  8
0
 62
7
  6
CONTINUOUS
 10
162.812406675
 20
604.8168320485
 11
157.1973998492
 21
603.2836490382
  0
POLYLINE
  8
0
 62
7
  6
CONTINUOUS
 66
1
 70
0
  0
VERTEX
  8
0
 62
7
  6
CONTINUOUS
 10
-7.1712558819
 20
596.2975464898
  0
VERTEX
  8
0
 62
7
  6
CONTINUOUS
 10
-7.6618550544
 20
596.2615666216
  0
VERTEX
  8
0
 62
7
  6
CONTINUOUS
 10
-8.2963024703
 20
596.1787479195
  0
VERTEX
  8
0
 62
7
  6
CONTINUOUS
 10
-8.9241971708
 20
596.0555160012
  0
VERTEX
  8
0
 62
7
  6
CONTINUOUS
 10
-9.5429570163
 20
595.8923701688
  0
VERTEX
  8
0
 62
7
  6
CONTINUOUS
 10
-10.1500403397
 20
595.6899746633
  0
VERTEX
  8
0
 62
7
  6
CONTINUOUS
 10
-10.7429533247
 20
595.4491562356
  0
VERTEX
  8
0
 62
7
  6
CONTINUOUS
 10
-11.3192603597
 20
595.1709007552
  0
VERTEX
  8
0
 62
7
  6
CONTINUOUS
 10
-11.8765944005
 20
594.8563490352
  0
VERTEX
  8
0
 62
7
  6
CONTINUOUS
 10
-12.4126667755
 20
594.5067921058
  0
VERTEX
  8
0
 62
7
  6
CONTINUOUS
 10
-12.9252766959
 20
594.123665876
  0
VERTEX
  8
0
 62
7
  6
CONTINUOUS
 10
-13.4123206246
 20
593.708545018
  0
VERTEX
  8
0
 62
7
  6
CONTINUOUS
 10
-13.8718008742
 20
593.2631365315
  0
VERTEX
  8
0
 62
7
  6
CONTINUOUS
 10
-14.3018341814
 20
592.7892723994
  0
VERTEX
  8
0
 62
7
  6
CONTINUOUS
 10
-14.7006594143
 20
592.2889020409
  0
VERTEX
  8
0
 62
7
  6
CONTINUOUS
 10
-15.0666447134
 20
591.7640844902
  0
VERTEX
  8
0
 62
7
  6
CONTINUOUS
 10
-15.398295891
 20
591.2169772267
  0
VERTEX
  8
0
 62
7
  6
CONTINUOUS
 10
-15.6942615654
 20
590.6498275211
  0
VERTEX
  8
0
 62
7
  6
CONTINUOUS
 10
-15.953334551
 20
590.0649720177
  0
VERTEX
  8
0
 62
7
  6
CONTINUOUS
 10
-16.1744630826
 20
589.4648165554
  0
VERTEX
  8
0
 62
7
  6
CONTINUOUS
 10
-16.3567516185
 20
588.8518348787
  0
VERTEX
  8
0
 62
7
  6
CONTINUOUS
 10
-16.4994679517
 20
588.2285504972
  0
VERTEX
  8
0
 62
7
  6
CONTINUOUS
 10
-16.6020448306
 20
587.5975307433
  0
VERTEX
  8
0
 62
7
  6
CONTINUOUS
 10
-16.6640828693
 20
586.961379432
  0
VERTEX
  8
0
 62
7
  6
CONTINUOUS
 10
-16.68384
 20
586.4838665818
  0
SEQEND
  0
LINE
  8
0
 62
7
  6
CONTINUOUS
 10
162.812406675
 20
604.8168320485
 11
192.9406927485
 21
604.8168320485
  0
LINE
  8
0
 62
7
  6
CONTINUOUS
 10
192.8859085517
 20
604.9044728062
 11
205.4174089078
 21
604.9044728062
  0
LINE
  8
0
 62
7
  6
CONTINUOUS
 10
191.178789754
 20
608.3019806592
 11
202.7840930518
 21
608.3019806592
  0
LINE
  8
0
 62
7
  6
CONTINUOUS
 10
165.651159066
 20
608.4793944104
 11
190.7579737044
 21
608.4793944104
  0
POLYLINE
  8
0
 62
7
  6
CONTINUOUS
 66
1
 70
0
  0
VERTEX
  8
0
 62
7
  6
CONTINUOUS
 10
185.540812022
 20
609.7711064877
  0
VERTEX
  8
0
 62
7
  6
CONTINUOUS
 10
185.4046995353
 20
609.7962733189
  0
VERTEX
  8
0
 62
7
  6
CONTINUOUS
 10
185.276927167
 20
609.8218978575
  0
VERTEX
  8
0
 62
7
  6
CONTINUOUS
 10
185.1579125478
 20
609.8480210944
  0
SEQEND
  0
LINE
  8
0
 62
7
  6
CONTINUOUS
 10
186.3078960441
 20
609.628871406
 11
185.540812022
 21
609.7711219617
  0
LINE
  8
0
 62
7
  6
CONTINUOUS
 10
185.1579125478
 20
609.8480210944
 11
185.0480407847
 21
609.8745200566
  0
LINE
  8
0
 62
7
  6
CONTINUOUS
 10
185.0480407847
 20
609.8745200566
 11
184.9476590433
 21
609.9013178988
  0
LINE
  8
0
 62
7
  6
CONTINUOUS
 10
205.4174089078
 20
604.9044728062
 11
211.3533842347
 21
603.2836490382
  0
POLYLINE
  8
0
 62
7
  6
CONTINUOUS
 66
1
 70
0
  0
VERTEX
  8
0
 62
7
  6
CONTINUOUS
 10
184.9476590433
 20
609.9013178988
  0
VERTEX
  8
0
 62
7
  6
CONTINUOUS
 10
184.8571305206
 20
609.9283172277
  0
VERTEX
  8
0
 62
7
  6
CONTINUOUS
 10
184.7767919928
 20
609.9554163971
  0
VERTEX
  8
0
 62
7
  6
CONTINUOUS
 10
184.7068300129
 20
609.9825513202
  0
VERTEX
  8
0
 62
7
  6
CONTINUOUS
 10
184.6473499433
 20
610.0096992494
  0
VERTEX
  8
0
 62
7
  6
CONTINUOUS
 10
184.5988610821
 20
610.0366345218
  0
VERTEX
  8
0
 62
7
  6
CONTINUOUS
 10
184.561432034
 20
610.0632652627
  0
VERTEX
  8
0
 62
7
  6
CONTINUOUS
 10
184.5354016697
 20
610.0891673597
  0
VERTEX
  8
0
 62
7
  6
CONTINUOUS
 10
184.5204785044
 20
610.1138292332
  0
VERTEX
  8
0
 62
7
  6
CONTINUOUS
 10
184.5156857562
 20
610.1374214096
  0
SEQEND
  0
ARC
  8
0
 62
7
  6
CONTINUOUS
 10
184.2753920419
 20
-3339.0815829481
 40
3940.0330882891
 50
87.214896595
 51
92.7851050296
  0
ARC
  8
0
 62
7
  6
CONTINUOUS
 10
184.2753920419
 20
533.4944219869
 40
77.2632392753
 50
89.8218061009
 51
103.9484663514
  0
ARC
  8
0
 62
7
  6
CONTINUOUS
 10
184.2753920419
 20
533.4944219869
 40
77.0632392753
 50
76.1031020349
 51
89.4495902558
  0
ARC
  8
0
 62
7
  6
CONTINUOUS
 10
368.3357157411
 20
170.1903777398
 40
8.0
 50
269.9999999999
 51
359.0086212152
  0
ARC
  8
0
 62
7
  6
CONTINUOUS
 10
-9.4874992104
 20
553.1903777398
 40
5.0000002013
 50
90.0049526526
 51
181.0255101212
  0
ARC
  8
0
 62
7
  6
CONTINUOUS
 10
-12.089668452
 20
563.1903777398
 40
5.0
 50
179.0
 51
270.0
  0
ARC
  8
0
 62
7
  6
CONTINUOUS
 10
380.6404525359
 20
563.1903777398
 40
5.0
 50
270.0
 51
1.0
  0
ARC
  8
0
 62
7
  6
CONTINUOUS
 10
378.0382832943
 20
553.1903777398
 40
5.0
 50
358.9744650611
 51
90.0
  0
ARC
  8
0
 62
7
  6
CONTINUOUS
 10
339.8382419942
 20
-301.8096222602
 40
5.0
 50
270.000705862
 51
352.4273507334
  0
ARC
  8
0
 62
7
  6
CONTINUOUS
 10
28.7125420897
 20
-301.8096222602
 40
5.0
 50
187.5726379499
 51
269.9999999986
  0
ARC
  8
0
 62
7
  6
CONTINUOUS
 10
157.4608078824
 20
602.318964526
 40
1.0
 50
105.2723793093
 51
160.0
  0
ARC
  8
0
 62
7
  6
CONTINUOUS
 10
211.0899762015
 20
602.318964526
 40
1.0
 50
20.0
 51
74.7276206907
  0
ENDSEC
  0
EOF
