999
DXF file: K:\Client\125_Heirloom\001\00\Final_Data\Drawings\TOILETS\heiko-374120d_2.dxf
999
Pro/ENGINEER 2017110 by Parametric Technology Corporation
  0
SECTION
  2
HEADER
  9
$EXTMAX
 10
420.0
 20
297.0
 30
0.0
  9
$EXTMIN
 10
0.0
 20
0.0
 30
0.0
  9
$LIMMIN
 10
0.0
 20
0.0
  9
$LIMMAX
 10
420.0
 20
297.0
  9
$VIEWCTR
 10
210.0
 20
148.5
  9
$VIEWSIZE
 40
297.0
  9
$CLAYER
  8
0
  9
$LTSCALE
 40
23.1
  9
$CELTYPE
  6
BYLAYER
  9
$DIMSCALE
 40
1.0
  9
$DIMASZ
 40
3.0
  9
$DIMEXO
 40
1.0
  9
$DIMDLI
 40
15.96
  9
$DIMEXE
 40
1.0
  9
$DIMCEN
 40
3.78
  9
$DIMLFAC
 40
1.0
  9
$DIMBLK
  1
_FILLED
  9
$DIMALT
 70
0
  9
$DIMALTF
 40
0.0393700787
  9
$DIMTXT
 40
3.0
  9
$AUNITS
 70
0
  9
$PDMODE
 70
3
  9
$PDSIZE
 40
5.0
  9
$TILEMODE
 70
1
  0
ENDSEC
  0
SECTION
  2
TABLES
  0
TABLE
  2
LTYPE
 70
6
  0
LTYPE
  2
BYBLOCK
 70
0
  3

 72
65
 73
0
 40
0.0
  0
LTYPE
  2
BYLAYER
 70
0
  3

 72
65
 73
0
 40
0.0
  0
LTYPE
  2
CONTINUOUS
 70
64
  3
Solid line
 72
65
 73
0
 40
0.0
  0
LTYPE
  2
CENTER
 70
64
  3
____ _ ____ _ ____ _ ____ _ ____ _ ____ _ ____
 72
65
 73
4
 40
0.6
 49
0.375
 49
-0.075
 49
0.075
 49
-0.075
  0
LTYPE
  2
HIDDEN
 70
64
  3
- - - - - - - - - - - - - - - - - - - -
 72
65
 73
2
 40
0.2
 49
0.1
 49
-0.1
  0
LTYPE
  2
PHANTOM
 70
64
  3
_____ _ _ _____ _ _ _____ _ _ _____
 72
65
 73
6
 40
0.8
 49
0.45
 49
-0.05
 49
0.1
 49
-0.05
 49
0.1
 49
-0.05
  0
LTYPE
  2
DOT
 70
64
  3
. . . . . . . . . . . . . . . . . . . .
 72
65
 73
2
 40
0.2
 49
0.1
 49
-0.1
  0
LTYPE
  2
DASHED
 70
64
  3
- - - - - - - - - - - - - - - - - - - -
 72
65
 73
2
 40
0.2
 49
0.1
 49
-0.1
  0
ENDTAB
  0
TABLE
  2
LAYER
 70
36
  0
LAYER
  2
0
 70
0
 62
7
  6
CONTINUOUS
  0
LAYER
  2
DEFAULT_1
 70
0
 62
7
  6
CENTER
  0
LAYER
  2
DEFAULT_2
 70
0
 62
8
  6
HIDDEN
  0
LAYER
  2
DEFAULT_3
 70
0
 62
7
  6
PHANTOM
  0
LAYER
  2
0000_BOM
 70
0
 62
7
  6
CONTINUOUS
  0
LAYER
  2
0000_REV_TABLE
 70
0
 62
7
  6
CONTINUOUS
  0
LAYER
  2
0000_STEVENS_NOTE
 70
0
 62
7
  6
CONTINUOUS
  0
LAYER
  2
01_DATUM_PLANES
 70
0
 62
7
  6
CONTINUOUS
  0
LAYER
  2
01_DEF_PLANES
 70
0
 62
7
  6
CONTINUOUS
  0
LAYER
  2
02_DATUM_COS
 70
0
 62
7
  6
CONTINUOUS
  0
LAYER
  2
90_IMP_FEAT
 70
0
 62
7
  6
CONTINUOUS
  0
LAYER
  2
95_STL
 70
0
 62
7
  6
CONTINUOUS
  0
LAYER
  2
99_SOLID
 70
0
 62
7
  6
CONTINUOUS
  0
LAYER
  2
CAD-MASTER_ZINC-PL
 70
0
 62
7
  6
CONTINUOUS
  0
LAYER
  2
CURVE
 70
0
 62
7
  6
CONTINUOUS
  0
LAYER
  2
SHELL
 70
0
 62
7
  6
CONTINUOUS
  0
LAYER
  2
SKEL
 70
0
 62
7
  6
CONTINUOUS
  0
LAYER
  2
SKETCH
 70
0
 62
7
  6
CONTINUOUS
  0
LAYER
  2
SURFACE
 70
0
 62
7
  6
CONTINUOUS
  0
ENDTAB
  0
TABLE
  2
STYLE
 70
1
  0
STYLE
  2
STANDARD
 70
0
 40
0.0
 41
0.75
 50
0.0
 71
0
 42
0.2
  3
txt
  4

  0
STYLE
  2
TEXTSTYLE_1
 70
0
 40
0.0
 41
0.8
 50
0.0
 71
0
 42
0.2
  3
gdt
  4

  0
ENDTAB
  0
ENDSEC
  0
SECTION
  2
BLOCKS
  0
BLOCK
  8
0
 62
5
  6
CONTINUOUS
  2
PLUMBING_BL1
 70
64
 10
502.1501442492
 20
-306.2028157533
  0
CIRCLE
  8
0
 62
5
  6
CONTINUOUS
 10
502.1501442492
 20
-306.2028157533
 40
12.5
  0
LINE
  8
0
 62
5
  6
CONTINUOUS
 10
514.6501442492
 20
-293.7028157533
 11
489.6501442492
 21
-318.7028157533
  0
LINE
  8
0
 62
5
  6
CONTINUOUS
 10
502.1501442492
 20
-306.2028157533
 11
489.6501442492
 21
-293.7028157533
  0
LINE
  8
0
 62
5
  6
CONTINUOUS
 10
502.1501442492
 20
-306.2028157533
 11
514.6501442492
 21
-318.7028157533
  0
ENDBLK
  8
0
  6
BYBLOCK
 62
0
  0
BLOCK
  8
0
 62
1
  6
CONTINUOUS
  2
PLUMBING_BL0
 70
64
 10
315.8295890958
 20
-126.2028157533
  0
CIRCLE
  8
0
 62
1
  6
CONTINUOUS
 10
315.8295890958
 20
-126.2028157533
 40
12.5
  0
LINE
  8
0
 62
1
  6
CONTINUOUS
 10
328.3295890958
 20
-113.7028157533
 11
303.3295890958
 21
-138.7028157533
  0
LINE
  8
0
 62
1
  6
CONTINUOUS
 10
315.8295890958
 20
-126.2028157533
 11
303.3295890958
 21
-113.7028157533
  0
LINE
  8
0
 62
1
  6
CONTINUOUS
 10
315.8295890958
 20
-126.2028157533
 11
328.3295890958
 21
-138.7028157533
  0
ENDBLK
  8
0
  6
BYBLOCK
 62
0
  0
ENDSEC
  0
SECTION
  2
ENTITIES
  0
INSERT
  8
0
 62
1
  6
CONTINUOUS
  2
PLUMBING_BL0
 10
315.8295890958
 20
-126.2028157533
  0
INSERT
  8
0
 62
5
  6
CONTINUOUS
  2
PLUMBING_BL1
 10
502.1501442492
 20
-306.2028157533
  0
LINE
  8
DEFAULT_2
 62
8
  6
HIDDEN
 10
265.8280501627
 20
-176.2028157533
 11
315.8280501627
 21
-176.2028157533
  0
LINE
  8
DEFAULT_2
 62
8
  6
HIDDEN
 10
265.8280501627
 20
-76.2028157533
 11
315.8280501627
 21
-76.2028157533
  0
LINE
  8
DEFAULT_2
 62
8
  6
HIDDEN
 10
315.8280501627
 20
-76.5673720484
 11
315.8280501627
 21
-175.8382594582
  0
LINE
  8
0
 62
7
  6
CONTINUOUS
 10
497.1501442492
 20
-306.2028157533
 11
-5.5285235891
 21
-306.2028157533
  0
POLYLINE
  8
0
 62
7
  6
CONTINUOUS
 66
1
 70
0
  0
VERTEX
  8
0
 62
7
  6
CONTINUOUS
 10
-164.3113252831
 20
140.7669907647
  0
VERTEX
  8
0
 62
7
  6
CONTINUOUS
 10
-164.1105726831
 20
130.5590839521
  0
VERTEX
  8
0
 62
7
  6
CONTINUOUS
 10
-163.720989159
 20
120.2644903966
  0
VERTEX
  8
0
 62
7
  6
CONTINUOUS
 10
-163.1464087583
 20
110.0961502273
  0
VERTEX
  8
0
 62
7
  6
CONTINUOUS
 10
-162.3851457792
 20
100.0038861609
  0
VERTEX
  8
0
 62
7
  6
CONTINUOUS
 10
-161.4356215535
 20
89.9534940309
  0
VERTEX
  8
0
 62
7
  6
CONTINUOUS
 10
-160.2951253353
 20
79.9103235161
  0
VERTEX
  8
0
 62
7
  6
CONTINUOUS
 10
-158.9586651933
 20
69.8441126426
  0
VERTEX
  8
0
 62
7
  6
CONTINUOUS
 10
-157.4186229771
 20
59.708470564
  0
VERTEX
  8
0
 62
7
  6
CONTINUOUS
 10
-155.6675955286
 20
49.463831828
  0
VERTEX
  8
0
 62
7
  6
CONTINUOUS
 10
-153.6936952841
 20
39.0621854665
  0
VERTEX
  8
0
 62
7
  6
CONTINUOUS
 10
-151.4848150899
 20
28.4617106297
  0
VERTEX
  8
0
 62
7
  6
CONTINUOUS
 10
-149.0245704452
 20
17.604603848
  0
VERTEX
  8
0
 62
7
  6
CONTINUOUS
 10
-146.2969804253
 20
6.4458432568
  0
VERTEX
  8
0
 62
7
  6
CONTINUOUS
 10
-143.2750385534
 20
-5.0975377159
  0
VERTEX
  8
0
 62
7
  6
CONTINUOUS
 10
-139.919241825
 20
-17.141573455
  0
VERTEX
  8
0
 62
7
  6
CONTINUOUS
 10
-136.2361009084
 20
-29.6342145801
  0
VERTEX
  8
0
 62
7
  6
CONTINUOUS
 10
-132.1882476446
 20
-42.6744842903
  0
VERTEX
  8
0
 62
7
  6
CONTINUOUS
 10
-127.8230318488
 20
-56.0982922384
  0
VERTEX
  8
0
 62
7
  6
CONTINUOUS
 10
-123.1949508751
 20
-69.7289970094
  0
VERTEX
  8
0
 62
7
  6
CONTINUOUS
 10
-118.3829677772
 20
-83.3197942773
  0
VERTEX
  8
0
 62
7
  6
CONTINUOUS
 10
-113.4708288293
 20
-96.6308758052
  0
VERTEX
  8
0
 62
7
  6
CONTINUOUS
 10
-108.4465085012
 20
-109.6999021911
  0
VERTEX
  8
0
 62
7
  6
CONTINUOUS
 10
-103.3646601601
 20
-122.3934303711
  0
VERTEX
  8
0
 62
7
  6
CONTINUOUS
 10
-98.1772483032
 20
-134.8405433294
  0
VERTEX
  8
0
 62
7
  6
CONTINUOUS
 10
-92.8844207616
 20
-147.0482526143
  0
VERTEX
  8
0
 62
7
  6
CONTINUOUS
 10
-87.3943538006
 20
-159.2299995284
  0
VERTEX
  8
0
 62
7
  6
CONTINUOUS
 10
-81.6839384379
 20
-171.4297272204
  0
VERTEX
  8
0
 62
7
  6
CONTINUOUS
 10
-75.5201032257
 20
-184.1338913567
  0
VERTEX
  8
0
 62
7
  6
CONTINUOUS
 10
-68.6315847389
 20
-197.8526165518
  0
VERTEX
  8
0
 62
7
  6
CONTINUOUS
 10
-61.1217078916
 20
-212.3788451154
  0
VERTEX
  8
0
 62
7
  6
CONTINUOUS
 10
-52.6789973791
 20
-228.351675615
  0
VERTEX
  8
0
 62
7
  6
CONTINUOUS
 10
-44.102535342
 20
-244.2835108692
  0
VERTEX
  8
0
 62
7
  6
CONTINUOUS
 10
-36.1635960717
 20
-258.7460906234
  0
VERTEX
  8
0
 62
7
  6
CONTINUOUS
 10
-28.5570754611
 20
-272.2689155029
  0
VERTEX
  8
0
 62
7
  6
CONTINUOUS
 10
-21.3326117546
 20
-284.7445420494
  0
VERTEX
  8
0
 62
7
  6
CONTINUOUS
 10
-14.3029081312
 20
-296.4907467035
  0
VERTEX
  8
0
 62
7
  6
CONTINUOUS
 10
-9.7723657665
 20
-303.8467529234
  0
SEQEND
  0
LINE
  8
0
 62
7
  6
CONTINUOUS
 10
422.1599393404
 20
605.5112793131
 11
421.9147234583
 21
605.4230978413
  0
POLYLINE
  8
0
 62
7
  6
CONTINUOUS
 66
1
 70
0
  0
VERTEX
  8
0
 62
7
  6
CONTINUOUS
 10
424.0946033119
 20
609.0862201866
  0
VERTEX
  8
0
 62
7
  6
CONTINUOUS
 10
425.0652135775
 20
609.3813439916
  0
VERTEX
  8
0
 62
7
  6
CONTINUOUS
 10
425.9957165177
 20
609.6429767467
  0
VERTEX
  8
0
 62
7
  6
CONTINUOUS
 10
426.8864110941
 20
609.869660252
  0
VERTEX
  8
0
 62
7
  6
CONTINUOUS
 10
427.7364004217
 20
610.0657691073
  0
VERTEX
  8
0
 62
7
  6
CONTINUOUS
 10
428.5447876158
 20
610.2356779129
  0
VERTEX
  8
0
 62
7
  6
CONTINUOUS
 10
429.3118716379
 20
610.3779284685
  0
SEQEND
  0
LINE
  8
0
 62
7
  6
CONTINUOUS
 10
-159.1300267711
 20
151.5856269059
 11
-159.2730364655
 21
159.7786468111
  0
LINE
  8
0
 62
7
  6
CONTINUOUS
 10
-159.3777563735
 20
165.778046322
 11
-159.5200347895
 21
173.9291713178
  0
LINE
  8
0
 62
7
  6
CONTINUOUS
 10
422.9298564565
 20
609.0862009173
 11
420.0911040655
 21
605.4236385554
  0
POLYLINE
  8
0
 62
7
  6
CONTINUOUS
 66
1
 70
0
  0
VERTEX
  8
0
 62
7
  6
CONTINUOUS
 10
421.9147234583
 20
605.4230978413
  0
VERTEX
  8
0
 62
7
  6
CONTINUOUS
 10
422.4973388009
 20
606.4101151318
  0
VERTEX
  8
0
 62
7
  6
CONTINUOUS
 10
423.054857224
 20
607.3496412862
  0
VERTEX
  8
0
 62
7
  6
CONTINUOUS
 10
423.5872787277
 20
608.2416763044
  0
VERTEX
  8
0
 62
7
  6
CONTINUOUS
 10
424.0946033119
 20
609.0862201866
  0
SEQEND
  0
POLYLINE
  8
0
 62
7
  6
CONTINUOUS
 66
1
 70
0
  0
VERTEX
  8
0
 62
7
  6
CONTINUOUS
 10
424.3809984152
 20
608.9087873292
  0
VERTEX
  8
0
 62
7
  6
CONTINUOUS
 10
424.0718409494
 20
608.3889446272
  0
VERTEX
  8
0
 62
7
  6
CONTINUOUS
 10
423.7528622521
 20
607.8505201877
  0
VERTEX
  8
0
 62
7
  6
CONTINUOUS
 10
423.4240398741
 20
607.2934969084
  0
VERTEX
  8
0
 62
7
  6
CONTINUOUS
 10
423.0854411636
 20
606.7179260963
  0
VERTEX
  8
0
 62
7
  6
CONTINUOUS
 10
422.7371334688
 20
606.1238590583
  0
VERTEX
  8
0
 62
7
  6
CONTINUOUS
 10
422.3790943405
 20
605.5112786921
  0
SEQEND
  0
LINE
  8
0
 62
7
  6
CONTINUOUS
 10
246.0363273989
 20
155.8492503519
 11
-147.2257120644
 21
148.7971842467
  0
LINE
  8
0
 62
7
  6
CONTINUOUS
 10
369.2671593892
 20
148.7971842467
 11
-157.0941906166
 21
148.7971842467
  0
LINE
  8
0
 62
7
  6
CONTINUOUS
 10
260.9147974294
 20
156.7971842467
 11
311.4863813071
 21
156.7971842467
  0
LINE
  8
0
 62
7
  6
CONTINUOUS
 10
276.1543081379
 20
166.057283901
 11
266.1314881145
 21
160.9038924695
  0
POLYLINE
  8
0
 62
7
  6
CONTINUOUS
 66
1
 70
0
  0
VERTEX
  8
0
 62
7
  6
CONTINUOUS
 10
-156.3814633321
 20
148.7882488451
  0
VERTEX
  8
0
 62
7
  6
CONTINUOUS
 10
-156.8926276361
 20
148.7610292019
  0
VERTEX
  8
0
 62
7
  6
CONTINUOUS
 10
-157.3885507019
 20
148.7156771804
  0
VERTEX
  8
0
 62
7
  6
CONTINUOUS
 10
-157.8688222489
 20
148.6523208625
  0
SEQEND
  0
LINE
  8
0
 62
7
  6
CONTINUOUS
 10
-156.3565040737
 20
162.8298553478
 11
245.9565515091
 21
173.9662147138
  0
LINE
  8
0
 62
7
  6
CONTINUOUS
 10
-156.6010989824
 20
176.9804454202
 11
252.3151451566
 21
187.971622161
  0
LINE
  8
0
 62
7
  6
CONTINUOUS
 10
508.9900158569
 20
162.7971842467
 11
360.1977100418
 21
162.7971842467
  0
LINE
  8
0
 62
7
  6
CONTINUOUS
 10
413.7998126522
 20
603.2677911762
 11
413.0908283507
 21
601.3198728172
  0
POLYLINE
  8
0
 62
7
  6
CONTINUOUS
 66
1
 70
0
  0
VERTEX
  8
0
 62
7
  6
CONTINUOUS
 10
-157.8688222489
 20
148.6523208625
  0
VERTEX
  8
0
 62
7
  6
CONTINUOUS
 10
-158.3333790196
 20
148.5710761459
  0
VERTEX
  8
0
 62
7
  6
CONTINUOUS
 10
-158.7813698566
 20
148.4722522931
  0
VERTEX
  8
0
 62
7
  6
CONTINUOUS
 10
-159.2122926995
 20
148.3562159139
  0
VERTEX
  8
0
 62
7
  6
CONTINUOUS
 10
-159.6255136389
 20
148.2234885673
  0
VERTEX
  8
0
 62
7
  6
CONTINUOUS
 10
-160.0203164492
 20
148.0747151981
  0
VERTEX
  8
0
 62
7
  6
CONTINUOUS
 10
-160.3964427688
 20
147.9104577342
  0
VERTEX
  8
0
 62
7
  6
CONTINUOUS
 10
-160.7534507419
 20
147.7314635347
  0
VERTEX
  8
0
 62
7
  6
CONTINUOUS
 10
-161.0915654308
 20
147.538239462
  0
VERTEX
  8
0
 62
7
  6
CONTINUOUS
 10
-161.4107536728
 20
147.3314656292
  0
VERTEX
  8
0
 62
7
  6
CONTINUOUS
 10
-161.7115619903
 20
147.1114621076
  0
VERTEX
  8
0
 62
7
  6
CONTINUOUS
 10
-161.9941257423
 20
146.8788021363
  0
VERTEX
  8
0
 62
7
  6
CONTINUOUS
 10
-162.2595421382
 20
146.6331625026
  0
VERTEX
  8
0
 62
7
  6
CONTINUOUS
 10
-162.5081844523
 20
146.374618478
  0
VERTEX
  8
0
 62
7
  6
CONTINUOUS
 10
-162.7415896414
 20
146.1016703329
  0
VERTEX
  8
0
 62
7
  6
CONTINUOUS
 10
-162.9606973668
 20
145.8127349377
  0
VERTEX
  8
0
 62
7
  6
CONTINUOUS
 10
-163.1658675824
 20
145.5062865013
  0
VERTEX
  8
0
 62
7
  6
CONTINUOUS
 10
-163.3576391404
 20
145.1797050931
  0
VERTEX
  8
0
 62
7
  6
CONTINUOUS
 10
-163.534630208
 20
144.8330012495
  0
VERTEX
  8
0
 62
7
  6
CONTINUOUS
 10
-163.6961525443
 20
144.4648744921
  0
VERTEX
  8
0
 62
7
  6
CONTINUOUS
 10
-163.8404577194
 20
144.0765470443
  0
VERTEX
  8
0
 62
7
  6
CONTINUOUS
 10
-163.9664549573
 20
143.6688101209
  0
VERTEX
  8
0
 62
7
  6
CONTINUOUS
 10
-164.0733013472
 20
143.2430606559
  0
VERTEX
  8
0
 62
7
  6
CONTINUOUS
 10
-164.1604205192
 20
142.8012033332
  0
VERTEX
  8
0
 62
7
  6
CONTINUOUS
 10
-164.22775273
 20
142.3440792838
  0
VERTEX
  8
0
 62
7
  6
CONTINUOUS
 10
-164.2753128873
 20
141.8732160851
  0
VERTEX
  8
0
 62
7
  6
CONTINUOUS
 10
-164.3033659253
 20
141.389392926
  0
VERTEX
  8
0
 62
7
  6
CONTINUOUS
 10
-164.3122472548
 20
140.8940278849
  0
VERTEX
  8
0
 62
7
  6
CONTINUOUS
 10
-164.3115064418
 20
140.7666630691
  0
SEQEND
  0
LINE
  8
0
 62
7
  6
CONTINUOUS
 10
260.9147680302
 20
156.7971842467
 11
260.9147680302
 21
148.7971842467
  0
LINE
  8
0
 62
7
  6
CONTINUOUS
 10
311.4864107063
 20
156.7971842467
 11
311.4864107063
 21
148.7971842467
  0
LINE
  8
0
 62
7
  6
CONTINUOUS
 10
349.2550531371
 20
553.5523480888
 11
352.0328794733
 21
496.8919698112
  0
POLYLINE
  8
0
 62
7
  6
CONTINUOUS
 66
1
 70
0
  0
VERTEX
  8
0
 62
7
  6
CONTINUOUS
 10
352.0328716436
 20
496.8919694274
  0
VERTEX
  8
0
 62
7
  6
CONTINUOUS
 10
352.3808951946
 20
489.5277444821
  0
VERTEX
  8
0
 62
7
  6
CONTINUOUS
 10
352.7318745917
 20
481.5177930363
  0
VERTEX
  8
0
 62
7
  6
CONTINUOUS
 10
353.080647927
 20
472.8157573067
  0
VERTEX
  8
0
 62
7
  6
CONTINUOUS
 10
353.4144520858
 20
463.559942162
  0
VERTEX
  8
0
 62
7
  6
CONTINUOUS
 10
353.7239783844
 20
453.8330561849
  0
VERTEX
  8
0
 62
7
  6
CONTINUOUS
 10
354.0000625913
 20
443.7560844824
  0
VERTEX
  8
0
 62
7
  6
CONTINUOUS
 10
354.2358239151
 20
433.4348025136
  0
VERTEX
  8
0
 62
7
  6
CONTINUOUS
 10
354.425855504
 20
422.9981044073
  0
VERTEX
  8
0
 62
7
  6
CONTINUOUS
 10
354.5664594774
 20
412.6330466348
  0
VERTEX
  8
0
 62
7
  6
CONTINUOUS
 10
354.6590939533
 20
402.2712796483
  0
VERTEX
  8
0
 62
7
  6
CONTINUOUS
 10
354.7038231983
 20
391.9063571537
  0
VERTEX
  8
0
 62
7
  6
CONTINUOUS
 10
354.7006093031
 20
381.5396168951
  0
VERTEX
  8
0
 62
7
  6
CONTINUOUS
 10
354.6497727277
 20
371.2188080039
  0
VERTEX
  8
0
 62
7
  6
CONTINUOUS
 10
354.5502193357
 20
360.7982508536
  0
VERTEX
  8
0
 62
7
  6
CONTINUOUS
 10
354.4190651644
 20
350.1863187259
  0
SEQEND
  0
LINE
  8
0
 62
7
  6
CONTINUOUS
 10
354.4190651644
 20
350.1863187259
 11
352.1983181864
 21
170.8957187508
  0
LINE
  8
0
 62
7
  6
CONTINUOUS
 10
348.7084500851
 20
586.7330113152
 11
348.3096268989
 21
563.8844462788
  0
LINE
  8
0
 62
7
  6
CONTINUOUS
 10
516.9200609516
 20
589.4786475373
 11
517.3668093963
 21
563.8844462788
  0
LINE
  8
0
 62
7
  6
CONTINUOUS
 10
502.1501442492
 20
-301.2028157533
 11
502.1501286891
 21
157.7976991927
  0
LINE
  8
0
 62
7
  6
CONTINUOUS
 10
502.1501456054
 20
157.7577029437
 11
502.1501442492
 21
157.7800312919
  0
LINE
  8
0
 62
7
  6
CONTINUOUS
 10
520.726909395
 20
553.7099222145
 11
513.9892543327
 21
167.7099222145
  0
LINE
  8
0
 62
7
  6
CONTINUOUS
 10
420.0911040655
 20
605.4236385554
 11
414.4760972398
 21
603.8904555451
  0
POLYLINE
  8
0
 62
7
  6
CONTINUOUS
 66
1
 70
0
  0
VERTEX
  8
0
 62
7
  6
CONTINUOUS
 10
429.6654250285
 20
610.2246902615
  0
VERTEX
  8
0
 62
7
  6
CONTINUOUS
 10
428.8962746319
 20
610.0818782574
  0
VERTEX
  8
0
 62
7
  6
CONTINUOUS
 10
428.0821477115
 20
609.910182045
  0
VERTEX
  8
0
 62
7
  6
CONTINUOUS
 10
427.2227240406
 20
609.7112121107
  0
VERTEX
  8
0
 62
7
  6
CONTINUOUS
 10
426.318964299
 20
609.4801369952
  0
VERTEX
  8
0
 62
7
  6
CONTINUOUS
 10
425.371829166
 20
609.2121252393
  0
VERTEX
  8
0
 62
7
  6
CONTINUOUS
 10
424.3809984152
 20
608.9087873292
  0
SEQEND
  0
POLYLINE
  8
0
 62
7
  6
CONTINUOUS
 66
1
 70
0
  0
VERTEX
  8
0
 62
7
  6
CONTINUOUS
 10
429.3118716379
 20
610.3779129946
  0
VERTEX
  8
0
 62
7
  6
CONTINUOUS
 10
429.4559191335
 20
610.4030798258
  0
VERTEX
  8
0
 62
7
  6
CONTINUOUS
 10
429.6074791216
 20
610.4287043643
  0
VERTEX
  8
0
 62
7
  6
CONTINUOUS
 10
429.7660691759
 20
610.4548276013
  0
VERTEX
  8
0
 62
7
  6
CONTINUOUS
 10
429.9311906509
 20
610.4813265634
  0
VERTEX
  8
0
 62
7
  6
CONTINUOUS
 10
430.1023427809
 20
610.5081244057
  0
VERTEX
  8
0
 62
7
  6
CONTINUOUS
 10
430.2789228282
 20
610.5351237346
  0
VERTEX
  8
0
 62
7
  6
CONTINUOUS
 10
430.4602585875
 20
610.5622229039
  0
VERTEX
  8
0
 62
7
  6
CONTINUOUS
 10
430.6459238827
 20
610.5893578271
  0
VERTEX
  8
0
 62
7
  6
CONTINUOUS
 10
430.8357911924
 20
610.6165057563
  0
VERTEX
  8
0
 62
7
  6
CONTINUOUS
 10
431.0282540098
 20
610.6434410286
  0
VERTEX
  8
0
 62
7
  6
CONTINUOUS
 10
431.222714147
 20
610.6700717696
  0
VERTEX
  8
0
 62
7
  6
CONTINUOUS
 10
431.4157700666
 20
610.6959738666
  0
VERTEX
  8
0
 62
7
  6
CONTINUOUS
 10
431.6036435769
 20
610.72063574
  0
SEQEND
  0
POLYLINE
  8
0
 62
7
  6
CONTINUOUS
 66
1
 70
0
  0
VERTEX
  8
0
 62
7
  6
CONTINUOUS
 10
431.786745372
 20
610.5393982966
  0
VERTEX
  8
0
 62
7
  6
CONTINUOUS
 10
431.6375103565
 20
610.5201306843
  0
VERTEX
  8
0
 62
7
  6
CONTINUOUS
 10
431.484254692
 20
610.4999874533
  0
VERTEX
  8
0
 62
7
  6
CONTINUOUS
 10
431.3272398468
 20
610.4789216755
  0
VERTEX
  8
0
 62
7
  6
CONTINUOUS
 10
431.1675672757
 20
610.4570741351
  0
VERTEX
  8
0
 62
7
  6
CONTINUOUS
 10
431.0060686135
 20
610.4345094844
  0
VERTEX
  8
0
 62
7
  6
CONTINUOUS
 10
430.8441360373
 20
610.4114091906
  0
VERTEX
  8
0
 62
7
  6
CONTINUOUS
 10
430.6832257846
 20
610.3879453106
  0
VERTEX
  8
0
 62
7
  6
CONTINUOUS
 10
430.5240361931
 20
610.3642107284
  0
VERTEX
  8
0
 62
7
  6
CONTINUOUS
 10
430.367227219
 20
610.340278549
  0
VERTEX
  8
0
 62
7
  6
CONTINUOUS
 10
430.2144046153
 20
610.3163801667
  0
VERTEX
  8
0
 62
7
  6
CONTINUOUS
 10
430.0669166425
 20
610.2927243282
  0
VERTEX
  8
0
 62
7
  6
CONTINUOUS
 10
429.9256811397
 20
610.2694520823
  0
VERTEX
  8
0
 62
7
  6
CONTINUOUS
 10
429.7918183334
 20
610.2468003889
  0
VERTEX
  8
0
 62
7
  6
CONTINUOUS
 10
429.6654250285
 20
610.2246902615
  0
SEQEND
  0
LINE
  8
0
 62
7
  6
CONTINUOUS
 10
431.6036435769
 20
610.72063574
 11
431.786745372
 21
610.7442279164
  0
LINE
  8
0
 62
7
  6
CONTINUOUS
 10
353.3088662759
 20
558.7971842467
 11
515.7276709192
 21
558.7971842467
  0
LINE
  8
0
 62
7
  6
CONTINUOUS
 10
420.0911040655
 20
605.4236385554
 11
421.918094308
 21
605.4236385554
  0
LINE
  8
0
 62
7
  6
CONTINUOUS
 10
461.1900845569
 20
605.4236385554
 11
463.0170747995
 21
605.4236385554
  0
LINE
  8
0
 62
7
  6
CONTINUOUS
 10
422.1599393404
 20
605.5112793131
 11
460.9482395245
 21
605.5112793131
  0
LINE
  8
0
 62
7
  6
CONTINUOUS
 10
424.3809967261
 20
608.9087871661
 11
458.7271821389
 21
608.9087871661
  0
LINE
  8
0
 62
7
  6
CONTINUOUS
 10
422.9298564565
 20
609.0862009173
 11
424.0944734879
 21
609.0862009173
  0
LINE
  8
0
 62
7
  6
CONTINUOUS
 10
459.0137053771
 20
609.0862009173
 11
460.1783224085
 21
609.0862009173
  0
LINE
  8
0
 62
7
  6
CONTINUOUS
 10
469.3083662128
 20
603.2677911762
 11
470.5894212046
 21
599.7481215131
  0
POLYLINE
  8
0
 62
7
  6
CONTINUOUS
 66
1
 70
0
  0
VERTEX
  8
0
 62
7
  6
CONTINUOUS
 10
451.3214334929
 20
610.744228204
  0
VERTEX
  8
0
 62
7
  6
CONTINUOUS
 10
451.5008481388
 20
610.7211199918
  0
VERTEX
  8
0
 62
7
  6
CONTINUOUS
 10
451.6862634348
 20
610.6967892375
  0
VERTEX
  8
0
 62
7
  6
CONTINUOUS
 10
451.8782481329
 20
610.6710480361
  0
VERTEX
  8
0
 62
7
  6
CONTINUOUS
 10
452.0725615399
 20
610.644460102
  0
VERTEX
  8
0
 62
7
  6
CONTINUOUS
 10
452.265436362
 20
610.6174880152
  0
VERTEX
  8
0
 62
7
  6
CONTINUOUS
 10
452.4560998747
 20
610.5902472745
  0
VERTEX
  8
0
 62
7
  6
CONTINUOUS
 10
452.6426844184
 20
610.5629963438
  0
VERTEX
  8
0
 62
7
  6
CONTINUOUS
 10
452.8249863958
 20
610.5357689088
  0
VERTEX
  8
0
 62
7
  6
CONTINUOUS
 10
453.0024068621
 20
610.5086547915
  0
VERTEX
  8
0
 62
7
  6
CONTINUOUS
 10
453.1743536872
 20
610.4817440469
  0
VERTEX
  8
0
 62
7
  6
CONTINUOUS
 10
453.3402620508
 20
610.4551269305
  0
VERTEX
  8
0
 62
7
  6
CONTINUOUS
 10
453.4995718203
 20
610.4288926622
  0
VERTEX
  8
0
 62
7
  6
CONTINUOUS
 10
453.6517429992
 20
610.4031754606
  0
VERTEX
  8
0
 62
7
  6
CONTINUOUS
 10
453.7963072271
 20
610.3779305861
  0
SEQEND
  0
POLYLINE
  8
0
 62
7
  6
CONTINUOUS
 66
1
 70
0
  0
VERTEX
  8
0
 62
7
  6
CONTINUOUS
 10
453.4427538365
 20
610.2246902615
  0
VERTEX
  8
0
 62
7
  6
CONTINUOUS
 10
453.321936402
 20
610.245834918
  0
VERTEX
  8
0
 62
7
  6
CONTINUOUS
 10
453.1939121157
 20
610.2675427949
  0
VERTEX
  8
0
 62
7
  6
CONTINUOUS
 10
453.0587171814
 20
610.2898826861
  0
VERTEX
  8
0
 62
7
  6
CONTINUOUS
 10
452.917293966
 20
610.3126482097
  0
VERTEX
  8
0
 62
7
  6
CONTINUOUS
 10
452.7706604759
 20
610.3356790649
  0
VERTEX
  8
0
 62
7
  6
CONTINUOUS
 10
452.6192227443
 20
610.3589058029
  0
VERTEX
  8
0
 62
7
  6
CONTINUOUS
 10
452.4635842734
 20
610.3822364841
  0
VERTEX
  8
0
 62
7
  6
CONTINUOUS
 10
452.3043645517
 20
610.4055782809
  0
VERTEX
  8
0
 62
7
  6
CONTINUOUS
 10
452.1420128039
 20
610.4288642859
  0
VERTEX
  8
0
 62
7
  6
CONTINUOUS
 10
451.9777692464
 20
610.451924799
  0
VERTEX
  8
0
 62
7
  6
CONTINUOUS
 10
451.8128426027
 20
610.4745929177
  0
VERTEX
  8
0
 62
7
  6
CONTINUOUS
 10
451.6479381587
 20
610.4967933411
  0
VERTEX
  8
0
 62
7
  6
CONTINUOUS
 10
451.4840073846
 20
610.5183787672
  0
VERTEX
  8
0
 62
7
  6
CONTINUOUS
 10
451.3214334929
 20
610.5393982966
  0
SEQEND
  0
POLYLINE
  8
0
 62
7
  6
CONTINUOUS
 66
1
 70
0
  0
VERTEX
  8
0
 62
7
  6
CONTINUOUS
 10
453.7963072271
 20
610.3779284685
  0
VERTEX
  8
0
 62
7
  6
CONTINUOUS
 10
454.563391067
 20
610.2356779511
  0
VERTEX
  8
0
 62
7
  6
CONTINUOUS
 10
455.3717781521
 20
610.0657691712
  0
VERTEX
  8
0
 62
7
  6
CONTINUOUS
 10
456.2217674443
 20
609.8696603313
  0
VERTEX
  8
0
 62
7
  6
CONTINUOUS
 10
457.1124620578
 20
609.6429768239
  0
VERTEX
  8
0
 62
7
  6
CONTINUOUS
 10
458.0429651067
 20
609.3813440415
  0
VERTEX
  8
0
 62
7
  6
CONTINUOUS
 10
459.013575553
 20
609.0862201866
  0
SEQEND
  0
POLYLINE
  8
0
 62
7
  6
CONTINUOUS
 66
1
 70
0
  0
VERTEX
  8
0
 62
7
  6
CONTINUOUS
 10
459.013575553
 20
609.0862201866
  0
VERTEX
  8
0
 62
7
  6
CONTINUOUS
 10
459.5209001373
 20
608.2416763044
  0
VERTEX
  8
0
 62
7
  6
CONTINUOUS
 10
460.053321641
 20
607.3496412862
  0
VERTEX
  8
0
 62
7
  6
CONTINUOUS
 10
460.6108400641
 20
606.4101151318
  0
VERTEX
  8
0
 62
7
  6
CONTINUOUS
 10
461.1934554066
 20
605.4230978413
  0
SEQEND
  0
POLYLINE
  8
0
 62
7
  6
CONTINUOUS
 66
1
 70
0
  0
VERTEX
  8
0
 62
7
  6
CONTINUOUS
 10
460.7290845245
 20
605.5112786921
  0
VERTEX
  8
0
 62
7
  6
CONTINUOUS
 10
460.3710453961
 20
606.1238590583
  0
VERTEX
  8
0
 62
7
  6
CONTINUOUS
 10
460.0227377014
 20
606.7179260963
  0
VERTEX
  8
0
 62
7
  6
CONTINUOUS
 10
459.6841389908
 20
607.2934969084
  0
VERTEX
  8
0
 62
7
  6
CONTINUOUS
 10
459.3553166128
 20
607.8505201877
  0
VERTEX
  8
0
 62
7
  6
CONTINUOUS
 10
459.0363379156
 20
608.3889446272
  0
VERTEX
  8
0
 62
7
  6
CONTINUOUS
 10
458.7271804497
 20
608.9087873292
  0
SEQEND
  0
LINE
  8
0
 62
7
  6
CONTINUOUS
 10
463.0170747995
 20
605.4236385554
 11
468.6320816252
 21
603.8904555451
  0
POLYLINE
  8
0
 62
7
  6
CONTINUOUS
 66
1
 70
0
  0
VERTEX
  8
0
 62
7
  6
CONTINUOUS
 10
458.7271804497
 20
608.9087873292
  0
VERTEX
  8
0
 62
7
  6
CONTINUOUS
 10
457.7363499407
 20
609.2121251721
  0
VERTEX
  8
0
 62
7
  6
CONTINUOUS
 10
456.7892149532
 20
609.4801368914
  0
VERTEX
  8
0
 62
7
  6
CONTINUOUS
 10
455.8854552613
 20
609.7112120041
  0
VERTEX
  8
0
 62
7
  6
CONTINUOUS
 10
455.0260315431
 20
609.9101819594
  0
VERTEX
  8
0
 62
7
  6
CONTINUOUS
 10
454.2119044769
 20
610.0818782062
  0
VERTEX
  8
0
 62
7
  6
CONTINUOUS
 10
453.4427538365
 20
610.2246902615
  0
SEQEND
  0
LINE
  8
0
 62
7
  6
CONTINUOUS
 10
461.1934554066
 20
605.4230978413
 11
460.9482395245
 21
605.5112793131
  0
LINE
  8
0
 62
7
  6
CONTINUOUS
 10
460.1783224085
 20
609.0862009173
 11
463.0170747995
 21
605.4236385554
  0
ARC
  8
0
 62
7
  6
CONTINUOUS
 10
428.2826181558
 20
104.9540276036
 40
496.6042842443
 50
80.1952628788
 51
98.2205342256
  0
ARC
  8
0
 62
7
  6
CONTINUOUS
 10
-5.5285257179
 20
-301.2028157533
 40
5.0
 50
211.9227201512
 51
270.0
  0
ARC
  8
0
 62
7
  6
CONTINUOUS
 10
-156.130483775
 20
151.6379841235
 40
3.0000000016
 50
181.0000000017
 51
251.2505636038
  0
ARC
  8
0
 62
7
  6
CONTINUOUS
 10
-156.5204917935
 20
173.9815285356
 40
3.0000000016
 50
91.5396709128
 51
181.0
  0
ARC
  8
0
 62
7
  6
CONTINUOUS
 10
-156.2734934694
 20
159.8310040278
 40
3.0000000015
 50
91.585589843
 51
181.0000000009
  0
ARC
  8
0
 62
7
  6
CONTINUOUS
 10
-156.3782133774
 20
165.8304035387
 40
3.0
 50
181.0000000006
 51
271.5855898436
  0
ARC
  8
0
 62
7
  6
CONTINUOUS
 10
428.2833876223
 20
104.9540276036
 40
496.6042842443
 50
80.2044875417
 51
85.1129646327
  0
ARC
  8
0
 62
7
  6
CONTINUOUS
 10
428.2833876223
 20
104.9540276036
 40
496.6042842443
 50
91.7531374761
 51
98.2205342256
  0
ARC
  8
0
 62
7
  6
CONTINUOUS
 10
497.1501442492
 20
-301.2028157533
 40
5.0
 50
270.0
 51
360.0
  0
ARC
  8
0
 62
7
  6
CONTINUOUS
 10
245.216238619
 20
201.5819166841
 40
45.7400187523
 50
271.027331099
 51
297.2106785153
  0
ARC
  8
0
 62
7
  6
CONTINUOUS
 10
270.0995812092
 20
177.833109414
 40
13.2412153783
 50
297.2106785153
 51
159.8709511555
  0
ARC
  8
0
 62
7
  6
CONTINUOUS
 10
245.6009669033
 20
186.8124158605
 40
12.8511215651
 50
271.5855898436
 51
339.8709511555
  0
ARC
  8
0
 62
7
  6
CONTINUOUS
 10
360.197711027
 20
170.7971842467
 40
8.0000000028
 50
179.2903536189
 51
269.9999999999
  0
ARC
  8
0
 62
7
  6
CONTINUOUS
 10
368.7365987089
 20
154.7971842467
 40
8.0
 50
90.0
 51
172.8192442185
  0
ARC
  8
0
 62
7
  6
CONTINUOUS
 10
352.8620908425
 20
156.7971842467
 40
8.0
 50
270.0
 51
352.8192442185
  0
ARC
  8
0
 62
7
  6
CONTINUOUS
 10
252.4494906204
 20
182.9734273572
 40
5.0
 50
330.7268807753
 51
91.5396709128
  0
ARC
  8
0
 62
7
  6
CONTINUOUS
 10
358.7069270724
 20
586.5584872547
 40
9.9999999963
 50
98.2205210445
 51
179.0000000008
  0
ARC
  8
0
 62
7
  6
CONTINUOUS
 10
353.3088653747
 20
563.7971842467
 40
5.0
 50
179.0
 51
270.0
  0
ARC
  8
0
 62
7
  6
CONTINUOUS
 10
354.2490579342
 20
553.7971842467
 40
5.0
 50
89.9999999968
 51
182.8067365182
  0
ARC
  8
0
 62
7
  6
CONTINUOUS
 10
508.9900158697
 20
167.7971849765
 40
4.9999987836
 50
269.999999854
 51
358.9999916354
  0
ARC
  8
0
 62
7
  6
CONTINUOUS
 10
497.1501442492
 20
157.7971806836
 40
4.9999938261
 50
0.0
 51
90.0
  0
ARC
  8
0
 62
7
  6
CONTINUOUS
 10
441.5540894325
 20
534.1012284937
 40
77.2632392753
 50
98.8744770456
 51
103.9484663514
  0
ARC
  8
0
 62
7
  6
CONTINUOUS
 10
441.5540894325
 20
534.1012284937
 40
77.2632392753
 50
76.0515336486
 51
81.1255229544
  0
ARC
  8
0
 62
7
  6
CONTINUOUS
 10
441.5540894325
 20
534.1012284937
 40
77.2628656098
 50
82.7374036211
 51
97.2625963789
  0
ARC
  8
0
 62
7
  6
CONTINUOUS
 10
441.5540894325
 20
534.1012284937
 40
77.0596834461
 50
82.7181508037
 51
97.2818491963
  0
ARC
  8
0
 62
7
  6
CONTINUOUS
 10
512.3675709205
 20
563.7971842467
 40
5.0
 50
270.0
 51
1.0
  0
ARC
  8
0
 62
7
  6
CONTINUOUS
 10
515.7276709192
 20
553.7971842467
 40
5.0
 50
359.0
 51
90.0
  0
ARC
  8
0
 62
7
  6
CONTINUOUS
 10
511.9208224758
 20
589.391385505
 40
4.9999999996
 50
0.9999999997
 51
80.2045285327
  0
ARC
  8
0
 62
7
  6
CONTINUOUS
 10
414.739505273
 20
602.9257710329
 40
1.0
 50
105.2723793093
 51
160.0
  0
ARC
  8
0
 62
7
  6
CONTINUOUS
 10
468.368673592
 20
602.9257710329
 40
1.0
 50
20.0
 51
74.7276206907
  0
ENDSEC
  0
EOF
