999
DXF file: K:\Client\125_Heirloom\001\00\Final_Data\Drawings\TOILETS\heiko-374120d_3.dxf
999
Pro/ENGINEER 2017110 by Parametric Technology Corporation
  0
SECTION
  2
HEADER
  9
$EXTMAX
 10
420.0
 20
297.0
 30
0.0
  9
$EXTMIN
 10
0.0
 20
0.0
 30
0.0
  9
$LIMMIN
 10
0.0
 20
0.0
  9
$LIMMAX
 10
420.0
 20
297.0
  9
$VIEWCTR
 10
210.0
 20
148.5
  9
$VIEWSIZE
 40
297.0
  9
$CLAYER
  8
0
  9
$LTSCALE
 40
23.1
  9
$CELTYPE
  6
BYLAYER
  9
$DIMSCALE
 40
1.0
  9
$DIMASZ
 40
3.0
  9
$DIMEXO
 40
1.0
  9
$DIMDLI
 40
15.96
  9
$DIMEXE
 40
1.0
  9
$DIMCEN
 40
3.78
  9
$DIMLFAC
 40
1.0
  9
$DIMBLK
  1
_FILLED
  9
$DIMALT
 70
0
  9
$DIMALTF
 40
0.0393700787
  9
$DIMTXT
 40
3.0
  9
$AUNITS
 70
0
  9
$PDMODE
 70
3
  9
$PDSIZE
 40
5.0
  9
$TILEMODE
 70
1
  0
ENDSEC
  0
SECTION
  2
TABLES
  0
TABLE
  2
LTYPE
 70
6
  0
LTYPE
  2
BYBLOCK
 70
0
  3

 72
65
 73
0
 40
0.0
  0
LTYPE
  2
BYLAYER
 70
0
  3

 72
65
 73
0
 40
0.0
  0
LTYPE
  2
CONTINUOUS
 70
64
  3
Solid line
 72
65
 73
0
 40
0.0
  0
LTYPE
  2
CENTER
 70
64
  3
____ _ ____ _ ____ _ ____ _ ____ _ ____ _ ____
 72
65
 73
4
 40
0.6
 49
0.375
 49
-0.075
 49
0.075
 49
-0.075
  0
LTYPE
  2
HIDDEN
 70
64
  3
- - - - - - - - - - - - - - - - - - - -
 72
65
 73
2
 40
0.2
 49
0.1
 49
-0.1
  0
LTYPE
  2
PHANTOM
 70
64
  3
_____ _ _ _____ _ _ _____ _ _ _____
 72
65
 73
6
 40
0.8
 49
0.45
 49
-0.05
 49
0.1
 49
-0.05
 49
0.1
 49
-0.05
  0
LTYPE
  2
DOT
 70
64
  3
. . . . . . . . . . . . . . . . . . . .
 72
65
 73
2
 40
0.2
 49
0.1
 49
-0.1
  0
LTYPE
  2
DASHED
 70
64
  3
- - - - - - - - - - - - - - - - - - - -
 72
65
 73
2
 40
0.2
 49
0.1
 49
-0.1
  0
ENDTAB
  0
TABLE
  2
LAYER
 70
36
  0
LAYER
  2
0
 70
0
 62
7
  6
CONTINUOUS
  0
LAYER
  2
DEFAULT_1
 70
0
 62
7
  6
CENTER
  0
LAYER
  2
DEFAULT_2
 70
0
 62
8
  6
HIDDEN
  0
LAYER
  2
DEFAULT_3
 70
0
 62
7
  6
PHANTOM
  0
LAYER
  2
0000_BOM
 70
0
 62
7
  6
CONTINUOUS
  0
LAYER
  2
0000_REV_TABLE
 70
0
 62
7
  6
CONTINUOUS
  0
LAYER
  2
0000_STEVENS_NOTE
 70
0
 62
7
  6
CONTINUOUS
  0
LAYER
  2
01_DATUM_PLANES
 70
0
 62
7
  6
CONTINUOUS
  0
LAYER
  2
01_DEF_PLANES
 70
0
 62
7
  6
CONTINUOUS
  0
LAYER
  2
02_DATUM_COS
 70
0
 62
7
  6
CONTINUOUS
  0
LAYER
  2
90_IMP_FEAT
 70
0
 62
7
  6
CONTINUOUS
  0
LAYER
  2
95_STL
 70
0
 62
7
  6
CONTINUOUS
  0
LAYER
  2
99_SOLID
 70
0
 62
7
  6
CONTINUOUS
  0
LAYER
  2
CAD-MASTER_ZINC-PL
 70
0
 62
7
  6
CONTINUOUS
  0
LAYER
  2
CURVE
 70
0
 62
7
  6
CONTINUOUS
  0
LAYER
  2
SHELL
 70
0
 62
7
  6
CONTINUOUS
  0
LAYER
  2
SKEL
 70
0
 62
7
  6
CONTINUOUS
  0
LAYER
  2
SKETCH
 70
0
 62
7
  6
CONTINUOUS
  0
LAYER
  2
SURFACE
 70
0
 62
7
  6
CONTINUOUS
  0
ENDTAB
  0
TABLE
  2
STYLE
 70
1
  0
STYLE
  2
STANDARD
 70
0
 40
0.0
 41
0.75
 50
0.0
 71
0
 42
0.2
  3
txt
  4

  0
STYLE
  2
TEXTSTYLE_1
 70
0
 40
0.0
 41
0.8
 50
0.0
 71
0
 42
0.2
  3
gdt
  4

  0
ENDTAB
  0
ENDSEC
  0
SECTION
  2
BLOCKS
  0
BLOCK
  8
0
 62
5
  6
CONTINUOUS
  2
PLUMBING_BL1
 70
64
 10
186.0327043836
 20
475.6552979888
  0
CIRCLE
  8
0
 62
5
  6
CONTINUOUS
 10
186.0327043836
 20
475.6552979888
 40
12.5
  0
LINE
  8
0
 62
5
  6
CONTINUOUS
 10
198.5327043836
 20
488.1552979888
 11
173.5327043836
 21
463.1552979888
  0
LINE
  8
0
 62
5
  6
CONTINUOUS
 10
186.0327043836
 20
475.6552979888
 11
173.5327043836
 21
488.1552979888
  0
LINE
  8
0
 62
5
  6
CONTINUOUS
 10
186.0327043836
 20
475.6552979888
 11
198.5327043836
 21
463.1552979888
  0
ENDBLK
  8
0
  6
BYBLOCK
 62
0
  0
BLOCK
  8
0
 62
1
  6
CONTINUOUS
  2
PLUMBING_BL0
 70
64
 10
186.0327043836
 20
289.3347428354
  0
CIRCLE
  8
0
 62
1
  6
CONTINUOUS
 10
186.0327043836
 20
289.3347428354
 40
12.5
  0
LINE
  8
0
 62
1
  6
CONTINUOUS
 10
198.5327043836
 20
301.8347428354
 11
173.5327043836
 21
276.8347428354
  0
LINE
  8
0
 62
1
  6
CONTINUOUS
 10
186.0327043836
 20
289.3347428354
 11
173.5327043836
 21
301.8347428354
  0
LINE
  8
0
 62
1
  6
CONTINUOUS
 10
186.0327043836
 20
289.3347428354
 11
198.5327043836
 21
276.8347428354
  0
ENDBLK
  8
0
  6
BYBLOCK
 62
0
  0
ENDSEC
  0
SECTION
  2
ENTITIES
  0
INSERT
  8
0
 62
1
  6
CONTINUOUS
  2
PLUMBING_BL0
 10
186.0327043836
 20
289.3347428354
  0
INSERT
  8
0
 62
5
  6
CONTINUOUS
  2
PLUMBING_BL1
 10
186.0327043836
 20
475.6552979888
  0
POLYLINE
  8
0
 62
7
  6
CONTINUOUS
 66
1
 70
0
  0
VERTEX
  8
0
 62
7
  6
CONTINUOUS
 10
99.9386953275
 20
-167.9837488894
  0
VERTEX
  8
0
 62
7
  6
CONTINUOUS
 10
99.3608166597
 20
-167.6680021236
  0
VERTEX
  8
0
 62
7
  6
CONTINUOUS
 10
98.7186464871
 20
-167.3147463785
  0
VERTEX
  8
0
 62
7
  6
CONTINUOUS
 10
98.0096875553
 20
-166.9218081772
  0
VERTEX
  8
0
 62
7
  6
CONTINUOUS
 10
97.2371705357
 20
-166.4900859678
  0
VERTEX
  8
0
 62
7
  6
CONTINUOUS
 10
96.3897183465
 20
-166.0121629554
  0
VERTEX
  8
0
 62
7
  6
CONTINUOUS
 10
95.4617565947
 20
-165.4835728666
  0
VERTEX
  8
0
 62
7
  6
CONTINUOUS
 10
94.4445133172
 20
-164.8977025664
  0
VERTEX
  8
0
 62
7
  6
CONTINUOUS
 10
93.3290393353
 20
-164.2473975885
  0
VERTEX
  8
0
 62
7
  6
CONTINUOUS
 10
92.1037352099
 20
-163.5234004375
  0
VERTEX
  8
0
 62
7
  6
CONTINUOUS
 10
90.7556175432
 20
-162.7148918928
  0
VERTEX
  8
0
 62
7
  6
CONTINUOUS
 10
89.2694458813
 20
-161.808730511
  0
VERTEX
  8
0
 62
7
  6
CONTINUOUS
 10
87.6276081724
 20
-160.7890432775
  0
VERTEX
  8
0
 62
7
  6
CONTINUOUS
 10
85.8095438322
 20
-159.6364076106
  0
VERTEX
  8
0
 62
7
  6
CONTINUOUS
 10
83.7911709836
 20
-158.3268387685
  0
VERTEX
  8
0
 62
7
  6
CONTINUOUS
 10
81.5441000145
 20
-156.8303527508
  0
VERTEX
  8
0
 62
7
  6
CONTINUOUS
 10
79.0347480632
 20
-155.1090270632
  0
VERTEX
  8
0
 62
7
  6
CONTINUOUS
 10
76.2234780048
 20
-153.1144198994
  0
VERTEX
  8
0
 62
7
  6
CONTINUOUS
 10
73.0616862496
 20
-150.7824414241
  0
VERTEX
  8
0
 62
7
  6
CONTINUOUS
 10
69.5272828077
 20
-148.0565224854
  0
VERTEX
  8
0
 62
7
  6
CONTINUOUS
 10
65.8096658341
 20
-145.0423274538
  0
VERTEX
  8
0
 62
7
  6
CONTINUOUS
 10
62.1716957784
 20
-141.9334024283
  0
VERTEX
  8
0
 62
7
  6
CONTINUOUS
 10
58.6789433468
 20
-138.7858481089
  0
VERTEX
  8
0
 62
7
  6
CONTINUOUS
 10
55.3301800754
 20
-135.603327956
  0
VERTEX
  8
0
 62
7
  6
CONTINUOUS
 10
52.1185906396
 20
-132.3840963785
  0
VERTEX
  8
0
 62
7
  6
CONTINUOUS
 10
49.0383532615
 20
-129.1266065467
  0
VERTEX
  8
0
 62
7
  6
CONTINUOUS
 10
46.0847167189
 20
-125.829754824
  0
VERTEX
  8
0
 62
7
  6
CONTINUOUS
 10
43.2529173797
 20
-122.4917807072
  0
VERTEX
  8
0
 62
7
  6
CONTINUOUS
 10
40.5389788163
 20
-119.1111728682
  0
VERTEX
  8
0
 62
7
  6
CONTINUOUS
 10
37.939300851
 20
-115.6862647584
  0
VERTEX
  8
0
 62
7
  6
CONTINUOUS
 10
35.4500883193
 20
-112.2144371513
  0
VERTEX
  8
0
 62
7
  6
CONTINUOUS
 10
33.0681128657
 20
-108.6930574274
  0
VERTEX
  8
0
 62
7
  6
CONTINUOUS
 10
30.7911324496
 20
-105.1202388051
  0
VERTEX
  8
0
 62
7
  6
CONTINUOUS
 10
28.6166149855
 20
-101.4929624278
  0
VERTEX
  8
0
 62
7
  6
CONTINUOUS
 10
26.5428636645
 20
-97.8088276717
  0
VERTEX
  8
0
 62
7
  6
CONTINUOUS
 10
24.5677198899
 20
-94.0638023536
  0
VERTEX
  8
0
 62
7
  6
CONTINUOUS
 10
22.6894975162
 20
-90.2536688293
  0
VERTEX
  8
0
 62
7
  6
CONTINUOUS
 10
20.9077775224
 20
-86.3758459701
  0
VERTEX
  8
0
 62
7
  6
CONTINUOUS
 10
19.2208789388
 20
-82.4239738637
  0
VERTEX
  8
0
 62
7
  6
CONTINUOUS
 10
17.6305873649
 20
-78.3988734754
  0
VERTEX
  8
0
 62
7
  6
CONTINUOUS
 10
16.1917001379
 20
-74.4535668717
  0
VERTEX
  8
0
 62
7
  6
CONTINUOUS
 10
14.9807721347
 20
-70.8617712971
  0
VERTEX
  8
0
 62
7
  6
CONTINUOUS
 10
13.9867755562
 20
-67.6891038352
  0
VERTEX
  8
0
 62
7
  6
CONTINUOUS
 10
13.1604961731
 20
-64.8676774844
  0
VERTEX
  8
0
 62
7
  6
CONTINUOUS
 10
12.4670418039
 20
-62.347461535
  0
VERTEX
  8
0
 62
7
  6
CONTINUOUS
 10
11.8799038181
 20
-60.0866907917
  0
VERTEX
  8
0
 62
7
  6
CONTINUOUS
 10
11.3789739294
 20
-58.0514738967
  0
VERTEX
  8
0
 62
7
  6
CONTINUOUS
 10
10.9486609839
 20
-56.2135672055
  0
VERTEX
  8
0
 62
7
  6
CONTINUOUS
 10
10.576745755
 20
-54.5493209025
  0
VERTEX
  8
0
 62
7
  6
CONTINUOUS
 10
10.2535288651
 20
-53.0387101193
  0
VERTEX
  8
0
 62
7
  6
CONTINUOUS
 10
9.9712312642
 20
-51.6646491505
  0
VERTEX
  8
0
 62
7
  6
CONTINUOUS
 10
9.7235694263
 20
-50.4125308011
  0
VERTEX
  8
0
 62
7
  6
CONTINUOUS
 10
9.5054348528
 20
-49.2698483606
  0
VERTEX
  8
0
 62
7
  6
CONTINUOUS
 10
9.3126159389
 20
-48.2256965087
  0
VERTEX
  8
0
 62
7
  6
CONTINUOUS
 10
9.1416015891
 20
-47.2704343233
  0
VERTEX
  8
0
 62
7
  6
CONTINUOUS
 10
8.9894528919
 20
-46.3955366587
  0
VERTEX
  8
0
 62
7
  6
CONTINUOUS
 10
8.853694231
 20
-45.5934262063
  0
VERTEX
  8
0
 62
7
  6
CONTINUOUS
 10
8.7322296545
 20
-44.8573472129
  0
VERTEX
  8
0
 62
7
  6
CONTINUOUS
 10
8.6232803968
 20
-44.1812857953
  0
VERTEX
  8
0
 62
7
  6
CONTINUOUS
 10
8.5253241988
 20
-43.5598373131
  0
VERTEX
  8
0
 62
7
  6
CONTINUOUS
 10
8.4370568946
 20
-42.9881596603
  0
VERTEX
  8
0
 62
7
  6
CONTINUOUS
 10
8.3573672423
 20
-42.4619757962
  0
VERTEX
  8
0
 62
7
  6
CONTINUOUS
 10
8.2852801413
 20
-41.9773343519
  0
VERTEX
  8
0
 62
7
  6
CONTINUOUS
 10
8.219931757
 20
-41.5305427809
  0
VERTEX
  8
0
 62
7
  6
CONTINUOUS
 10
8.1605938378
 20
-41.1184230503
  0
VERTEX
  8
0
 62
7
  6
CONTINUOUS
 10
8.1066780568
 20
-40.7384350644
  0
VERTEX
  8
0
 62
7
  6
CONTINUOUS
 10
8.0576536374
 20
-40.3881709823
  0
VERTEX
  8
0
 62
7
  6
CONTINUOUS
 10
8.0129770868
 20
-40.0648851719
  0
VERTEX
  8
0
 62
7
  6
CONTINUOUS
 10
7.9721736547
 20
-39.7661038999
  0
VERTEX
  8
0
 62
7
  6
CONTINUOUS
 10
7.934893001
 20
-39.4900839608
  0
VERTEX
  8
0
 62
7
  6
CONTINUOUS
 10
7.9008091803
 20
-39.2351216519
  0
VERTEX
  8
0
 62
7
  6
CONTINUOUS
 10
7.8696761523
 20
-38.9999921052
  0
VERTEX
  8
0
 62
7
  6
CONTINUOUS
 10
7.8412442298
 20
-38.783345195
  0
VERTEX
  8
0
 62
7
  6
CONTINUOUS
 10
7.8152454151
 20
-38.5835976023
  0
VERTEX
  8
0
 62
7
  6
CONTINUOUS
 10
7.7914290546
 20
-38.3992115707
  0
VERTEX
  8
0
 62
7
  6
CONTINUOUS
 10
7.7696446681
 20
-38.2293553156
  0
VERTEX
  8
0
 62
7
  6
CONTINUOUS
 10
7.7497608819
 20
-38.0732974541
  0
SEQEND
  0
POLYLINE
  8
0
 62
7
  6
CONTINUOUS
 66
1
 70
0
  0
VERTEX
  8
0
 62
7
  6
CONTINUOUS
 10
7.749865659
 20
-38.0735297634
  0
VERTEX
  8
0
 62
7
  6
CONTINUOUS
 10
7.5134096012
 20
-36.190612431
  0
VERTEX
  8
0
 62
7
  6
CONTINUOUS
 10
7.2588169938
 20
-34.1116922861
  0
VERTEX
  8
0
 62
7
  6
CONTINUOUS
 10
6.9948072794
 20
-31.8950430283
  0
VERTEX
  8
0
 62
7
  6
CONTINUOUS
 10
6.7294189931
 20
-29.5991375967
  0
VERTEX
  8
0
 62
7
  6
CONTINUOUS
 10
6.4700139392
 20
-27.2835291118
  0
VERTEX
  8
0
 62
7
  6
CONTINUOUS
 10
6.2242754363
 20
-25.018696474
  0
VERTEX
  8
0
 62
7
  6
CONTINUOUS
 10
5.9990688326
 20
-22.8765632827
  0
VERTEX
  8
0
 62
7
  6
CONTINUOUS
 10
5.7972918677
 20
-20.8983271102
  0
VERTEX
  8
0
 62
7
  6
CONTINUOUS
 10
5.6195170154
 20
-19.1052472068
  0
VERTEX
  8
0
 62
7
  6
CONTINUOUS
 10
5.4610093731
 20
-17.4636747795
  0
VERTEX
  8
0
 62
7
  6
CONTINUOUS
 10
5.3158149711
 20
-15.9218660312
  0
VERTEX
  8
0
 62
7
  6
CONTINUOUS
 10
5.1810392994
 20
-14.4557213837
  0
VERTEX
  8
0
 62
7
  6
CONTINUOUS
 10
5.0553990143
 20
-13.0565113133
  0
VERTEX
  8
0
 62
7
  6
CONTINUOUS
 10
4.9377113069
 20
-11.7155378086
  0
VERTEX
  8
0
 62
7
  6
CONTINUOUS
 10
4.8268593312
 20
-10.4238379275
  0
VERTEX
  8
0
 62
7
  6
CONTINUOUS
 10
4.721857544
 20
-9.1730351952
  0
VERTEX
  8
0
 62
7
  6
CONTINUOUS
 10
4.6220781516
 20
-7.9582732075
  0
VERTEX
  8
0
 62
7
  6
CONTINUOUS
 10
4.5270309716
 20
-6.7758956181
  0
VERTEX
  8
0
 62
7
  6
CONTINUOUS
 10
4.4363137647
 20
-5.6229730597
  0
VERTEX
  8
0
 62
7
  6
CONTINUOUS
 10
4.3496008682
 20
-4.4972942045
  0
VERTEX
  8
0
 62
7
  6
CONTINUOUS
 10
4.2665717015
 20
-3.3965799461
  0
VERTEX
  8
0
 62
7
  6
CONTINUOUS
 10
4.1869071007
 20
-2.3183269661
  0
VERTEX
  8
0
 62
7
  6
CONTINUOUS
 10
4.1103014651
 20
-1.2599438129
  0
VERTEX
  8
0
 62
7
  6
CONTINUOUS
 10
4.0365523252
 20
-0.2200356106
  0
VERTEX
  8
0
 62
7
  6
CONTINUOUS
 10
3.9656012973
 20
0.800861857
  0
VERTEX
  8
0
 62
7
  6
CONTINUOUS
 10
3.8973710793
 20
1.8024950092
  0
VERTEX
  8
0
 62
7
  6
CONTINUOUS
 10
3.8315861885
 20
2.7876339599
  0
VERTEX
  8
0
 62
7
  6
CONTINUOUS
 10
3.7679778468
 20
3.7592126393
  0
VERTEX
  8
0
 62
7
  6
CONTINUOUS
 10
3.7064115695
 20
4.7183223091
  0
VERTEX
  8
0
 62
7
  6
CONTINUOUS
 10
3.6469133536
 20
5.663594161
  0
VERTEX
  8
0
 62
7
  6
CONTINUOUS
 10
3.5895069965
 20
6.5936128023
  0
VERTEX
  8
0
 62
7
  6
CONTINUOUS
 10
3.5340657055
 20
7.5093930738
  0
VERTEX
  8
0
 62
7
  6
CONTINUOUS
 10
3.4804388475
 20
8.4124673355
  0
VERTEX
  8
0
 62
7
  6
CONTINUOUS
 10
3.4284862916
 20
9.3043346075
  0
VERTEX
  8
0
 62
7
  6
CONTINUOUS
 10
3.3780721921
 20
10.1865596055
  0
VERTEX
  8
0
 62
7
  6
CONTINUOUS
 10
3.3290986193
 20
11.0601665406
  0
VERTEX
  8
0
 62
7
  6
CONTINUOUS
 10
3.2815911379
 20
11.9240091189
  0
VERTEX
  8
0
 62
7
  6
CONTINUOUS
 10
3.2355853748
 20
12.7766794041
  0
VERTEX
  8
0
 62
7
  6
CONTINUOUS
 10
3.1910636275
 20
13.6176962777
  0
VERTEX
  8
0
 62
7
  6
CONTINUOUS
 10
3.1479124802
 20
14.4484235937
  0
VERTEX
  8
0
 62
7
  6
CONTINUOUS
 10
3.1060189517
 20
15.2703432313
  0
VERTEX
  8
0
 62
7
  6
CONTINUOUS
 10
3.0653115361
 20
16.0842319659
  0
VERTEX
  8
0
 62
7
  6
CONTINUOUS
 10
3.0257240256
 20
16.8908323175
  0
VERTEX
  8
0
 62
7
  6
CONTINUOUS
 10
2.9871960956
 20
17.6908339121
  0
VERTEX
  8
0
 62
7
  6
CONTINUOUS
 10
2.9497122983
 20
18.4840325079
  0
VERTEX
  8
0
 62
7
  6
CONTINUOUS
 10
2.9132761924
 20
19.2698051484
  0
VERTEX
  8
0
 62
7
  6
CONTINUOUS
 10
2.8779196341
 20
20.0468645324
  0
VERTEX
  8
0
 62
7
  6
CONTINUOUS
 10
2.8436824005
 20
20.8136586661
  0
VERTEX
  8
0
 62
7
  6
CONTINUOUS
 10
2.8105236715
 20
21.5703901919
  0
VERTEX
  8
0
 62
7
  6
CONTINUOUS
 10
2.7782895256
 20
22.3199513544
  0
VERTEX
  8
0
 62
7
  6
CONTINUOUS
 10
2.7468425521
 20
23.0650770082
  0
VERTEX
  8
0
 62
7
  6
CONTINUOUS
 10
2.7161407745
 20
23.8063958273
  0
VERTEX
  8
0
 62
7
  6
CONTINUOUS
 10
2.6861760557
 20
24.5437505133
  0
VERTEX
  8
0
 62
7
  6
CONTINUOUS
 10
2.657010827
 20
25.2751903583
  0
VERTEX
  8
0
 62
7
  6
CONTINUOUS
 10
2.6287914396
 20
25.9964549495
  0
VERTEX
  8
0
 62
7
  6
CONTINUOUS
 10
2.6015854843
 20
26.7050393759
  0
VERTEX
  8
0
 62
7
  6
CONTINUOUS
 10
2.5751680573
 20
27.4060986867
  0
VERTEX
  8
0
 62
7
  6
CONTINUOUS
 10
2.5492523452
 20
28.1068673424
  0
VERTEX
  8
0
 62
7
  6
CONTINUOUS
 10
2.5238040442
 20
28.8081135844
  0
VERTEX
  8
0
 62
7
  6
CONTINUOUS
 10
2.499042471
 20
29.5034745209
  0
VERTEX
  8
0
 62
7
  6
CONTINUOUS
 10
2.4751163135
 20
30.1881399617
  0
VERTEX
  8
0
 62
7
  6
CONTINUOUS
 10
2.4519236247
 20
30.8643250589
  0
VERTEX
  8
0
 62
7
  6
CONTINUOUS
 10
2.4293232986
 20
31.5356095221
  0
VERTEX
  8
0
 62
7
  6
CONTINUOUS
 10
2.4072567359
 20
32.2033390846
  0
VERTEX
  8
0
 62
7
  6
CONTINUOUS
 10
2.3857536053
 20
32.8662232078
  0
VERTEX
  8
0
 62
7
  6
CONTINUOUS
 10
2.3648168376
 20
33.5237286104
  0
VERTEX
  8
0
 62
7
  6
CONTINUOUS
 10
2.344423755
 20
34.1761184017
  0
VERTEX
  8
0
 62
7
  6
CONTINUOUS
 10
2.3245538413
 20
34.8236147813
  0
VERTEX
  8
0
 62
7
  6
CONTINUOUS
 10
2.3052126788
 20
35.4655921481
  0
VERTEX
  8
0
 62
7
  6
CONTINUOUS
 10
2.2864157264
 20
36.1010511836
  0
VERTEX
  8
0
 62
7
  6
CONTINUOUS
 10
2.2681441106
 20
36.7301229877
  0
VERTEX
  8
0
 62
7
  6
CONTINUOUS
 10
2.2503103942
 20
37.3553876463
  0
VERTEX
  8
0
 62
7
  6
CONTINUOUS
 10
2.2328295511
 20
37.9795403023
  0
VERTEX
  8
0
 62
7
  6
CONTINUOUS
 10
2.2157441335
 20
38.6007998361
  0
VERTEX
  8
0
 62
7
  6
CONTINUOUS
 10
2.199185014
 20
39.2139554276
  0
VERTEX
  8
0
 62
7
  6
CONTINUOUS
 10
2.183198684
 20
39.8166326669
  0
VERTEX
  8
0
 62
7
  6
CONTINUOUS
 10
2.1676247142
 20
40.4143175077
  0
VERTEX
  8
0
 62
7
  6
CONTINUOUS
 10
2.1522842309
 20
41.0136389364
  0
VERTEX
  8
0
 62
7
  6
CONTINUOUS
 10
2.1371914892
 20
41.6139631667
  0
VERTEX
  8
0
 62
7
  6
CONTINUOUS
 10
2.122521622
 20
42.2080336043
  0
VERTEX
  8
0
 62
7
  6
CONTINUOUS
 10
2.1083669302
 20
42.7915134796
  0
VERTEX
  8
0
 62
7
  6
CONTINUOUS
 10
2.0946551788
 20
43.3667366663
  0
VERTEX
  8
0
 62
7
  6
CONTINUOUS
 10
2.0812880065
 20
43.9373508415
  0
VERTEX
  8
0
 62
7
  6
CONTINUOUS
 10
2.068161041
 20
44.5075395258
  0
VERTEX
  8
0
 62
7
  6
CONTINUOUS
 10
2.0551843086
 20
45.0811467252
  0
VERTEX
  8
0
 62
7
  6
CONTINUOUS
 10
2.0423632602
 20
45.6579596017
  0
VERTEX
  8
0
 62
7
  6
CONTINUOUS
 10
2.029969526
 20
46.2254481468
  0
VERTEX
  8
0
 62
7
  6
CONTINUOUS
 10
2.0182756591
 20
46.7701540935
  0
VERTEX
  8
0
 62
7
  6
CONTINUOUS
 10
2.0071020366
 20
47.2993393466
  0
VERTEX
  8
0
 62
7
  6
CONTINUOUS
 10
1.9959729575
 20
47.8351836048
  0
VERTEX
  8
0
 62
7
  6
CONTINUOUS
 10
1.9846336295
 20
48.390477246
  0
VERTEX
  8
0
 62
7
  6
CONTINUOUS
 10
1.973423977
 20
48.9490130793
  0
VERTEX
  8
0
 62
7
  6
CONTINUOUS
 10
1.9627219479
 20
49.4914820279
  0
VERTEX
  8
0
 62
7
  6
CONTINUOUS
 10
1.9525933012
 20
50.0134855246
  0
VERTEX
  8
0
 62
7
  6
CONTINUOUS
 10
1.9429039018
 20
50.5209470816
  0
VERTEX
  8
0
 62
7
  6
CONTINUOUS
 10
1.9334831319
 20
51.0221834193
  0
VERTEX
  8
0
 62
7
  6
CONTINUOUS
 10
1.9240635181
 20
51.5313449034
  0
VERTEX
  8
0
 62
7
  6
CONTINUOUS
 10
1.914421934
 20
52.0610499755
  0
VERTEX
  8
0
 62
7
  6
CONTINUOUS
 10
1.904751288
 20
52.6013294686
  0
VERTEX
  8
0
 62
7
  6
CONTINUOUS
 10
1.8955359312
 20
53.1248226038
  0
VERTEX
  8
0
 62
7
  6
CONTINUOUS
 10
1.8870102869
 20
53.6168992008
  0
VERTEX
  8
0
 62
7
  6
CONTINUOUS
 10
1.8789458179
 20
54.0894386777
  0
VERTEX
  8
0
 62
7
  6
CONTINUOUS
 10
1.8710772967
 20
54.5573279022
  0
VERTEX
  8
0
 62
7
  6
CONTINUOUS
 10
1.8631929635
 20
55.0331211198
  0
VERTEX
  8
0
 62
7
  6
CONTINUOUS
 10
1.8551196115
 20
55.5277546932
  0
VERTEX
  8
0
 62
7
  6
CONTINUOUS
 10
1.846840038
 20
56.0430676042
  0
VERTEX
  8
0
 62
7
  6
CONTINUOUS
 10
1.8386626281
 20
56.5602591548
  0
VERTEX
  8
0
 62
7
  6
CONTINUOUS
 10
1.8309050874
 20
57.0586875033
  0
VERTEX
  8
0
 62
7
  6
CONTINUOUS
 10
1.82368677
 20
57.5294784926
  0
VERTEX
  8
0
 62
7
  6
CONTINUOUS
 10
1.8170266384
 20
57.9700153352
  0
VERTEX
  8
0
 62
7
  6
CONTINUOUS
 10
1.8108111754
 20
58.3865966027
  0
VERTEX
  8
0
 62
7
  6
CONTINUOUS
 10
1.8047333752
 20
58.7991640595
  0
VERTEX
  8
0
 62
7
  6
CONTINUOUS
 10
1.7984973002
 20
59.2279535038
  0
VERTEX
  8
0
 62
7
  6
CONTINUOUS
 10
1.7919984332
 20
59.6808527356
  0
VERTEX
  8
0
 62
7
  6
CONTINUOUS
 10
1.7852901375
 20
60.1549710662
  0
VERTEX
  8
0
 62
7
  6
CONTINUOUS
 10
1.7784993526
 20
60.6419455446
  0
VERTEX
  8
0
 62
7
  6
CONTINUOUS
 10
1.7719502271
 20
61.1184541796
  0
VERTEX
  8
0
 62
7
  6
CONTINUOUS
 10
1.7659073609
 20
61.5642494941
  0
VERTEX
  8
0
 62
7
  6
CONTINUOUS
 10
1.7602787159
 20
61.9848901227
  0
VERTEX
  8
0
 62
7
  6
CONTINUOUS
 10
1.7548791097
 20
62.3934133469
  0
VERTEX
  8
0
 62
7
  6
CONTINUOUS
 10
1.749627671
 20
62.7955137746
  0
VERTEX
  8
0
 62
7
  6
CONTINUOUS
 10
1.7445307169
 20
63.1903837905
  0
VERTEX
  8
0
 62
7
  6
CONTINUOUS
 10
1.7395789551
 20
63.5784208059
  0
VERTEX
  8
0
 62
7
  6
CONTINUOUS
 10
1.7346920838
 20
63.9657120491
  0
VERTEX
  8
0
 62
7
  6
CONTINUOUS
 10
1.7297772377
 20
64.3596401137
  0
VERTEX
  8
0
 62
7
  6
CONTINUOUS
 10
1.7247758211
 20
64.7651311032
  0
VERTEX
  8
0
 62
7
  6
CONTINUOUS
 10
1.7196642591
 20
65.1844496986
  0
VERTEX
  8
0
 62
7
  6
CONTINUOUS
 10
1.714427971
 20
65.6192157404
  0
VERTEX
  8
0
 62
7
  6
CONTINUOUS
 10
1.7090801198
 20
66.0687795754
  0
VERTEX
  8
0
 62
7
  6
CONTINUOUS
 10
1.7036365248
 20
66.5322255501
  0
VERTEX
  8
0
 62
7
  6
CONTINUOUS
 10
1.6980606493
 20
67.0131273373
  0
VERTEX
  8
0
 62
7
  6
CONTINUOUS
 10
1.6922798114
 20
67.5184219912
  0
VERTEX
  8
0
 62
7
  6
CONTINUOUS
 10
1.6863604015
 20
68.0430136153
  0
VERTEX
  8
0
 62
7
  6
CONTINUOUS
 10
1.6805654782
 20
68.5637076457
  0
VERTEX
  8
0
 62
7
  6
CONTINUOUS
 10
1.6751012003
 20
69.061233828
  0
VERTEX
  8
0
 62
7
  6
CONTINUOUS
 10
1.6699193234
 20
69.5389712148
  0
VERTEX
  8
0
 62
7
  6
CONTINUOUS
 10
1.6649242609
 20
70.0049886191
  0
VERTEX
  8
0
 62
7
  6
CONTINUOUS
 10
1.6599042246
 20
70.4788144959
  0
VERTEX
  8
0
 62
7
  6
CONTINUOUS
 10
1.6545233083
 20
70.9928330557
  0
VERTEX
  8
0
 62
7
  6
CONTINUOUS
 10
1.6484930136
 20
71.5764500252
  0
VERTEX
  8
0
 62
7
  6
CONTINUOUS
 10
1.641896082
 20
72.2240816516
  0
VERTEX
  8
0
 62
7
  6
CONTINUOUS
 10
1.6349992291
 20
72.9113963063
  0
VERTEX
  8
0
 62
7
  6
CONTINUOUS
 10
1.6279156942
 20
73.6281564447
  0
VERTEX
  8
0
 62
7
  6
CONTINUOUS
 10
1.6206356946
 20
74.3761316497
  0
VERTEX
  8
0
 62
7
  6
CONTINUOUS
 10
1.613123498
 20
75.1598208924
  0
VERTEX
  8
0
 62
7
  6
CONTINUOUS
 10
1.6053391078
 20
75.9843201069
  0
VERTEX
  8
0
 62
7
  6
CONTINUOUS
 10
1.5972835876
 20
76.8504130269
  0
VERTEX
  8
0
 62
7
  6
CONTINUOUS
 10
1.5889907806
 20
77.7551057288
  0
VERTEX
  8
0
 62
7
  6
CONTINUOUS
 10
1.5804921167
 20
78.695241714
  0
VERTEX
  8
0
 62
7
  6
CONTINUOUS
 10
1.5718250606
 20
79.6665318408
  0
VERTEX
  8
0
 62
7
  6
CONTINUOUS
 10
1.5632018775
 20
80.6442577696
  0
VERTEX
  8
0
 62
7
  6
CONTINUOUS
 10
1.5549547938
 20
81.5886676396
  0
VERTEX
  8
0
 62
7
  6
CONTINUOUS
 10
1.5473809938
 20
82.4628477024
  0
VERTEX
  8
0
 62
7
  6
CONTINUOUS
 10
1.5406062869
 20
83.2494216978
  0
VERTEX
  8
0
 62
7
  6
CONTINUOUS
 10
1.5344181812
 20
83.9709503258
  0
VERTEX
  8
0
 62
7
  6
CONTINUOUS
 10
1.5285708952
 20
84.6547902798
  0
VERTEX
  8
0
 62
7
  6
CONTINUOUS
 10
1.5228259061
 20
85.3280208315
  0
VERTEX
  8
0
 62
7
  6
CONTINUOUS
 10
1.5170784668
 20
86.0023027752
  0
VERTEX
  8
0
 62
7
  6
CONTINUOUS
 10
1.5114469112
 20
86.6631699508
  0
VERTEX
  8
0
 62
7
  6
CONTINUOUS
 10
1.5060204661
 20
87.29961956
  0
VERTEX
  8
0
 62
7
  6
CONTINUOUS
 10
1.5008806321
 20
87.9016904709
  0
VERTEX
  8
0
 62
7
  6
CONTINUOUS
 10
1.496064994
 20
88.464740885
  0
VERTEX
  8
0
 62
7
  6
CONTINUOUS
 10
1.4915670136
 20
88.9894382768
  0
VERTEX
  8
0
 62
7
  6
CONTINUOUS
 10
1.4873783785
 20
89.4767601358
  0
VERTEX
  8
0
 62
7
  6
CONTINUOUS
 10
1.4834897353
 20
89.9278806934
  0
VERTEX
  8
0
 62
7
  6
CONTINUOUS
 10
1.4798511143
 20
90.3487171274
  0
VERTEX
  8
0
 62
7
  6
CONTINUOUS
 10
1.472900502
 20
91.1487082887
  0
SEQEND
  0
POLYLINE
  8
0
 62
7
  6
CONTINUOUS
 66
1
 70
0
  0
VERTEX
  8
0
 62
7
  6
CONTINUOUS
 10
-0.2086770769
 20
191.6565849031
  0
VERTEX
  8
0
 62
7
  6
CONTINUOUS
 10
-0.2327915848
 20
192.6866873335
  0
VERTEX
  8
0
 62
7
  6
CONTINUOUS
 10
-0.2574133522
 20
193.7377665878
  0
VERTEX
  8
0
 62
7
  6
CONTINUOUS
 10
-0.282467559
 20
194.8068250202
  0
SEQEND
  0
POLYLINE
  8
0
 62
7
  6
CONTINUOUS
 66
1
 70
0
  0
VERTEX
  8
0
 62
7
  6
CONTINUOUS
 10
-0.0887577058
 20
186.5163927866
  0
VERTEX
  8
0
 62
7
  6
CONTINUOUS
 10
-0.1051731073
 20
187.222325273
  0
VERTEX
  8
0
 62
7
  6
CONTINUOUS
 10
-0.1230809449
 20
187.9914619538
  0
VERTEX
  8
0
 62
7
  6
CONTINUOUS
 10
-0.1424445422
 20
188.8220819219
  0
VERTEX
  8
0
 62
7
  6
CONTINUOUS
 10
-0.2086770769
 20
191.6565849031
  0
SEQEND
  0
POLYLINE
  8
0
 62
7
  6
CONTINUOUS
 66
1
 70
0
  0
VERTEX
  8
0
 62
7
  6
CONTINUOUS
 10
-0.282467559
 20
194.8068250202
  0
VERTEX
  8
0
 62
7
  6
CONTINUOUS
 10
-0.486897526
 20
203.5421650219
  0
VERTEX
  8
0
 62
7
  6
CONTINUOUS
 10
-0.507749764
 20
204.4373479618
  0
VERTEX
  8
0
 62
7
  6
CONTINUOUS
 10
-0.5296311082
 20
205.3780541568
  0
VERTEX
  8
0
 62
7
  6
CONTINUOUS
 10
-0.5523898052
 20
206.3580781448
  0
VERTEX
  8
0
 62
7
  6
CONTINUOUS
 10
-0.5753319217
 20
207.3478012385
  0
VERTEX
  8
0
 62
7
  6
CONTINUOUS
 10
-0.5974217563
 20
208.3026106854
  0
SEQEND
  0
POLYLINE
  8
0
 62
7
  6
CONTINUOUS
 66
1
 70
0
  0
VERTEX
  8
0
 62
7
  6
CONTINUOUS
 10
-0.0074330528
 20
183.0038715666
  0
VERTEX
  8
0
 62
7
  6
CONTINUOUS
 10
-0.0211816377
 20
183.599693448
  0
VERTEX
  8
0
 62
7
  6
CONTINUOUS
 10
-0.0342420588
 20
184.1648822741
  0
VERTEX
  8
0
 62
7
  6
CONTINUOUS
 10
-0.047063259
 20
184.7189897737
  0
VERTEX
  8
0
 62
7
  6
CONTINUOUS
 10
-0.0887577058
 20
186.5163927866
  0
SEQEND
  0
LINE
  8
0
 62
7
  6
CONTINUOUS
 10
-0.5974217563
 20
208.3026106854
 11
-0.6660711947
 21
211.2830848329
  0
LINE
  8
0
 62
7
  6
CONTINUOUS
 10
0.0382328947
 20
181.017978394
 11
-0.0074330528
 21
183.0038715666
  0
LINE
  8
0
 62
7
  6
CONTINUOUS
 10
-0.6660711947
 20
211.2830848329
 11
-0.7283503309
 21
214.0071053508
  0
POLYLINE
  8
0
 62
7
  6
CONTINUOUS
 66
1
 70
0
  0
VERTEX
  8
0
 62
7
  6
CONTINUOUS
 10
0.0957502866
 20
178.499499995
  0
VERTEX
  8
0
 62
7
  6
CONTINUOUS
 10
0.0822798059
 20
179.0912146585
  0
VERTEX
  8
0
 62
7
  6
CONTINUOUS
 10
0.0382328947
 20
181.017978394
  0
SEQEND
  0
LINE
  8
0
 62
7
  6
CONTINUOUS
 10
-0.7283503309
 20
214.0071053508
 11
-0.7805619437
 21
216.3081855912
  0
POLYLINE
  8
0
 62
7
  6
CONTINUOUS
 66
1
 70
0
  0
VERTEX
  8
0
 62
7
  6
CONTINUOUS
 10
0.1467465674
 20
176.2477068356
  0
VERTEX
  8
0
 62
7
  6
CONTINUOUS
 10
0.1345089912
 20
176.7898435982
  0
VERTEX
  8
0
 62
7
  6
CONTINUOUS
 10
0.0957502866
 20
178.499499995
  0
SEQEND
  0
LINE
  8
0
 62
7
  6
CONTINUOUS
 10
-0.7805619437
 20
216.3081855912
 11
-0.833530139
 21
218.6612472963
  0
LINE
  8
0
 62
7
  6
CONTINUOUS
 10
0.1816752341
 20
174.6936522517
 11
0.1467465674
 21
176.2477068356
  0
LINE
  8
0
 62
7
  6
CONTINUOUS
 10
-0.833530139
 20
218.6612472963
 11
-0.8715799775
 21
220.3645343618
  0
POLYLINE
  8
0
 62
7
  6
CONTINUOUS
 66
1
 70
0
  0
VERTEX
  8
0
 62
7
  6
CONTINUOUS
 10
0.2246483524
 20
172.7669426058
  0
VERTEX
  8
0
 62
7
  6
CONTINUOUS
 10
0.2140929825
 20
173.2417937564
  0
VERTEX
  8
0
 62
7
  6
CONTINUOUS
 10
0.1816752341
 20
174.6936522517
  0
SEQEND
  0
LINE
  8
0
 62
7
  6
CONTINUOUS
 10
-0.8715799775
 20
220.3645343618
 11
-0.9206844167
 21
222.5804688888
  0
LINE
  8
0
 62
7
  6
CONTINUOUS
 10
0.2566897615
 20
171.3186984107
 11
0.2246483524
 21
172.7669426058
  0
LINE
  8
0
 62
7
  6
CONTINUOUS
 10
-0.9206844167
 20
222.5804688888
 11
-0.9532635173
 21
224.0627381865
  0
LINE
  8
0
 62
7
  6
CONTINUOUS
 10
0.290006538
 20
169.8012157688
 11
0.2566897615
 21
171.3186984107
  0
LINE
  8
0
 62
7
  6
CONTINUOUS
 10
-0.9532635173
 20
224.0627381865
 11
-0.9933774478
 21
225.9022554081
  0
POLYLINE
  8
0
 62
7
  6
CONTINUOUS
 66
1
 70
0
  0
VERTEX
  8
0
 62
7
  6
CONTINUOUS
 10
-0.9933774478
 20
225.9022554081
  0
VERTEX
  8
0
 62
7
  6
CONTINUOUS
 10
-1.0270393479
 20
227.4591479988
  0
VERTEX
  8
0
 62
7
  6
CONTINUOUS
 10
-1.0399840165
 20
228.0612691594
  0
VERTEX
  8
0
 62
7
  6
CONTINUOUS
 10
-1.0541265694
 20
228.7213743138
  0
VERTEX
  8
0
 62
7
  6
CONTINUOUS
 10
-1.0689452023
 20
229.4156474711
  0
VERTEX
  8
0
 62
7
  6
CONTINUOUS
 10
-1.083899704
 20
230.1190800526
  0
VERTEX
  8
0
 62
7
  6
CONTINUOUS
 10
-1.0984659426
 20
230.8070321432
  0
VERTEX
  8
0
 62
7
  6
CONTINUOUS
 10
-1.1123900342
 20
231.4673020985
  0
VERTEX
  8
0
 62
7
  6
CONTINUOUS
 10
-1.1257451483
 20
232.1030934427
  0
VERTEX
  8
0
 62
7
  6
CONTINUOUS
 10
-1.1385186641
 20
232.7135538617
  0
VERTEX
  8
0
 62
7
  6
CONTINUOUS
 10
-1.1508198023
 20
233.3036764628
  0
VERTEX
  8
0
 62
7
  6
CONTINUOUS
 10
-1.1627701632
 20
233.8791290082
  0
VERTEX
  8
0
 62
7
  6
CONTINUOUS
 10
-1.1746257216
 20
234.4521718896
  0
VERTEX
  8
0
 62
7
  6
CONTINUOUS
 10
-1.1867981974
 20
235.0428242496
  0
VERTEX
  8
0
 62
7
  6
CONTINUOUS
 10
-1.1996631372
 20
235.6696675473
  0
VERTEX
  8
0
 62
7
  6
CONTINUOUS
 10
-1.2132518761
 20
236.3347490855
  0
VERTEX
  8
0
 62
7
  6
CONTINUOUS
 10
-1.2274216225
 20
237.0316141548
  0
VERTEX
  8
0
 62
7
  6
CONTINUOUS
 10
-1.2421403256
 20
237.7592072751
  0
VERTEX
  8
0
 62
7
  6
CONTINUOUS
 10
-1.2575404014
 20
238.5246810431
  0
VERTEX
  8
0
 62
7
  6
CONTINUOUS
 10
-1.2737809101
 20
239.3366501177
  0
VERTEX
  8
0
 62
7
  6
CONTINUOUS
 10
-1.2908818421
 20
240.1968721173
  0
VERTEX
  8
0
 62
7
  6
CONTINUOUS
 10
-1.3081992802
 20
241.0734464982
  0
VERTEX
  8
0
 62
7
  6
CONTINUOUS
 10
-1.3247523002
 20
241.9164509415
  0
VERTEX
  8
0
 62
7
  6
CONTINUOUS
 10
-1.3395727193
 20
242.6754530172
  0
VERTEX
  8
0
 62
7
  6
CONTINUOUS
 10
-1.3522802673
 20
243.3294222379
  0
SEQEND
  0
POLYLINE
  8
0
 62
7
  6
CONTINUOUS
 66
1
 70
0
  0
VERTEX
  8
0
 62
7
  6
CONTINUOUS
 10
0.3628953991
 20
166.434998577
  0
VERTEX
  8
0
 62
7
  6
CONTINUOUS
 10
0.350026468
 20
167.034316233
  0
VERTEX
  8
0
 62
7
  6
CONTINUOUS
 10
0.3371568737
 20
167.6314395438
  0
VERTEX
  8
0
 62
7
  6
CONTINUOUS
 10
0.3246717731
 20
168.208662768
  0
VERTEX
  8
0
 62
7
  6
CONTINUOUS
 10
0.312797943
 20
168.7557998348
  0
VERTEX
  8
0
 62
7
  6
CONTINUOUS
 10
0.290006538
 20
169.8012157688
  0
SEQEND
  0
LINE
  8
0
 62
7
  6
CONTINUOUS
 10
0.3976367364
 20
164.8053797828
 11
0.3628953991
 21
166.434998577
  0
LINE
  8
0
 62
7
  6
CONTINUOUS
 10
0.4282183734
 20
163.3558896086
 11
0.3976367364
 21
164.8053797828
  0
LINE
  8
0
 62
7
  6
CONTINUOUS
 10
-1.3522802673
 20
243.3294222379
 11
-1.3732570687
 21
244.4153327589
  0
LINE
  8
0
 62
7
  6
CONTINUOUS
 10
-1.3732570687
 20
244.4153327589
 11
-1.4000966382
 21
245.8162459769
  0
LINE
  8
0
 62
7
  6
CONTINUOUS
 10
-1.4000966382
 20
245.8162459769
 11
-1.4243323773
 21
247.0922291995
  0
LINE
  8
0
 62
7
  6
CONTINUOUS
 10
-1.4243323773
 20
247.0922291995
 11
-1.451782465
 21
248.5498533654
  0
LINE
  8
0
 62
7
  6
CONTINUOUS
 10
-1.451782465
 20
248.5498533654
 11
-1.4827262344
 21
250.2085200788
  0
LINE
  8
0
 62
7
  6
CONTINUOUS
 10
-1.4827262344
 20
250.2085200788
 11
-1.5123074777
 21
251.8091889252
  0
LINE
  8
0
 62
7
  6
CONTINUOUS
 10
-1.5123074777
 20
251.8091889252
 11
-1.5405730705
 21
253.3520291535
  0
LINE
  8
0
 62
7
  6
CONTINUOUS
 10
-1.5405730705
 20
253.3520291535
 11
-1.576691619
 21
255.3418741419
  0
LINE
  8
0
 62
7
  6
CONTINUOUS
 10
-1.576691619
 20
255.3418741419
 11
-1.6139614118
 21
257.4158028157
  0
LINE
  8
0
 62
7
  6
CONTINUOUS
 10
-1.6139614118
 20
257.4158028157
 11
-1.6537802242
 21
259.6534249849
  0
LINE
  8
0
 62
7
  6
CONTINUOUS
 10
-1.6537802242
 20
259.6534249849
 11
-1.69302674
 21
261.8794022472
  0
POLYLINE
  8
0
 62
7
  6
CONTINUOUS
 66
1
 70
0
  0
VERTEX
  8
0
 62
7
  6
CONTINUOUS
 10
-2.9417412999
 20
335.2159885821
  0
VERTEX
  8
0
 62
7
  6
CONTINUOUS
 10
-2.9609162436
 20
336.3132711866
  0
VERTEX
  8
0
 62
7
  6
CONTINUOUS
 10
-2.9784886547
 20
337.3174854319
  0
VERTEX
  8
0
 62
7
  6
CONTINUOUS
 10
-2.9948808189
 20
338.2530683693
  0
VERTEX
  8
0
 62
7
  6
CONTINUOUS
 10
-3.0105146923
 20
339.1443012401
  0
VERTEX
  8
0
 62
7
  6
CONTINUOUS
 10
-3.0258223355
 20
340.0159185672
  0
VERTEX
  8
0
 62
7
  6
CONTINUOUS
 10
-3.0661601686
 20
342.3078913278
  0
SEQEND
  0
LINE
  8
0
 62
7
  6
CONTINUOUS
 10
-1.69302674
 20
261.8794022472
 11
-1.741689926
 21
264.6650736634
  0
POLYLINE
  8
0
 62
7
  6
CONTINUOUS
 66
1
 70
0
  0
VERTEX
  8
0
 62
7
  6
CONTINUOUS
 10
-2.7786589214
 20
325.8225402039
  0
VERTEX
  8
0
 62
7
  6
CONTINUOUS
 10
-2.7922931744
 20
326.6119488093
  0
VERTEX
  8
0
 62
7
  6
CONTINUOUS
 10
-2.8057057487
 20
327.3878112153
  0
VERTEX
  8
0
 62
7
  6
CONTINUOUS
 10
-2.820041349
 20
328.2162814912
  0
VERTEX
  8
0
 62
7
  6
CONTINUOUS
 10
-2.8366577686
 20
329.1755399228
  0
VERTEX
  8
0
 62
7
  6
CONTINUOUS
 10
-2.8558955471
 20
330.2847452628
  0
VERTEX
  8
0
 62
7
  6
CONTINUOUS
 10
-2.8769467
 20
331.4967899676
  0
VERTEX
  8
0
 62
7
  6
CONTINUOUS
 10
-2.9417412999
 20
335.2159885821
  0
SEQEND
  0
POLYLINE
  8
0
 62
7
  6
CONTINUOUS
 66
1
 70
0
  0
VERTEX
  8
0
 62
7
  6
CONTINUOUS
 10
-2.6383527721
 20
317.6578980946
  0
VERTEX
  8
0
 62
7
  6
CONTINUOUS
 10
-2.6567705229
 20
318.7338123313
  0
VERTEX
  8
0
 62
7
  6
CONTINUOUS
 10
-2.6760258276
 20
319.8573399874
  0
VERTEX
  8
0
 62
7
  6
CONTINUOUS
 10
-2.6955500863
 20
320.9951721255
  0
VERTEX
  8
0
 62
7
  6
CONTINUOUS
 10
-2.7146597064
 20
322.1074694335
  0
VERTEX
  8
0
 62
7
  6
CONTINUOUS
 10
-2.7326691101
 20
323.1544721309
  0
VERTEX
  8
0
 62
7
  6
CONTINUOUS
 10
-2.7786589214
 20
325.8225402039
  0
SEQEND
  0
LINE
  8
0
 62
7
  6
CONTINUOUS
 10
-1.741689926
 20
264.6650736634
 11
-1.8014714116
 21
268.1208252579
  0
POLYLINE
  8
0
 62
7
  6
CONTINUOUS
 66
1
 70
0
  0
VERTEX
  8
0
 62
7
  6
CONTINUOUS
 10
-2.4351390826
 20
305.709718335
  0
VERTEX
  8
0
 62
7
  6
CONTINUOUS
 10
-2.4484327157
 20
306.495412129
  0
VERTEX
  8
0
 62
7
  6
CONTINUOUS
 10
-2.4612916581
 20
307.2548991185
  0
VERTEX
  8
0
 62
7
  6
CONTINUOUS
 10
-2.4734728114
 20
307.973880801
  0
VERTEX
  8
0
 62
7
  6
CONTINUOUS
 10
-2.4852039936
 20
308.6658632374
  0
VERTEX
  8
0
 62
7
  6
CONTINUOUS
 10
-2.4967706421
 20
309.3477130266
  0
VERTEX
  8
0
 62
7
  6
CONTINUOUS
 10
-2.5084714422
 20
310.0370347243
  0
VERTEX
  8
0
 62
7
  6
CONTINUOUS
 10
-2.5206111555
 20
310.7517452287
  0
VERTEX
  8
0
 62
7
  6
CONTINUOUS
 10
-2.5333434488
 20
311.5008250253
  0
VERTEX
  8
0
 62
7
  6
CONTINUOUS
 10
-2.5465755098
 20
312.2787395996
  0
VERTEX
  8
0
 62
7
  6
CONTINUOUS
 10
-2.5602128623
 20
313.0798688525
  0
VERTEX
  8
0
 62
7
  6
CONTINUOUS
 10
-2.5743220832
 20
313.9080566327
  0
VERTEX
  8
0
 62
7
  6
CONTINUOUS
 10
-2.6383527721
 20
317.6578980946
  0
SEQEND
  0
LINE
  8
0
 62
7
  6
CONTINUOUS
 10
-1.8014714116
 20
268.1208252579
 11
-1.8746077298
 21
272.3913740105
  0
POLYLINE
  8
0
 62
7
  6
CONTINUOUS
 66
1
 70
0
  0
VERTEX
  8
0
 62
7
  6
CONTINUOUS
 10
-2.1410129951
 20
288.2069867024
  0
VERTEX
  8
0
 62
7
  6
CONTINUOUS
 10
-2.1732775949
 20
290.1347548366
  0
VERTEX
  8
0
 62
7
  6
CONTINUOUS
 10
-2.1839820845
 20
290.7742740652
  0
VERTEX
  8
0
 62
7
  6
CONTINUOUS
 10
-2.1947153265
 20
291.4154233452
  0
VERTEX
  8
0
 62
7
  6
CONTINUOUS
 10
-2.2055229897
 20
292.0608944783
  0
VERTEX
  8
0
 62
7
  6
CONTINUOUS
 10
-2.2164531045
 20
292.7135166936
  0
VERTEX
  8
0
 62
7
  6
CONTINUOUS
 10
-2.2275463964
 20
293.375678003
  0
VERTEX
  8
0
 62
7
  6
CONTINUOUS
 10
-2.2387944554
 20
294.0468288224
  0
VERTEX
  8
0
 62
7
  6
CONTINUOUS
 10
-2.2501672079
 20
294.7251269087
  0
VERTEX
  8
0
 62
7
  6
CONTINUOUS
 10
-2.2616466123
 20
295.4094680803
  0
VERTEX
  8
0
 62
7
  6
CONTINUOUS
 10
-2.2732367841
 20
296.1000830236
  0
VERTEX
  8
0
 62
7
  6
CONTINUOUS
 10
-2.2849436065
 20
296.7973071193
  0
VERTEX
  8
0
 62
7
  6
CONTINUOUS
 10
-2.2967684935
 20
297.5012087071
  0
VERTEX
  8
0
 62
7
  6
CONTINUOUS
 10
-2.3087109862
 20
298.2117441662
  0
VERTEX
  8
0
 62
7
  6
CONTINUOUS
 10
-2.3207727041
 20
298.9289930938
  0
VERTEX
  8
0
 62
7
  6
CONTINUOUS
 10
-2.3329588693
 20
299.6532485427
  0
VERTEX
  8
0
 62
7
  6
CONTINUOUS
 10
-2.3452737205
 20
300.3847440573
  0
VERTEX
  8
0
 62
7
  6
CONTINUOUS
 10
-2.3577118062
 20
301.1231370609
  0
VERTEX
  8
0
 62
7
  6
CONTINUOUS
 10
-2.3702637531
 20
301.8678526902
  0
VERTEX
  8
0
 62
7
  6
CONTINUOUS
 10
-2.3829310544
 20
302.6189611203
  0
VERTEX
  8
0
 62
7
  6
CONTINUOUS
 10
-2.4351390826
 20
305.709718335
  0
SEQEND
  0
POLYLINE
  8
0
 62
7
  6
CONTINUOUS
 66
1
 70
0
  0
VERTEX
  8
0
 62
7
  6
CONTINUOUS
 10
-1.8746077298
 20
272.3913740105
  0
VERTEX
  8
0
 62
7
  6
CONTINUOUS
 10
-1.9663644138
 20
277.8034694939
  0
VERTEX
  8
0
 62
7
  6
CONTINUOUS
 10
-1.9767019171
 20
278.4162689678
  0
VERTEX
  8
0
 62
7
  6
CONTINUOUS
 10
-1.9873684744
 20
279.0491197473
  0
VERTEX
  8
0
 62
7
  6
CONTINUOUS
 10
-1.9983306636
 20
279.700055111
  0
VERTEX
  8
0
 62
7
  6
CONTINUOUS
 10
-2.0095250406
 20
280.3653124273
  0
VERTEX
  8
0
 62
7
  6
CONTINUOUS
 10
-2.0208176479
 20
281.0369177357
  0
VERTEX
  8
0
 62
7
  6
CONTINUOUS
 10
-2.032032955
 20
281.7043957809
  0
VERTEX
  8
0
 62
7
  6
CONTINUOUS
 10
-2.0430844409
 20
282.36254565
  0
VERTEX
  8
0
 62
7
  6
CONTINUOUS
 10
-2.0540469216
 20
283.0157727027
  0
VERTEX
  8
0
 62
7
  6
CONTINUOUS
 10
-2.0650025341
 20
283.6689307764
  0
VERTEX
  8
0
 62
7
  6
CONTINUOUS
 10
-2.0759574637
 20
284.3223526232
  0
VERTEX
  8
0
 62
7
  6
CONTINUOUS
 10
-2.086881485
 20
284.9741984342
  0
VERTEX
  8
0
 62
7
  6
CONTINUOUS
 10
-2.09775889
 20
285.6234925774
  0
VERTEX
  8
0
 62
7
  6
CONTINUOUS
 10
-2.1085998039
 20
286.2708015502
  0
VERTEX
  8
0
 62
7
  6
CONTINUOUS
 10
-2.1194165375
 20
286.9168237072
  0
VERTEX
  8
0
 62
7
  6
CONTINUOUS
 10
-2.1302183683
 20
287.5620772599
  0
VERTEX
  8
0
 62
7
  6
CONTINUOUS
 10
-2.1410129951
 20
288.2069867024
  0
SEQEND
  0
POLYLINE
  8
0
 62
7
  6
CONTINUOUS
 66
1
 70
0
  0
VERTEX
  8
0
 62
7
  6
CONTINUOUS
 10
1.3204069389
 20
107.100314936
  0
VERTEX
  8
0
 62
7
  6
CONTINUOUS
 10
1.3138377503
 20
107.7196342623
  0
VERTEX
  8
0
 62
7
  6
CONTINUOUS
 10
1.3068632555
 20
108.3713869077
  0
VERTEX
  8
0
 62
7
  6
CONTINUOUS
 10
1.2996235731
 20
109.0416946772
  0
VERTEX
  8
0
 62
7
  6
CONTINUOUS
 10
1.2922631772
 20
109.7167524336
  0
VERTEX
  8
0
 62
7
  6
CONTINUOUS
 10
1.2849252217
 20
110.3833800831
  0
VERTEX
  8
0
 62
7
  6
CONTINUOUS
 10
1.2777452619
 20
111.0295725519
  0
VERTEX
  8
0
 62
7
  6
CONTINUOUS
 10
1.2708065157
 20
111.6484113368
  0
VERTEX
  8
0
 62
7
  6
CONTINUOUS
 10
1.264167762
 20
112.2353654587
  0
VERTEX
  8
0
 62
7
  6
CONTINUOUS
 10
1.2578142708
 20
112.7924576774
  0
VERTEX
  8
0
 62
7
  6
CONTINUOUS
 10
1.2516996112
 20
113.3243725304
  0
VERTEX
  8
0
 62
7
  6
CONTINUOUS
 10
1.2457009643
 20
113.8422045846
  0
VERTEX
  8
0
 62
7
  6
CONTINUOUS
 10
1.2395535917
 20
114.3688217796
  0
VERTEX
  8
0
 62
7
  6
CONTINUOUS
 10
1.2329802303
 20
114.9274461434
  0
VERTEX
  8
0
 62
7
  6
CONTINUOUS
 10
1.2258230788
 20
115.5304790853
  0
VERTEX
  8
0
 62
7
  6
CONTINUOUS
 10
1.2180033307
 20
116.1832252175
  0
VERTEX
  8
0
 62
7
  6
CONTINUOUS
 10
1.209440217
 20
116.8908117877
  0
VERTEX
  8
0
 62
7
  6
CONTINUOUS
 10
1.2000492077
 20
117.6582900973
  0
VERTEX
  8
0
 62
7
  6
CONTINUOUS
 10
1.1897790346
 20
118.487608615
  0
VERTEX
  8
0
 62
7
  6
CONTINUOUS
 10
1.1786966585
 20
119.3710255636
  0
VERTEX
  8
0
 62
7
  6
CONTINUOUS
 10
1.1669336263
 20
120.2959479619
  0
VERTEX
  8
0
 62
7
  6
CONTINUOUS
 10
1.1546603154
 20
121.2473297923
  0
VERTEX
  8
0
 62
7
  6
CONTINUOUS
 10
1.141790054
 20
122.2303758512
  0
VERTEX
  8
0
 62
7
  6
CONTINUOUS
 10
1.127633799
 20
123.2948417654
  0
VERTEX
  8
0
 62
7
  6
CONTINUOUS
 10
1.1113469507
 20
124.4983846342
  0
VERTEX
  8
0
 62
7
  6
CONTINUOUS
 10
1.0920480717
 20
125.8962370816
  0
VERTEX
  8
0
 62
7
  6
CONTINUOUS
 10
1.0696928997
 20
127.4786501586
  0
VERTEX
  8
0
 62
7
  6
CONTINUOUS
 10
1.0449875605
 20
129.1835868591
  0
VERTEX
  8
0
 62
7
  6
CONTINUOUS
 10
1.0186623548
 20
130.9532856821
  0
VERTEX
  8
0
 62
7
  6
CONTINUOUS
 10
0.9916082792
 20
132.7259670835
  0
VERTEX
  8
0
 62
7
  6
CONTINUOUS
 10
0.9650097996
 20
134.4273102954
  0
VERTEX
  8
0
 62
7
  6
CONTINUOUS
 10
0.9399160597
 20
135.9977933005
  0
VERTEX
  8
0
 62
7
  6
CONTINUOUS
 10
0.9165693557
 20
137.4310227244
  0
VERTEX
  8
0
 62
7
  6
CONTINUOUS
 10
0.8948589944
 20
138.741277824
  0
VERTEX
  8
0
 62
7
  6
CONTINUOUS
 10
0.8747347318
 20
139.9375973012
  0
VERTEX
  8
0
 62
7
  6
CONTINUOUS
 10
0.8560873899
 20
141.0313287204
  0
VERTEX
  8
0
 62
7
  6
CONTINUOUS
 10
0.8388822778
 20
142.0284669559
  0
VERTEX
  8
0
 62
7
  6
CONTINUOUS
 10
0.8229863482
 20
142.9399448924
  0
VERTEX
  8
0
 62
7
  6
CONTINUOUS
 10
0.8076162794
 20
143.8126938717
  0
VERTEX
  8
0
 62
7
  6
CONTINUOUS
 10
0.791744359
 20
144.7054303851
  0
VERTEX
  8
0
 62
7
  6
CONTINUOUS
 10
0.77500324
 20
145.6380463684
  0
VERTEX
  8
0
 62
7
  6
CONTINUOUS
 10
0.7580097448
 20
146.5756283947
  0
VERTEX
  8
0
 62
7
  6
CONTINUOUS
 10
0.7414341358
 20
147.4816681114
  0
VERTEX
  8
0
 62
7
  6
CONTINUOUS
 10
0.7259422139
 20
148.3211748826
  0
VERTEX
  8
0
 62
7
  6
CONTINUOUS
 10
0.712055298
 20
149.0679167946
  0
VERTEX
  8
0
 62
7
  6
CONTINUOUS
 10
0.6991639124
 20
149.7563777302
  0
VERTEX
  8
0
 62
7
  6
CONTINUOUS
 10
0.6861399259
 20
150.4474100573
  0
VERTEX
  8
0
 62
7
  6
CONTINUOUS
 10
0.6721874907
 20
151.182816482
  0
VERTEX
  8
0
 62
7
  6
CONTINUOUS
 10
0.6573859964
 20
151.9576087174
  0
VERTEX
  8
0
 62
7
  6
CONTINUOUS
 10
0.6419884616
 20
152.7579150964
  0
VERTEX
  8
0
 62
7
  6
CONTINUOUS
 10
0.6266505497
 20
153.5495350402
  0
VERTEX
  8
0
 62
7
  6
CONTINUOUS
 10
0.6122480926
 20
154.2879498838
  0
VERTEX
  8
0
 62
7
  6
CONTINUOUS
 10
0.599035331
 20
154.9612924422
  0
VERTEX
  8
0
 62
7
  6
CONTINUOUS
 10
0.5867612093
 20
155.5833958887
  0
VERTEX
  8
0
 62
7
  6
CONTINUOUS
 10
0.5751381611
 20
156.1695493445
  0
VERTEX
  8
0
 62
7
  6
CONTINUOUS
 10
0.5638168313
 20
156.7377891647
  0
VERTEX
  8
0
 62
7
  6
CONTINUOUS
 10
0.5524286807
 20
157.3067548766
  0
VERTEX
  8
0
 62
7
  6
CONTINUOUS
 10
0.5405742588
 20
157.8962765946
  0
VERTEX
  8
0
 62
7
  6
CONTINUOUS
 10
0.5278209372
 20
158.527449701
  0
VERTEX
  8
0
 62
7
  6
CONTINUOUS
 10
0.5139073386
 20
159.212523662
  0
VERTEX
  8
0
 62
7
  6
CONTINUOUS
 10
0.4995927173
 20
159.9136020404
  0
VERTEX
  8
0
 62
7
  6
CONTINUOUS
 10
0.4860268046
 20
160.5745971812
  0
VERTEX
  8
0
 62
7
  6
CONTINUOUS
 10
0.4734166634
 20
161.1861144524
  0
VERTEX
  8
0
 62
7
  6
CONTINUOUS
 10
0.4614454128
 20
161.7641147504
  0
VERTEX
  8
0
 62
7
  6
CONTINUOUS
 10
0.4499259717
 20
162.3180189302
  0
VERTEX
  8
0
 62
7
  6
CONTINUOUS
 10
0.4282183734
 20
163.3558896086
  0
SEQEND
  0
LINE
  8
0
 62
7
  6
CONTINUOUS
 10
1.3264360438
 20
106.5272209612
 11
1.3204069389
 21
107.100314936
  0
LINE
  8
0
 62
7
  6
CONTINUOUS
 10
1.3367602361
 20
105.5353144865
 11
1.3264360438
 21
106.5272209612
  0
POLYLINE
  8
0
 62
7
  6
CONTINUOUS
 66
1
 70
0
  0
VERTEX
  8
0
 62
7
  6
CONTINUOUS
 10
1.3767246709
 20
101.5670871761
  0
VERTEX
  8
0
 62
7
  6
CONTINUOUS
 10
1.3702910705
 20
102.2199422777
  0
VERTEX
  8
0
 62
7
  6
CONTINUOUS
 10
1.363620894
 20
102.8910640791
  0
VERTEX
  8
0
 62
7
  6
CONTINUOUS
 10
1.3571534147
 20
103.5362464165
  0
VERTEX
  8
0
 62
7
  6
CONTINUOUS
 10
1.3512948672
 20
104.1160015979
  0
VERTEX
  8
0
 62
7
  6
CONTINUOUS
 10
1.3461717196
 20
104.61935904
  0
VERTEX
  8
0
 62
7
  6
CONTINUOUS
 10
1.3367602361
 20
105.5353144865
  0
SEQEND
  0
POLYLINE
  8
0
 62
7
  6
CONTINUOUS
 66
1
 70
0
  0
VERTEX
  8
0
 62
7
  6
CONTINUOUS
 10
1.392115086
 20
99.983097686
  0
VERTEX
  8
0
 62
7
  6
CONTINUOUS
 10
1.3875447619
 20
100.4567652596
  0
VERTEX
  8
0
 62
7
  6
CONTINUOUS
 10
1.3767246709
 20
101.5670871761
  0
SEQEND
  0
POLYLINE
  8
0
 62
7
  6
CONTINUOUS
 66
1
 70
0
  0
VERTEX
  8
0
 62
7
  6
CONTINUOUS
 10
1.4050456446
 20
98.6278487124
  0
VERTEX
  8
0
 62
7
  6
CONTINUOUS
 10
1.4006757586
 20
99.0883616362
  0
VERTEX
  8
0
 62
7
  6
CONTINUOUS
 10
1.392115086
 20
99.983097686
  0
SEQEND
  0
POLYLINE
  8
0
 62
7
  6
CONTINUOUS
 66
1
 70
0
  0
VERTEX
  8
0
 62
7
  6
CONTINUOUS
 10
1.4200032254
 20
97.032144561
  0
VERTEX
  8
0
 62
7
  6
CONTINUOUS
 10
1.4146979878
 20
97.6015618831
  0
VERTEX
  8
0
 62
7
  6
CONTINUOUS
 10
1.4050456446
 20
98.6278487124
  0
SEQEND
  0
POLYLINE
  8
0
 62
7
  6
CONTINUOUS
 66
1
 70
0
  0
VERTEX
  8
0
 62
7
  6
CONTINUOUS
 10
1.4358071451
 20
95.3134534163
  0
VERTEX
  8
0
 62
7
  6
CONTINUOUS
 10
1.4307584794
 20
95.8661496795
  0
VERTEX
  8
0
 62
7
  6
CONTINUOUS
 10
1.4200032254
 20
97.032144561
  0
SEQEND
  0
POLYLINE
  8
0
 62
7
  6
CONTINUOUS
 66
1
 70
0
  0
VERTEX
  8
0
 62
7
  6
CONTINUOUS
 10
1.4540830611
 20
93.2842098865
  0
VERTEX
  8
0
 62
7
  6
CONTINUOUS
 10
1.4497630598
 20
93.7678919848
  0
VERTEX
  8
0
 62
7
  6
CONTINUOUS
 10
1.4452814522
 20
94.2670466493
  0
VERTEX
  8
0
 62
7
  6
CONTINUOUS
 10
1.4358071451
 20
95.3134534163
  0
SEQEND
  0
POLYLINE
  8
0
 62
7
  6
CONTINUOUS
 66
1
 70
0
  0
VERTEX
  8
0
 62
7
  6
CONTINUOUS
 10
1.472900502
 20
91.1487082887
  0
VERTEX
  8
0
 62
7
  6
CONTINUOUS
 10
1.4694134873
 20
91.5479059029
  0
VERTEX
  8
0
 62
7
  6
CONTINUOUS
 10
1.4658348275
 20
91.9559746413
  0
VERTEX
  8
0
 62
7
  6
CONTINUOUS
 10
1.4621146861
 20
92.3784041976
  0
VERTEX
  8
0
 62
7
  6
CONTINUOUS
 10
1.4540830611
 20
93.2842098865
  0
SEQEND
  0
POLYLINE
  8
0
 62
7
  6
CONTINUOUS
 66
1
 70
0
  0
VERTEX
  8
0
 62
7
  6
CONTINUOUS
 10
375.1315689104
 20
342.30788989
  0
VERTEX
  8
0
 62
7
  6
CONTINUOUS
 10
374.9866891813
 20
342.2212664624
  0
VERTEX
  8
0
 62
7
  6
CONTINUOUS
 10
374.6997880052
 20
342.0545701232
  0
VERTEX
  8
0
 62
7
  6
CONTINUOUS
 10
374.4101594145
 20
341.8926589219
  0
VERTEX
  8
0
 62
7
  6
CONTINUOUS
 10
374.1178832121
 20
341.7355775275
  0
VERTEX
  8
0
 62
7
  6
CONTINUOUS
 10
373.8230786378
 20
341.583389701
  0
VERTEX
  8
0
 62
7
  6
CONTINUOUS
 10
373.5257888142
 20
341.4361156598
  0
VERTEX
  8
0
 62
7
  6
CONTINUOUS
 10
373.2260956231
 20
341.2937960003
  0
VERTEX
  8
0
 62
7
  6
CONTINUOUS
 10
372.9241050132
 20
341.1564811847
  0
VERTEX
  8
0
 62
7
  6
CONTINUOUS
 10
372.6198771761
 20
341.024197036
  0
VERTEX
  8
0
 62
7
  6
CONTINUOUS
 10
372.3134960069
 20
340.8969800251
  0
VERTEX
  8
0
 62
7
  6
CONTINUOUS
 10
372.0050555634
 20
340.7748697473
  0
VERTEX
  8
0
 62
7
  6
CONTINUOUS
 10
371.6946310173
 20
340.6578949141
  0
VERTEX
  8
0
 62
7
  6
CONTINUOUS
 10
371.3823075702
 20
340.5460876893
  0
VERTEX
  8
0
 62
7
  6
CONTINUOUS
 10
371.0681649042
 20
340.4394775775
  0
VERTEX
  8
0
 62
7
  6
CONTINUOUS
 10
370.7522966745
 20
340.33809557
  0
VERTEX
  8
0
 62
7
  6
CONTINUOUS
 10
370.4347910861
 20
340.2419697999
  0
VERTEX
  8
0
 62
7
  6
CONTINUOUS
 10
370.1157131751
 20
340.1511213015
  0
VERTEX
  8
0
 62
7
  6
CONTINUOUS
 10
369.795169818
 20
340.0655806098
  0
VERTEX
  8
0
 62
7
  6
CONTINUOUS
 10
369.4732449395
 20
339.9853704188
  0
VERTEX
  8
0
 62
7
  6
CONTINUOUS
 10
369.1499966333
 20
339.9105067728
  0
VERTEX
  8
0
 62
7
  6
CONTINUOUS
 10
368.8255563375
 20
339.8410195195
  0
VERTEX
  8
0
 62
7
  6
CONTINUOUS
 10
368.5000298949
 20
339.7769308825
  0
SEQEND
  0
POLYLINE
  8
0
 62
7
  6
CONTINUOUS
 66
1
 70
0
  0
VERTEX
  8
0
 62
7
  6
CONTINUOUS
 10
3.5653877707
 20
339.7769292066
  0
VERTEX
  8
0
 62
7
  6
CONTINUOUS
 10
3.2398754217
 20
339.8410111389
  0
VERTEX
  8
0
 62
7
  6
CONTINUOUS
 10
2.915449171
 20
339.9104917632
  0
VERTEX
  8
0
 62
7
  6
CONTINUOUS
 10
2.5922148781
 20
339.9853488892
  0
VERTEX
  8
0
 62
7
  6
CONTINUOUS
 10
2.2703017918
 20
340.0655532517
  0
VERTEX
  8
0
 62
7
  6
CONTINUOUS
 10
1.9497702155
 20
340.151088251
  0
VERTEX
  8
0
 62
7
  6
CONTINUOUS
 10
1.63070406
 20
340.2419311141
  0
VERTEX
  8
0
 62
7
  6
CONTINUOUS
 10
1.3132061915
 20
340.3380524793
  0
VERTEX
  8
0
 62
7
  6
CONTINUOUS
 10
0.9973456711
 20
340.4394301506
  0
VERTEX
  8
0
 62
7
  6
CONTINUOUS
 10
0.6832106935
 20
340.5460359522
  0
VERTEX
  8
0
 62
7
  6
CONTINUOUS
 10
0.3708915033
 20
340.6578400999
  0
VERTEX
  8
0
 62
7
  6
CONTINUOUS
 10
0.0604712105
 20
340.774811914
  0
VERTEX
  8
0
 62
7
  6
CONTINUOUS
 10
-0.2479649954
 20
340.8969191914
  0
VERTEX
  8
0
 62
7
  6
CONTINUOUS
 10
-0.5543446731
 20
341.0241343376
  0
VERTEX
  8
0
 62
7
  6
CONTINUOUS
 10
-0.8585710227
 20
341.1564166594
  0
VERTEX
  8
0
 62
7
  6
CONTINUOUS
 10
-1.1605601622
 20
341.2937296533
  0
VERTEX
  8
0
 62
7
  6
CONTINUOUS
 10
-1.4602554413
 20
341.4360491755
  0
VERTEX
  8
0
 62
7
  6
CONTINUOUS
 10
-1.757547342
 20
341.5833231407
  0
VERTEX
  8
0
 62
7
  6
CONTINUOUS
 10
-2.052353996
 20
341.7355109234
  0
VERTEX
  8
0
 62
7
  6
CONTINUOUS
 10
-2.34463424
 20
341.8925933475
  0
VERTEX
  8
0
 62
7
  6
CONTINUOUS
 10
-2.6342668589
 20
342.0545056372
  0
VERTEX
  8
0
 62
7
  6
CONTINUOUS
 10
-2.921172055
 20
342.2212031138
  0
VERTEX
  8
0
 62
7
  6
CONTINUOUS
 10
-3.0661601686
 20
342.3078913278
  0
SEQEND
  0
POLYLINE
  8
0
 62
7
  6
CONTINUOUS
 66
1
 70
0
  0
VERTEX
  8
0
 62
7
  6
CONTINUOUS
 10
370.5555614322
 20
86.8508370027
  0
VERTEX
  8
0
 62
7
  6
CONTINUOUS
 10
370.544611377
 20
85.5659462176
  0
VERTEX
  8
0
 62
7
  6
CONTINUOUS
 10
370.5389248825
 20
84.8992332209
  0
VERTEX
  8
0
 62
7
  6
CONTINUOUS
 10
370.5331534645
 20
84.2236993066
  0
VERTEX
  8
0
 62
7
  6
CONTINUOUS
 10
370.5272351375
 20
83.53275885
  0
SEQEND
  0
POLYLINE
  8
0
 62
7
  6
CONTINUOUS
 66
1
 70
0
  0
VERTEX
  8
0
 62
7
  6
CONTINUOUS
 10
370.5704669345
 20
88.5958802993
  0
VERTEX
  8
0
 62
7
  6
CONTINUOUS
 10
370.5657284342
 20
88.0421392144
  0
VERTEX
  8
0
 62
7
  6
CONTINUOUS
 10
370.560752285
 20
87.4594842517
  0
VERTEX
  8
0
 62
7
  6
CONTINUOUS
 10
370.5555614322
 20
86.8508370027
  0
SEQEND
  0
POLYLINE
  8
0
 62
7
  6
CONTINUOUS
 66
1
 70
0
  0
VERTEX
  8
0
 62
7
  6
CONTINUOUS
 10
370.5272351375
 20
83.53275885
  0
VERTEX
  8
0
 62
7
  6
CONTINUOUS
 10
370.5143444583
 20
82.0369650369
  0
VERTEX
  8
0
 62
7
  6
CONTINUOUS
 10
370.50705205
 20
81.19807861
  0
VERTEX
  8
0
 62
7
  6
CONTINUOUS
 10
370.4991440391
 20
80.2957674439
  0
VERTEX
  8
0
 62
7
  6
CONTINUOUS
 10
370.4908480922
 20
79.3586634213
  0
VERTEX
  8
0
 62
7
  6
CONTINUOUS
 10
370.4824407295
 20
78.4200482201
  0
VERTEX
  8
0
 62
7
  6
CONTINUOUS
 10
370.4741550851
 20
77.5069603934
  0
VERTEX
  8
0
 62
7
  6
CONTINUOUS
 10
370.4660255428
 20
76.6234365806
  0
VERTEX
  8
0
 62
7
  6
CONTINUOUS
 10
370.4580294936
 20
75.7670304437
  0
VERTEX
  8
0
 62
7
  6
CONTINUOUS
 10
370.4501463111
 20
74.9354677791
  0
VERTEX
  8
0
 62
7
  6
CONTINUOUS
 10
370.4423859524
 20
74.1296130236
  0
VERTEX
  8
0
 62
7
  6
CONTINUOUS
 10
370.4348259852
 20
73.3569983514
  0
VERTEX
  8
0
 62
7
  6
CONTINUOUS
 10
370.4275789323
 20
72.6280445574
  0
VERTEX
  8
0
 62
7
  6
CONTINUOUS
 10
370.4207842927
 20
71.9550681929
  0
VERTEX
  8
0
 62
7
  6
CONTINUOUS
 10
370.4145419544
 20
71.3457560832
  0
VERTEX
  8
0
 62
7
  6
CONTINUOUS
 10
370.408819744
 20
70.7947512669
  0
VERTEX
  8
0
 62
7
  6
CONTINUOUS
 10
370.4035486571
 20
70.2935493795
  0
VERTEX
  8
0
 62
7
  6
CONTINUOUS
 10
370.3985545022
 20
69.8242848234
  0
VERTEX
  8
0
 62
7
  6
CONTINUOUS
 10
370.3935776753
 20
69.3620432664
  0
VERTEX
  8
0
 62
7
  6
CONTINUOUS
 10
370.3883625804
 20
68.8834093861
  0
VERTEX
  8
0
 62
7
  6
CONTINUOUS
 10
370.38282616
 20
68.3816551838
  0
VERTEX
  8
0
 62
7
  6
CONTINUOUS
 10
370.377013148
 20
67.8618217657
  0
SEQEND
  0
POLYLINE
  8
0
 62
7
  6
CONTINUOUS
 66
1
 70
0
  0
VERTEX
  8
0
 62
7
  6
CONTINUOUS
 10
370.5934486542
 20
91.2565139976
  0
VERTEX
  8
0
 62
7
  6
CONTINUOUS
 10
370.590034808
 20
90.8646477572
  0
VERTEX
  8
0
 62
7
  6
CONTINUOUS
 10
370.5866022132
 20
90.4692820387
  0
VERTEX
  8
0
 62
7
  6
CONTINUOUS
 10
370.5830107989
 20
90.054288585
  0
VERTEX
  8
0
 62
7
  6
CONTINUOUS
 10
370.5791332309
 20
89.6048351732
  0
VERTEX
  8
0
 62
7
  6
CONTINUOUS
 10
370.5704669345
 20
88.5958802993
  0
SEQEND
  0
POLYLINE
  8
0
 62
7
  6
CONTINUOUS
 66
1
 70
0
  0
VERTEX
  8
0
 62
7
  6
CONTINUOUS
 10
370.61249804
 20
93.4157130897
  0
VERTEX
  8
0
 62
7
  6
CONTINUOUS
 10
370.6083430475
 20
92.9488189257
  0
VERTEX
  8
0
 62
7
  6
CONTINUOUS
 10
370.6043724901
 20
92.5005206917
  0
VERTEX
  8
0
 62
7
  6
CONTINUOUS
 10
370.600582189
 20
92.0706422165
  0
VERTEX
  8
0
 62
7
  6
CONTINUOUS
 10
370.5934486542
 20
91.2565139976
  0
SEQEND
  0
POLYLINE
  8
0
 62
7
  6
CONTINUOUS
 66
1
 70
0
  0
VERTEX
  8
0
 62
7
  6
CONTINUOUS
 10
370.6260144011
 20
94.9186693501
  0
VERTEX
  8
0
 62
7
  6
CONTINUOUS
 10
370.6213505455
 20
94.4028232085
  0
VERTEX
  8
0
 62
7
  6
CONTINUOUS
 10
370.61249804
 20
93.4157130897
  0
SEQEND
  0
POLYLINE
  8
0
 62
7
  6
CONTINUOUS
 66
1
 70
0
  0
VERTEX
  8
0
 62
7
  6
CONTINUOUS
 10
370.6535490003
 20
97.9046364196
  0
VERTEX
  8
0
 62
7
  6
CONTINUOUS
 10
370.6476687461
 20
97.2755201947
  0
VERTEX
  8
0
 62
7
  6
CONTINUOUS
 10
370.6417580614
 20
96.6384589621
  0
VERTEX
  8
0
 62
7
  6
CONTINUOUS
 10
370.6361107097
 20
96.0253891804
  0
VERTEX
  8
0
 62
7
  6
CONTINUOUS
 10
370.6260144011
 20
94.9186693501
  0
SEQEND
  0
POLYLINE
  8
0
 62
7
  6
CONTINUOUS
 66
1
 70
0
  0
VERTEX
  8
0
 62
7
  6
CONTINUOUS
 10
370.6718139544
 20
99.8291417868
  0
VERTEX
  8
0
 62
7
  6
CONTINUOUS
 10
370.6677511929
 20
99.4049327849
  0
VERTEX
  8
0
 62
7
  6
CONTINUOUS
 10
370.6635583978
 20
98.9648290882
  0
VERTEX
  8
0
 62
7
  6
CONTINUOUS
 10
370.6535490003
 20
97.9046364196
  0
SEQEND
  0
POLYLINE
  8
0
 62
7
  6
CONTINUOUS
 66
1
 70
0
  0
VERTEX
  8
0
 62
7
  6
CONTINUOUS
 10
370.7128102506
 20
103.9873773398
  0
VERTEX
  8
0
 62
7
  6
CONTINUOUS
 10
370.7066294313
 20
103.3745596066
  0
VERTEX
  8
0
 62
7
  6
CONTINUOUS
 10
370.6998420377
 20
102.6958848878
  0
VERTEX
  8
0
 62
7
  6
CONTINUOUS
 10
370.6929975443
 20
102.0054002054
  0
VERTEX
  8
0
 62
7
  6
CONTINUOUS
 10
370.6865613523
 20
101.3504817425
  0
VERTEX
  8
0
 62
7
  6
CONTINUOUS
 10
370.68088978
 20
100.76882537
  0
VERTEX
  8
0
 62
7
  6
CONTINUOUS
 10
370.6718139544
 20
99.8291417868
  0
SEQEND
  0
LINE
  8
0
 62
7
  6
CONTINUOUS
 10
370.7230626258
 20
104.9930364052
 11
370.7128102506
 21
103.9873773398
  0
POLYLINE
  8
0
 62
7
  6
CONTINUOUS
 66
1
 70
0
  0
VERTEX
  8
0
 62
7
  6
CONTINUOUS
 10
370.377013148
 20
67.8618217657
  0
VERTEX
  8
0
 62
7
  6
CONTINUOUS
 10
370.3710578247
 20
67.3365953629
  0
VERTEX
  8
0
 62
7
  6
CONTINUOUS
 10
370.3652149947
 20
66.8284059403
  0
VERTEX
  8
0
 62
7
  6
CONTINUOUS
 10
370.3596767126
 20
66.3531180747
  0
VERTEX
  8
0
 62
7
  6
CONTINUOUS
 10
370.354350958
 20
65.9018690627
  0
VERTEX
  8
0
 62
7
  6
CONTINUOUS
 10
370.3490933073
 20
65.4618849078
  0
VERTEX
  8
0
 62
7
  6
CONTINUOUS
 10
370.3438897793
 20
65.031722785
  0
VERTEX
  8
0
 62
7
  6
CONTINUOUS
 10
370.3388010908
 20
64.6160669088
  0
VERTEX
  8
0
 62
7
  6
CONTINUOUS
 10
370.3338475603
 20
64.2161368478
  0
VERTEX
  8
0
 62
7
  6
CONTINUOUS
 10
370.3289566745
 20
63.825727717
  0
VERTEX
  8
0
 62
7
  6
CONTINUOUS
 10
370.3240410791
 20
63.4377427486
  0
VERTEX
  8
0
 62
7
  6
CONTINUOUS
 10
370.3190456553
 20
63.0478982138
  0
VERTEX
  8
0
 62
7
  6
CONTINUOUS
 10
370.3139433311
 20
62.6542543273
  0
VERTEX
  8
0
 62
7
  6
CONTINUOUS
 10
370.3086955196
 20
62.2540911422
  0
VERTEX
  8
0
 62
7
  6
CONTINUOUS
 10
370.3032025039
 20
61.8402467045
  0
VERTEX
  8
0
 62
7
  6
CONTINUOUS
 10
370.2973402444
 20
61.4041323807
  0
VERTEX
  8
0
 62
7
  6
CONTINUOUS
 10
370.2910777512
 20
60.9444398405
  0
VERTEX
  8
0
 62
7
  6
CONTINUOUS
 10
370.2845346907
 20
60.4708366415
  0
VERTEX
  8
0
 62
7
  6
CONTINUOUS
 10
370.277859708
 20
59.9945568075
  0
VERTEX
  8
0
 62
7
  6
CONTINUOUS
 10
370.2712385619
 20
59.5288093263
  0
VERTEX
  8
0
 62
7
  6
CONTINUOUS
 10
370.2648684954
 20
59.0868611108
  0
VERTEX
  8
0
 62
7
  6
CONTINUOUS
 10
370.2587184513
 20
58.6657552074
  0
VERTEX
  8
0
 62
7
  6
CONTINUOUS
 10
370.2526047394
 20
58.2524475097
  0
VERTEX
  8
0
 62
7
  6
CONTINUOUS
 10
370.2463173286
 20
57.8327977998
  0
VERTEX
  8
0
 62
7
  6
CONTINUOUS
 10
370.2395934677
 20
57.3899388054
  0
VERTEX
  8
0
 62
7
  6
CONTINUOUS
 10
370.2321651087
 20
56.9076203324
  0
VERTEX
  8
0
 62
7
  6
CONTINUOUS
 10
370.2240932407
 20
56.391560767
  0
VERTEX
  8
0
 62
7
  6
CONTINUOUS
 10
370.2157696978
 20
55.8679320239
  0
VERTEX
  8
0
 62
7
  6
CONTINUOUS
 10
370.2075124105
 20
55.3567684479
  0
VERTEX
  8
0
 62
7
  6
CONTINUOUS
 10
370.1994872612
 20
54.8676615125
  0
VERTEX
  8
0
 62
7
  6
CONTINUOUS
 10
370.1917803279
 20
54.4048771577
  0
VERTEX
  8
0
 62
7
  6
CONTINUOUS
 10
370.1840550678
 20
53.9476152252
  0
VERTEX
  8
0
 62
7
  6
CONTINUOUS
 10
370.1758087805
 20
53.4666256345
  0
VERTEX
  8
0
 62
7
  6
CONTINUOUS
 10
370.166804614
 20
52.949572461
  0
VERTEX
  8
0
 62
7
  6
CONTINUOUS
 10
370.1573314673
 20
52.4144785053
  0
VERTEX
  8
0
 62
7
  6
CONTINUOUS
 10
370.1477244231
 20
51.8808289517
  0
VERTEX
  8
0
 62
7
  6
CONTINUOUS
 10
370.1381707847
 20
51.3588462981
  0
VERTEX
  8
0
 62
7
  6
CONTINUOUS
 10
370.1288157013
 20
50.8558473324
  0
VERTEX
  8
0
 62
7
  6
CONTINUOUS
 10
370.1195351861
 20
50.3645592123
  0
VERTEX
  8
0
 62
7
  6
CONTINUOUS
 10
370.109876668
 20
49.8611494455
  0
VERTEX
  8
0
 62
7
  6
CONTINUOUS
 10
370.0994291274
 20
49.325381044
  0
VERTEX
  8
0
 62
7
  6
CONTINUOUS
 10
370.0883621736
 20
48.7674468975
  0
VERTEX
  8
0
 62
7
  6
CONTINUOUS
 10
370.0771115535
 20
48.2100192247
  0
VERTEX
  8
0
 62
7
  6
CONTINUOUS
 10
370.0658900877
 20
47.663495015
  0
VERTEX
  8
0
 62
7
  6
CONTINUOUS
 10
370.0546380466
 20
47.1246320343
  0
VERTEX
  8
0
 62
7
  6
CONTINUOUS
 10
370.0432390311
 20
46.5877465488
  0
VERTEX
  8
0
 62
7
  6
CONTINUOUS
 10
370.0314831891
 20
46.0432268233
  0
VERTEX
  8
0
 62
7
  6
CONTINUOUS
 10
370.0191312068
 20
45.4807706333
  0
VERTEX
  8
0
 62
7
  6
CONTINUOUS
 10
370.0062064077
 20
44.9024582452
  0
VERTEX
  8
0
 62
7
  6
CONTINUOUS
 10
369.9930692593
 20
44.3249623877
  0
VERTEX
  8
0
 62
7
  6
CONTINUOUS
 10
369.9800134142
 20
43.7609604161
  0
VERTEX
  8
0
 62
7
  6
CONTINUOUS
 10
369.9667929026
 20
43.1995479914
  0
VERTEX
  8
0
 62
7
  6
CONTINUOUS
 10
369.9529992368
 20
42.6238182294
  0
VERTEX
  8
0
 62
7
  6
CONTINUOUS
 10
369.9385419311
 20
42.0309594074
  0
VERTEX
  8
0
 62
7
  6
CONTINUOUS
 10
369.9236825657
 20
41.4324529611
  0
VERTEX
  8
0
 62
7
  6
CONTINUOUS
 10
369.908638696
 20
40.8372733008
  0
VERTEX
  8
0
 62
7
  6
CONTINUOUS
 10
369.893340738
 20
40.2427092591
  0
VERTEX
  8
0
 62
7
  6
CONTINUOUS
 10
369.8776218011
 20
39.6425527081
  0
VERTEX
  8
0
 62
7
  6
CONTINUOUS
 10
369.8614070464
 20
39.0344545314
  0
VERTEX
  8
0
 62
7
  6
CONTINUOUS
 10
369.8447090928
 20
38.4194368536
  0
VERTEX
  8
0
 62
7
  6
CONTINUOUS
 10
369.8275514043
 20
37.798853272
  0
VERTEX
  8
0
 62
7
  6
CONTINUOUS
 10
369.8099821438
 20
37.1748424931
  0
VERTEX
  8
0
 62
7
  6
CONTINUOUS
 10
369.7920444399
 20
36.5492251086
  0
VERTEX
  8
0
 62
7
  6
CONTINUOUS
 10
369.7736774279
 20
35.9201668278
  0
VERTEX
  8
0
 62
7
  6
CONTINUOUS
 10
369.7547453656
 20
35.2834724232
  0
VERTEX
  8
0
 62
7
  6
CONTINUOUS
 10
369.7351762152
 20
34.6373416818
  0
VERTEX
  8
0
 62
7
  6
CONTINUOUS
 10
369.7151005347
 20
33.9866284906
  0
VERTEX
  8
0
 62
7
  6
CONTINUOUS
 10
369.6946696614
 20
33.3365047484
  0
VERTEX
  8
0
 62
7
  6
CONTINUOUS
 10
369.6737952432
 20
32.6843535742
  0
VERTEX
  8
0
 62
7
  6
CONTINUOUS
 10
369.6522241893
 20
32.0227400105
  0
VERTEX
  8
0
 62
7
  6
CONTINUOUS
 10
369.6298289161
 20
31.3485218739
  0
VERTEX
  8
0
 62
7
  6
CONTINUOUS
 10
369.6068308667
 20
30.6690276981
  0
VERTEX
  8
0
 62
7
  6
CONTINUOUS
 10
369.5834689544
 20
29.9915690016
  0
VERTEX
  8
0
 62
7
  6
CONTINUOUS
 10
369.5596481432
 20
29.3135096124
  0
VERTEX
  8
0
 62
7
  6
CONTINUOUS
 10
369.5350684417
 20
28.6267289987
  0
VERTEX
  8
0
 62
7
  6
CONTINUOUS
 10
369.509561693
 20
27.9272886486
  0
VERTEX
  8
0
 62
7
  6
CONTINUOUS
 10
369.4832591996
 20
27.2195458804
  0
VERTEX
  8
0
 62
7
  6
CONTINUOUS
 10
369.456315227
 20
26.5081581252
  0
VERTEX
  8
0
 62
7
  6
CONTINUOUS
 10
369.42875022
 20
25.7940017801
  0
VERTEX
  8
0
 62
7
  6
CONTINUOUS
 10
369.4005283511
 20
25.0764533795
  0
VERTEX
  8
0
 62
7
  6
CONTINUOUS
 10
369.3715627117
 20
24.3536739893
  0
VERTEX
  8
0
 62
7
  6
CONTINUOUS
 10
369.3416910003
 20
23.6221359033
  0
VERTEX
  8
0
 62
7
  6
CONTINUOUS
 10
369.3107667045
 20
22.8789572736
  0
VERTEX
  8
0
 62
7
  6
CONTINUOUS
 10
369.27885595
 20
22.1264545479
  0
VERTEX
  8
0
 62
7
  6
CONTINUOUS
 10
369.2461166114
 20
21.3688945126
  0
VERTEX
  8
0
 62
7
  6
CONTINUOUS
 10
369.2126111966
 20
20.6080949667
  0
VERTEX
  8
0
 62
7
  6
CONTINUOUS
 10
369.1782486192
 20
19.8423548068
  0
VERTEX
  8
0
 62
7
  6
CONTINUOUS
 10
369.1429230893
 20
19.0697844398
  0
VERTEX
  8
0
 62
7
  6
CONTINUOUS
 10
369.106528151
 20
18.2886270971
  0
VERTEX
  8
0
 62
7
  6
CONTINUOUS
 10
369.0689668953
 20
17.4974663369
  0
VERTEX
  8
0
 62
7
  6
CONTINUOUS
 10
369.0302036421
 20
16.6962594084
  0
VERTEX
  8
0
 62
7
  6
CONTINUOUS
 10
368.990261681
 20
15.8861688148
  0
VERTEX
  8
0
 62
7
  6
CONTINUOUS
 10
368.9491572489
 20
15.0681479504
  0
VERTEX
  8
0
 62
7
  6
CONTINUOUS
 10
368.9068735852
 20
14.2424549159
  0
VERTEX
  8
0
 62
7
  6
CONTINUOUS
 10
368.8633678167
 20
13.4088453272
  0
VERTEX
  8
0
 62
7
  6
CONTINUOUS
 10
368.8185643571
 20
12.5664958495
  0
VERTEX
  8
0
 62
7
  6
CONTINUOUS
 10
368.7723824136
 20
11.7145623509
  0
VERTEX
  8
0
 62
7
  6
CONTINUOUS
 10
368.7247408476
 20
10.8522723307
  0
VERTEX
  8
0
 62
7
  6
CONTINUOUS
 10
368.6755673852
 20
9.9790837009
  0
VERTEX
  8
0
 62
7
  6
CONTINUOUS
 10
368.6248077967
 20
9.0948247524
  0
VERTEX
  8
0
 62
7
  6
CONTINUOUS
 10
368.5724093479
 20
8.1993813367
  0
VERTEX
  8
0
 62
7
  6
CONTINUOUS
 10
368.5183223738
 20
7.2927185836
  0
VERTEX
  8
0
 62
7
  6
CONTINUOUS
 10
368.4624846858
 20
6.3746202312
  0
VERTEX
  8
0
 62
7
  6
CONTINUOUS
 10
368.404773368
 20
5.4439367012
  0
VERTEX
  8
0
 62
7
  6
CONTINUOUS
 10
368.3450477056
 20
4.4993488869
  0
VERTEX
  8
0
 62
7
  6
CONTINUOUS
 10
368.2832146691
 20
3.5403959408
  0
VERTEX
  8
0
 62
7
  6
CONTINUOUS
 10
368.2191944095
 20
2.5668785687
  0
VERTEX
  8
0
 62
7
  6
CONTINUOUS
 10
368.1529119078
 20
1.5787128514
  0
VERTEX
  8
0
 62
7
  6
CONTINUOUS
 10
368.0842039269
 20
0.574574015
  0
VERTEX
  8
0
 62
7
  6
CONTINUOUS
 10
368.0128523862
 20
-0.4475058856
  0
VERTEX
  8
0
 62
7
  6
CONTINUOUS
 10
367.93866691
 20
-1.4889186931
  0
VERTEX
  8
0
 62
7
  6
CONTINUOUS
 10
367.8614352178
 20
-2.5512021951
  0
VERTEX
  8
0
 62
7
  6
CONTINUOUS
 10
367.7809498477
 20
-3.6356597138
  0
VERTEX
  8
0
 62
7
  6
CONTINUOUS
 10
367.697055279
 20
-4.7427584516
  0
VERTEX
  8
0
 62
7
  6
CONTINUOUS
 10
367.6095941186
 20
-5.8728956272
  0
VERTEX
  8
0
 62
7
  6
CONTINUOUS
 10
367.5182501966
 20
-7.0284124182
  0
VERTEX
  8
0
 62
7
  6
CONTINUOUS
 10
367.4225668419
 20
-8.2132423169
  0
VERTEX
  8
0
 62
7
  6
CONTINUOUS
 10
367.3220248522
 20
-9.4317070551
  0
VERTEX
  8
0
 62
7
  6
CONTINUOUS
 10
367.2159683538
 20
-10.6893028567
  0
VERTEX
  8
0
 62
7
  6
CONTINUOUS
 10
367.1036806884
 20
-11.9916707001
  0
VERTEX
  8
0
 62
7
  6
CONTINUOUS
 10
366.9844549002
 20
-13.3437464262
  0
VERTEX
  8
0
 62
7
  6
CONTINUOUS
 10
366.857564992
 20
-14.7501069882
  0
VERTEX
  8
0
 62
7
  6
CONTINUOUS
 10
366.7214449153
 20
-16.2237498179
  0
VERTEX
  8
0
 62
7
  6
CONTINUOUS
 10
366.5732272927
 20
-17.7898434261
  0
VERTEX
  8
0
 62
7
  6
CONTINUOUS
 10
366.4101332311
 20
-19.4698794157
  0
VERTEX
  8
0
 62
7
  6
CONTINUOUS
 10
366.2307178806
 20
-21.2694221942
  0
VERTEX
  8
0
 62
7
  6
CONTINUOUS
 10
366.0339764642
 20
-23.1885383205
  0
VERTEX
  8
0
 62
7
  6
CONTINUOUS
 10
365.8195978421
 20
-25.2201117415
  0
VERTEX
  8
0
 62
7
  6
CONTINUOUS
 10
365.5874596461
 20
-27.3554737784
  0
VERTEX
  8
0
 62
7
  6
CONTINUOUS
 10
365.3375082521
 20
-29.5857944182
  0
VERTEX
  8
0
 62
7
  6
CONTINUOUS
 10
365.0731525145
 20
-31.873305883
  0
VERTEX
  8
0
 62
7
  6
CONTINUOUS
 10
364.8055457477
 20
-34.1203484707
  0
VERTEX
  8
0
 62
7
  6
CONTINUOUS
 10
364.548105886
 20
-36.2219792476
  0
VERTEX
  8
0
 62
7
  6
CONTINUOUS
 10
364.3155377229
 20
-38.0735721449
  0
SEQEND
  0
POLYLINE
  8
0
 62
7
  6
CONTINUOUS
 66
1
 70
0
  0
VERTEX
  8
0
 62
7
  6
CONTINUOUS
 10
374.3125001939
 20
294.5417106483
  0
VERTEX
  8
0
 62
7
  6
CONTINUOUS
 10
374.3011740866
 20
293.8661127499
  0
VERTEX
  8
0
 62
7
  6
CONTINUOUS
 10
374.2899814629
 20
293.1981993819
  0
VERTEX
  8
0
 62
7
  6
CONTINUOUS
 10
374.2789507604
 20
292.5397161953
  0
VERTEX
  8
0
 62
7
  6
CONTINUOUS
 10
374.2680719666
 20
291.8901119371
  0
VERTEX
  8
0
 62
7
  6
CONTINUOUS
 10
374.2573013331
 20
291.2468164366
  0
VERTEX
  8
0
 62
7
  6
CONTINUOUS
 10
374.246593232
 20
290.6071426706
  0
VERTEX
  8
0
 62
7
  6
CONTINUOUS
 10
374.2359041263
 20
289.9685254291
  0
SEQEND
  0
POLYLINE
  8
0
 62
7
  6
CONTINUOUS
 66
1
 70
0
  0
VERTEX
  8
0
 62
7
  6
CONTINUOUS
 10
374.5352194899
 20
307.7577780041
  0
VERTEX
  8
0
 62
7
  6
CONTINUOUS
 10
374.5228702063
 20
307.0287284777
  0
VERTEX
  8
0
 62
7
  6
CONTINUOUS
 10
374.5099485375
 20
306.2653830949
  0
VERTEX
  8
0
 62
7
  6
CONTINUOUS
 10
374.4967229073
 20
305.4835533569
  0
VERTEX
  8
0
 62
7
  6
CONTINUOUS
 10
374.4834832181
 20
304.7003645372
  0
VERTEX
  8
0
 62
7
  6
CONTINUOUS
 10
374.4703669654
 20
303.9239635545
  0
VERTEX
  8
0
 62
7
  6
CONTINUOUS
 10
374.4574337079
 20
303.15790058
  0
VERTEX
  8
0
 62
7
  6
CONTINUOUS
 10
374.4446959789
 20
302.4029460602
  0
VERTEX
  8
0
 62
7
  6
CONTINUOUS
 10
374.4321019135
 20
301.6560511638
  0
VERTEX
  8
0
 62
7
  6
CONTINUOUS
 10
374.4196052506
 20
300.9144916251
  0
VERTEX
  8
0
 62
7
  6
CONTINUOUS
 10
374.4072124708
 20
300.1786687891
  0
VERTEX
  8
0
 62
7
  6
CONTINUOUS
 10
374.3949463517
 20
299.4499530025
  0
VERTEX
  8
0
 62
7
  6
CONTINUOUS
 10
374.382813636
 20
298.728763851
  0
VERTEX
  8
0
 62
7
  6
CONTINUOUS
 10
374.3708048246
 20
298.0145550914
  0
VERTEX
  8
0
 62
7
  6
CONTINUOUS
 10
374.3125001939
 20
294.5417106483
  0
SEQEND
  0
LINE
  8
0
 62
7
  6
CONTINUOUS
 10
374.2359041263
 20
289.9685254291
 11
374.0835130497
 21
280.8755009684
  0
POLYLINE
  8
0
 62
7
  6
CONTINUOUS
 66
1
 70
0
  0
VERTEX
  8
0
 62
7
  6
CONTINUOUS
 10
374.7156805681
 20
318.3543144393
  0
VERTEX
  8
0
 62
7
  6
CONTINUOUS
 10
374.697790058
 20
317.3087993248
  0
VERTEX
  8
0
 62
7
  6
CONTINUOUS
 10
374.6810048205
 20
316.3268386398
  0
VERTEX
  8
0
 62
7
  6
CONTINUOUS
 10
374.6651340729
 20
315.3974640924
  0
VERTEX
  8
0
 62
7
  6
CONTINUOUS
 10
374.649960025
 20
314.5080673166
  0
VERTEX
  8
0
 62
7
  6
CONTINUOUS
 10
374.6353795976
 20
313.6527175188
  0
VERTEX
  8
0
 62
7
  6
CONTINUOUS
 10
374.6213274743
 20
312.8276752397
  0
VERTEX
  8
0
 62
7
  6
CONTINUOUS
 10
374.6077902004
 20
312.0322323514
  0
VERTEX
  8
0
 62
7
  6
CONTINUOUS
 10
374.5948129164
 20
311.2691209768
  0
VERTEX
  8
0
 62
7
  6
CONTINUOUS
 10
374.5824170231
 20
310.5396790909
  0
VERTEX
  8
0
 62
7
  6
CONTINUOUS
 10
374.5352194899
 20
307.7577780041
  0
SEQEND
  0
LINE
  8
0
 62
7
  6
CONTINUOUS
 10
374.0835130497
 20
280.8755009684
 11
373.9582809635
 21
273.4643219163
  0
POLYLINE
  8
0
 62
7
  6
CONTINUOUS
 66
1
 70
0
  0
VERTEX
  8
0
 62
7
  6
CONTINUOUS
 10
374.873051674
 20
327.4998092792
  0
VERTEX
  8
0
 62
7
  6
CONTINUOUS
 10
374.8592948371
 20
326.7041282924
  0
VERTEX
  8
0
 62
7
  6
CONTINUOUS
 10
374.8453991274
 20
325.8996610575
  0
VERTEX
  8
0
 62
7
  6
CONTINUOUS
 10
374.8303877579
 20
325.0297594901
  0
VERTEX
  8
0
 62
7
  6
CONTINUOUS
 10
374.8133156995
 20
324.0393838678
  0
VERTEX
  8
0
 62
7
  6
CONTINUOUS
 10
374.7941460662
 20
322.9259952325
  0
VERTEX
  8
0
 62
7
  6
CONTINUOUS
 10
374.774079045
 20
321.7589947501
  0
VERTEX
  8
0
 62
7
  6
CONTINUOUS
 10
374.7156805681
 20
318.3543144393
  0
SEQEND
  0
LINE
  8
0
 62
7
  6
CONTINUOUS
 10
373.9582809635
 20
273.4643219163
 11
373.8858828943
 21
269.2261774379
  0
POLYLINE
  8
0
 62
7
  6
CONTINUOUS
 66
1
 70
0
  0
VERTEX
  8
0
 62
7
  6
CONTINUOUS
 10
374.9929227141
 20
334.4008337997
  0
VERTEX
  8
0
 62
7
  6
CONTINUOUS
 10
374.9685011705
 20
332.9996384216
  0
VERTEX
  8
0
 62
7
  6
CONTINUOUS
 10
374.9447668941
 20
331.6355155083
  0
VERTEX
  8
0
 62
7
  6
CONTINUOUS
 10
374.9230696226
 20
330.3864540405
  0
VERTEX
  8
0
 62
7
  6
CONTINUOUS
 10
374.873051674
 20
327.4998092792
  0
SEQEND
  0
LINE
  8
0
 62
7
  6
CONTINUOUS
 10
373.8858828943
 20
269.2261774379
 11
373.8147895772
 21
265.1077019568
  0
POLYLINE
  8
0
 62
7
  6
CONTINUOUS
 66
1
 70
0
  0
VERTEX
  8
0
 62
7
  6
CONTINUOUS
 10
375.1315689104
 20
342.30788989
  0
VERTEX
  8
0
 62
7
  6
CONTINUOUS
 10
375.1310745545
 20
342.2798438041
  0
VERTEX
  8
0
 62
7
  6
CONTINUOUS
 10
375.1152583581
 20
341.3819863416
  0
VERTEX
  8
0
 62
7
  6
CONTINUOUS
 10
375.1006638785
 20
340.5525169036
  0
VERTEX
  8
0
 62
7
  6
CONTINUOUS
 10
375.086434195
 20
339.7428913275
  0
VERTEX
  8
0
 62
7
  6
CONTINUOUS
 10
375.0716851627
 20
338.9027942566
  0
VERTEX
  8
0
 62
7
  6
CONTINUOUS
 10
375.0555127087
 20
337.9805464031
  0
VERTEX
  8
0
 62
7
  6
CONTINUOUS
 10
374.9929227141
 20
334.4008337997
  0
SEQEND
  0
LINE
  8
0
 62
7
  6
CONTINUOUS
 10
373.8147895772
 20
265.1077019568
 11
373.7662894023
 21
262.3271503482
  0
LINE
  8
0
 62
7
  6
CONTINUOUS
 10
373.7662894023
 20
262.3271503482
 11
373.7173410277
 21
259.5491012792
  0
LINE
  8
0
 62
7
  6
CONTINUOUS
 10
373.7173410277
 20
259.5491012792
 11
373.6775700152
 21
257.3151648809
  0
LINE
  8
0
 62
7
  6
CONTINUOUS
 10
373.6775700152
 20
257.3151648809
 11
373.6405362164
 21
255.2552850688
  0
LINE
  8
0
 62
7
  6
CONTINUOUS
 10
373.6405362164
 20
255.2552850688
 11
373.6044118599
 21
253.2659981245
  0
LINE
  8
0
 62
7
  6
CONTINUOUS
 10
373.6044118599
 20
253.2659981245
 11
373.5760974242
 21
251.7212193978
  0
LINE
  8
0
 62
7
  6
CONTINUOUS
 10
373.5760974242
 20
251.7212193978
 11
373.5362558827
 21
249.5698443623
  0
LINE
  8
0
 62
7
  6
CONTINUOUS
 10
373.5362558827
 20
249.5698443623
 11
373.5148180344
 21
248.4233191396
  0
LINE
  8
0
 62
7
  6
CONTINUOUS
 10
373.5148180344
 20
248.4233191396
 11
373.4862378983
 21
246.907148331
  0
LINE
  8
0
 62
7
  6
CONTINUOUS
 10
373.4862378983
 20
246.907148331
 11
373.4530648582
 21
245.1653035023
  0
POLYLINE
  8
0
 62
7
  6
CONTINUOUS
 66
1
 70
0
  0
VERTEX
  8
0
 62
7
  6
CONTINUOUS
 10
373.4530648582
 20
245.1653035023
  0
VERTEX
  8
0
 62
7
  6
CONTINUOUS
 10
373.4238032397
 20
243.6451187424
  0
VERTEX
  8
0
 62
7
  6
CONTINUOUS
 10
373.412782127
 20
243.0765512171
  0
VERTEX
  8
0
 62
7
  6
CONTINUOUS
 10
373.4011293259
 20
242.4777873321
  0
VERTEX
  8
0
 62
7
  6
CONTINUOUS
 10
373.388864861
 20
241.8502580224
  0
VERTEX
  8
0
 62
7
  6
CONTINUOUS
 10
373.3759788544
 20
241.193878973
  0
VERTEX
  8
0
 62
7
  6
CONTINUOUS
 10
373.3624394078
 20
240.5074835384
  0
VERTEX
  8
0
 62
7
  6
CONTINUOUS
 10
373.3482030493
 20
239.7893778156
  0
VERTEX
  8
0
 62
7
  6
CONTINUOUS
 10
373.3332532375
 20
239.0392867538
  0
VERTEX
  8
0
 62
7
  6
CONTINUOUS
 10
373.3178124026
 20
238.268869783
  0
VERTEX
  8
0
 62
7
  6
CONTINUOUS
 10
373.3020509986
 20
237.4869663647
  0
VERTEX
  8
0
 62
7
  6
CONTINUOUS
 10
373.2861234573
 20
236.7013363049
  0
VERTEX
  8
0
 62
7
  6
CONTINUOUS
 10
373.2701834883
 20
235.9194840155
  0
VERTEX
  8
0
 62
7
  6
CONTINUOUS
 10
373.2545159189
 20
235.1551298891
  0
VERTEX
  8
0
 62
7
  6
CONTINUOUS
 10
373.2398668484
 20
234.4440537188
  0
VERTEX
  8
0
 62
7
  6
CONTINUOUS
 10
373.2268978716
 20
233.8173380466
  0
VERTEX
  8
0
 62
7
  6
CONTINUOUS
 10
373.215014153
 20
233.2453179405
  0
VERTEX
  8
0
 62
7
  6
CONTINUOUS
 10
373.2031059413
 20
232.6742233855
  0
VERTEX
  8
0
 62
7
  6
CONTINUOUS
 10
373.1903225391
 20
232.0634416336
  0
VERTEX
  8
0
 62
7
  6
CONTINUOUS
 10
373.1767100439
 20
231.4155790473
  0
VERTEX
  8
0
 62
7
  6
CONTINUOUS
 10
373.1626175893
 20
230.7475489119
  0
VERTEX
  8
0
 62
7
  6
CONTINUOUS
 10
373.1482757203
 20
230.0704093028
  0
VERTEX
  8
0
 62
7
  6
CONTINUOUS
 10
373.1338914674
 20
229.3939374063
  0
VERTEX
  8
0
 62
7
  6
CONTINUOUS
 10
373.1196726614
 20
228.7277957849
  0
VERTEX
  8
0
 62
7
  6
CONTINUOUS
 10
373.1058306616
 20
228.0816713613
  0
SEQEND
  0
POLYLINE
  8
0
 62
7
  6
CONTINUOUS
 66
1
 70
0
  0
VERTEX
  8
0
 62
7
  6
CONTINUOUS
 10
371.6116537396
 20
162.1341469328
  0
VERTEX
  8
0
 62
7
  6
CONTINUOUS
 10
371.5999789389
 20
161.5720085161
  0
VERTEX
  8
0
 62
7
  6
CONTINUOUS
 10
371.5878120366
 20
160.9837123295
  0
VERTEX
  8
0
 62
7
  6
CONTINUOUS
 10
371.5748865445
 20
160.3559221691
  0
VERTEX
  8
0
 62
7
  6
CONTINUOUS
 10
371.5609273932
 20
159.6745939136
  0
VERTEX
  8
0
 62
7
  6
CONTINUOUS
 10
371.5465133835
 20
158.9673407052
  0
VERTEX
  8
0
 62
7
  6
CONTINUOUS
 10
371.5328066369
 20
158.2911902685
  0
VERTEX
  8
0
 62
7
  6
CONTINUOUS
 10
371.5202866764
 20
157.6704389348
  0
VERTEX
  8
0
 62
7
  6
CONTINUOUS
 10
371.5085939399
 20
157.087926187
  0
VERTEX
  8
0
 62
7
  6
CONTINUOUS
 10
371.4972794725
 20
156.5216483406
  0
VERTEX
  8
0
 62
7
  6
CONTINUOUS
 10
371.4859234214
 20
155.9506514576
  0
VERTEX
  8
0
 62
7
  6
CONTINUOUS
 10
371.4741196543
 20
155.3542794563
  0
VERTEX
  8
0
 62
7
  6
CONTINUOUS
 10
371.4615000627
 20
154.7133851419
  0
VERTEX
  8
0
 62
7
  6
CONTINUOUS
 10
371.4478347374
 20
154.0154354908
  0
VERTEX
  8
0
 62
7
  6
CONTINUOUS
 10
371.4329620667
 20
153.2510287116
  0
VERTEX
  8
0
 62
7
  6
CONTINUOUS
 10
371.4172958315
 20
152.4402707925
  0
VERTEX
  8
0
 62
7
  6
CONTINUOUS
 10
371.4017885961
 20
151.6319403657
  0
VERTEX
  8
0
 62
7
  6
CONTINUOUS
 10
371.387115606
 20
150.8616111538
  0
VERTEX
  8
0
 62
7
  6
CONTINUOUS
 10
371.3733583402
 20
150.1343618764
  0
VERTEX
  8
0
 62
7
  6
CONTINUOUS
 10
371.3604010412
 20
149.4448483128
  0
VERTEX
  8
0
 62
7
  6
CONTINUOUS
 10
371.3474365286
 20
148.7504024275
  0
VERTEX
  8
0
 62
7
  6
CONTINUOUS
 10
371.3332721163
 20
147.9863280948
  0
VERTEX
  8
0
 62
7
  6
CONTINUOUS
 10
371.3170399499
 20
147.1036101913
  0
VERTEX
  8
0
 62
7
  6
CONTINUOUS
 10
371.2996853574
 20
146.1511547255
  0
VERTEX
  8
0
 62
7
  6
CONTINUOUS
 10
371.2827071524
 20
145.2103104132
  0
VERTEX
  8
0
 62
7
  6
CONTINUOUS
 10
371.2665429671
 20
144.3059240471
  0
VERTEX
  8
0
 62
7
  6
CONTINUOUS
 10
371.250991782
 20
143.4275524477
  0
VERTEX
  8
0
 62
7
  6
CONTINUOUS
 10
371.2356856386
 20
142.5547773817
  0
VERTEX
  8
0
 62
7
  6
CONTINUOUS
 10
371.2199352091
 20
141.6477895645
  0
VERTEX
  8
0
 62
7
  6
CONTINUOUS
 10
371.2030473762
 20
140.664878614
  0
VERTEX
  8
0
 62
7
  6
CONTINUOUS
 10
371.1846396303
 20
139.5806508162
  0
VERTEX
  8
0
 62
7
  6
CONTINUOUS
 10
371.1645486717
 20
138.3811913255
  0
VERTEX
  8
0
 62
7
  6
CONTINUOUS
 10
371.142680454
 20
137.0554344211
  0
VERTEX
  8
0
 62
7
  6
CONTINUOUS
 10
371.119008393
 20
135.5950439024
  0
VERTEX
  8
0
 62
7
  6
CONTINUOUS
 10
371.0938953621
 20
134.0149188737
  0
VERTEX
  8
0
 62
7
  6
CONTINUOUS
 10
371.068091532
 20
132.3555665657
  0
VERTEX
  8
0
 62
7
  6
CONTINUOUS
 10
371.0423822301
 20
130.6630734036
  0
VERTEX
  8
0
 62
7
  6
CONTINUOUS
 10
371.0177228853
 20
128.9995260506
  0
VERTEX
  8
0
 62
7
  6
CONTINUOUS
 10
370.9950690016
 20
127.4334011347
  0
VERTEX
  8
0
 62
7
  6
CONTINUOUS
 10
370.9752568226
 20
126.0319655652
  0
VERTEX
  8
0
 62
7
  6
CONTINUOUS
 10
370.9582340639
 20
124.8031488033
  0
VERTEX
  8
0
 62
7
  6
CONTINUOUS
 10
370.9431588123
 20
123.6951571983
  0
VERTEX
  8
0
 62
7
  6
CONTINUOUS
 10
370.9291588018
 20
122.6490273888
  0
VERTEX
  8
0
 62
7
  6
CONTINUOUS
 10
370.9155411467
 20
121.6151286209
  0
VERTEX
  8
0
 62
7
  6
CONTINUOUS
 10
370.9022934917
 20
120.5934116232
  0
VERTEX
  8
0
 62
7
  6
CONTINUOUS
 10
370.8896251327
 20
119.601287036
  0
VERTEX
  8
0
 62
7
  6
CONTINUOUS
 10
370.8777749645
 20
118.6595357442
  0
VERTEX
  8
0
 62
7
  6
CONTINUOUS
 10
370.8669320835
 20
117.7859446558
  0
VERTEX
  8
0
 62
7
  6
CONTINUOUS
 10
370.8570561609
 20
116.9801498867
  0
VERTEX
  8
0
 62
7
  6
CONTINUOUS
 10
370.8480826241
 20
116.2394555019
  0
VERTEX
  8
0
 62
7
  6
CONTINUOUS
 10
370.8399538758
 20
115.5613557275
  0
VERTEX
  8
0
 62
7
  6
CONTINUOUS
 10
370.8326165892
 20
114.9433597801
  0
VERTEX
  8
0
 62
7
  6
CONTINUOUS
 10
370.8259379316
 20
114.3758833544
  0
VERTEX
  8
0
 62
7
  6
CONTINUOUS
 10
370.8196702653
 20
113.838976371
  0
VERTEX
  8
0
 62
7
  6
CONTINUOUS
 10
370.8135651121
 20
113.3118895735
  0
VERTEX
  8
0
 62
7
  6
CONTINUOUS
 10
370.8074186052
 20
112.7770956617
  0
VERTEX
  8
0
 62
7
  6
CONTINUOUS
 10
370.8011120478
 20
112.2240113161
  0
VERTEX
  8
0
 62
7
  6
CONTINUOUS
 10
370.7945396317
 20
111.6428511431
  0
VERTEX
  8
0
 62
7
  6
CONTINUOUS
 10
370.7876355607
 20
111.0270691329
  0
VERTEX
  8
0
 62
7
  6
CONTINUOUS
 10
370.7804593208
 20
110.3811897478
  0
VERTEX
  8
0
 62
7
  6
CONTINUOUS
 10
370.7730908899
 20
109.7117593506
  0
VERTEX
  8
0
 62
7
  6
CONTINUOUS
 10
370.7656265527
 20
109.0270738543
  0
VERTEX
  8
0
 62
7
  6
CONTINUOUS
 10
370.7581781015
 20
108.3372006349
  0
VERTEX
  8
0
 62
7
  6
CONTINUOUS
 10
370.7509001153
 20
107.6566270913
  0
VERTEX
  8
0
 62
7
  6
CONTINUOUS
 10
370.7440899733
 20
107.013928263
  0
VERTEX
  8
0
 62
7
  6
CONTINUOUS
 10
370.7380378443
 20
106.4379516327
  0
VERTEX
  8
0
 62
7
  6
CONTINUOUS
 10
370.7327018889
 20
105.9263413466
  0
VERTEX
  8
0
 62
7
  6
CONTINUOUS
 10
370.7230626258
 20
104.9930364052
  0
SEQEND
  0
LINE
  8
0
 62
7
  6
CONTINUOUS
 10
371.6439464988
 20
163.6773651709
 11
371.6116537396
 21
162.1341469328
  0
LINE
  8
0
 62
7
  6
CONTINUOUS
 10
371.6746695637
 20
165.1303265283
 11
371.6439464988
 21
163.6773651709
  0
POLYLINE
  8
0
 62
7
  6
CONTINUOUS
 66
1
 70
0
  0
VERTEX
  8
0
 62
7
  6
CONTINUOUS
 10
371.7237794566
 20
167.4241753383
  0
VERTEX
  8
0
 62
7
  6
CONTINUOUS
 10
371.7109678154
 20
166.8289840811
  0
VERTEX
  8
0
 62
7
  6
CONTINUOUS
 10
371.6981686312
 20
166.2321452441
  0
VERTEX
  8
0
 62
7
  6
CONTINUOUS
 10
371.6746695637
 20
165.1303265283
  0
SEQEND
  0
LINE
  8
0
 62
7
  6
CONTINUOUS
 10
373.1058306616
 20
228.0816713613
 11
373.0801361906
 21
226.8882472442
  0
LINE
  8
0
 62
7
  6
CONTINUOUS
 10
371.7599700177
 20
169.0940359063
 11
371.7237794566
 21
167.4241753383
  0
LINE
  8
0
 62
7
  6
CONTINUOUS
 10
373.0801361906
 20
226.8882472442
 11
373.0481453101
 21
225.412670816
  0
LINE
  8
0
 62
7
  6
CONTINUOUS
 10
371.7825999554
 20
170.1301023773
 11
371.7599700177
 21
169.0940359063
  0
LINE
  8
0
 62
7
  6
CONTINUOUS
 10
373.0481453101
 20
225.412670816
 11
373.0184413762
 21
224.0521965186
  0
POLYLINE
  8
0
 62
7
  6
CONTINUOUS
 66
1
 70
0
  0
VERTEX
  8
0
 62
7
  6
CONTINUOUS
 10
371.8262737406
 20
172.1134532488
  0
VERTEX
  8
0
 62
7
  6
CONTINUOUS
 10
371.8155725462
 20
171.6293603312
  0
VERTEX
  8
0
 62
7
  6
CONTINUOUS
 10
371.7825999554
 20
170.1301023773
  0
SEQEND
  0
LINE
  8
0
 62
7
  6
CONTINUOUS
 10
373.0184413762
 20
224.0521965186
 11
372.9739490935
 21
222.0304720945
  0
LINE
  8
0
 62
7
  6
CONTINUOUS
 10
371.8579632619
 20
173.5402953641
 11
371.8262737406
 21
172.1134532488
  0
LINE
  8
0
 62
7
  6
CONTINUOUS
 10
372.9739490935
 20
222.0304720945
 11
372.9368118949
 21
220.3565909212
  0
POLYLINE
  8
0
 62
7
  6
CONTINUOUS
 66
1
 70
0
  0
VERTEX
  8
0
 62
7
  6
CONTINUOUS
 10
371.9023024614
 20
175.5210898819
  0
VERTEX
  8
0
 62
7
  6
CONTINUOUS
 10
371.8907759947
 20
175.0078132178
  0
VERTEX
  8
0
 62
7
  6
CONTINUOUS
 10
371.8579632619
 20
173.5402953641
  0
SEQEND
  0
LINE
  8
0
 62
7
  6
CONTINUOUS
 10
372.9368118949
 20
220.3565909212
 11
372.8859826523
 21
218.0838137487
  0
LINE
  8
0
 62
7
  6
CONTINUOUS
 10
371.9386257547
 20
177.1315180989
 11
371.9023024614
 21
175.5210898819
  0
LINE
  8
0
 62
7
  6
CONTINUOUS
 10
372.8859826523
 20
218.0838137487
 11
372.8459532307
 21
216.3074122839
  0
POLYLINE
  8
0
 62
7
  6
CONTINUOUS
 66
1
 70
0
  0
VERTEX
  8
0
 62
7
  6
CONTINUOUS
 10
371.9915785557
 20
179.4617658525
  0
VERTEX
  8
0
 62
7
  6
CONTINUOUS
 10
371.9778878391
 20
178.861133653
  0
VERTEX
  8
0
 62
7
  6
CONTINUOUS
 10
371.9386257547
 20
177.1315180989
  0
SEQEND
  0
LINE
  8
0
 62
7
  6
CONTINUOUS
 10
372.8459532307
 20
216.3074122839
 11
372.7938160619
 21
214.0096067625
  0
POLYLINE
  8
0
 62
7
  6
CONTINUOUS
 66
1
 70
0
  0
VERTEX
  8
0
 62
7
  6
CONTINUOUS
 10
372.0521489976
 20
182.1053573245
  0
VERTEX
  8
0
 62
7
  6
CONTINUOUS
 10
372.0366857112
 20
181.4324596906
  0
VERTEX
  8
0
 62
7
  6
CONTINUOUS
 10
371.9915785557
 20
179.4617658525
  0
SEQEND
  0
LINE
  8
0
 62
7
  6
CONTINUOUS
 10
372.7938160619
 20
214.0096067625
 11
372.7313584597
 21
211.277790398
  0
POLYLINE
  8
0
 62
7
  6
CONTINUOUS
 66
1
 70
0
  0
VERTEX
  8
0
 62
7
  6
CONTINUOUS
 10
372.1339521538
 20
185.6458018248
  0
VERTEX
  8
0
 62
7
  6
CONTINUOUS
 10
372.1203544518
 20
185.0593104683
  0
VERTEX
  8
0
 62
7
  6
CONTINUOUS
 10
372.1073087075
 20
184.4959255995
  0
VERTEX
  8
0
 62
7
  6
CONTINUOUS
 10
372.0944156785
 20
183.9384238005
  0
VERTEX
  8
0
 62
7
  6
CONTINUOUS
 10
372.0521489976
 20
182.1053573245
  0
SEQEND
  0
LINE
  8
0
 62
7
  6
CONTINUOUS
 10
372.7313584597
 20
211.277790398
 11
372.6435446275
 21
207.4688946858
  0
POLYLINE
  8
0
 62
7
  6
CONTINUOUS
 66
1
 70
0
  0
VERTEX
  8
0
 62
7
  6
CONTINUOUS
 10
372.278417317
 20
191.8416722139
  0
VERTEX
  8
0
 62
7
  6
CONTINUOUS
 10
372.2506800748
 20
190.6559085916
  0
VERTEX
  8
0
 62
7
  6
CONTINUOUS
 10
372.224571469
 20
189.5384410564
  0
VERTEX
  8
0
 62
7
  6
CONTINUOUS
 10
372.2012133047
 20
188.5373674544
  0
VERTEX
  8
0
 62
7
  6
CONTINUOUS
 10
372.1812606542
 20
187.6810928726
  0
VERTEX
  8
0
 62
7
  6
CONTINUOUS
 10
372.1339521538
 20
185.6458018248
  0
SEQEND
  0
LINE
  8
0
 62
7
  6
CONTINUOUS
 10
372.6435446275
 20
207.4688946858
 11
372.5595530404
 21
203.8531321669
  0
POLYLINE
  8
0
 62
7
  6
CONTINUOUS
 66
1
 70
0
  0
VERTEX
  8
0
 62
7
  6
CONTINUOUS
 10
372.5595530404
 20
203.8531321669
  0
VERTEX
  8
0
 62
7
  6
CONTINUOUS
 10
372.3881023239
 20
196.522850223
  0
VERTEX
  8
0
 62
7
  6
CONTINUOUS
 10
372.3617535271
 20
195.3988417527
  0
VERTEX
  8
0
 62
7
  6
CONTINUOUS
 10
372.278417317
 20
191.8416722139
  0
SEQEND
  0
POLYLINE
  8
0
 62
7
  6
CONTINUOUS
 66
1
 70
0
  0
VERTEX
  8
0
 62
7
  6
CONTINUOUS
 10
364.3156478845
 20
-38.0732974582
  0
VERTEX
  8
0
 62
7
  6
CONTINUOUS
 10
364.2957722178
 20
-38.229291776
  0
VERTEX
  8
0
 62
7
  6
CONTINUOUS
 10
364.2739966029
 20
-38.3990802948
  0
VERTEX
  8
0
 62
7
  6
CONTINUOUS
 10
364.2501895109
 20
-38.5833957931
  0
VERTEX
  8
0
 62
7
  6
CONTINUOUS
 10
364.2242001851
 20
-38.7830723566
  0
VERTEX
  8
0
 62
7
  6
CONTINUOUS
 10
364.1957781501
 20
-38.9996465691
  0
VERTEX
  8
0
 62
7
  6
CONTINUOUS
 10
364.1646552758
 20
-39.2347029548
  0
VERTEX
  8
0
 62
7
  6
CONTINUOUS
 10
364.1305820712
 20
-39.4895903794
  0
VERTEX
  8
0
 62
7
  6
CONTINUOUS
 10
364.0933126363
 20
-39.7655329351
  0
VERTEX
  8
0
 62
7
  6
CONTINUOUS
 10
364.0525205216
 20
-40.0642383085
  0
VERTEX
  8
0
 62
7
  6
CONTINUOUS
 10
364.0078552766
 20
-40.3874507038
  0
VERTEX
  8
0
 62
7
  6
CONTINUOUS
 10
363.9588426143
 20
-40.7376407606
  0
VERTEX
  8
0
 62
7
  6
CONTINUOUS
 10
363.9049390008
 20
-41.1175547477
  0
VERTEX
  8
0
 62
7
  6
CONTINUOUS
 10
363.8456133352
 20
-41.529603082
  0
VERTEX
  8
0
 62
7
  6
CONTINUOUS
 10
363.7802771369
 20
-41.9763271487
  0
VERTEX
  8
0
 62
7
  6
CONTINUOUS
 10
363.7082021713
 20
-42.4609050803
  0
VERTEX
  8
0
 62
7
  6
CONTINUOUS
 10
363.6285244421
 20
-42.9870307102
  0
VERTEX
  8
0
 62
7
  6
CONTINUOUS
 10
363.5402686554
 20
-43.5586568126
  0
VERTEX
  8
0
 62
7
  6
CONTINUOUS
 10
363.4423233866
 20
-44.1800616509
  0
VERTEX
  8
0
 62
7
  6
CONTINUOUS
 10
363.3333842052
 20
-44.856088935
  0
VERTEX
  8
0
 62
7
  6
CONTINUOUS
 10
363.2119284666
 20
-45.5921454491
  0
VERTEX
  8
0
 62
7
  6
CONTINUOUS
 10
363.0761768801
 20
-46.394247758
  0
VERTEX
  8
0
 62
7
  6
CONTINUOUS
 10
362.9240327957
 20
-47.2691548837
  0
VERTEX
  8
0
 62
7
  6
CONTINUOUS
 10
362.7530197256
 20
-48.2244478091
  0
VERTEX
  8
0
 62
7
  6
CONTINUOUS
 10
362.5601976664
 20
-49.2686558237
  0
VERTEX
  8
0
 62
7
  6
CONTINUOUS
 10
362.3420541187
 20
-50.4114246795
  0
VERTEX
  8
0
 62
7
  6
CONTINUOUS
 10
362.0943755744
 20
-51.6636657978
  0
VERTEX
  8
0
 62
7
  6
CONTINUOUS
 10
361.8120510412
 20
-53.0378931585
  0
VERTEX
  8
0
 62
7
  6
CONTINUOUS
 10
361.488793816
 20
-54.5487221575
  0
VERTEX
  8
0
 62
7
  6
CONTINUOUS
 10
361.1168204791
 20
-56.2132490722
  0
VERTEX
  8
0
 62
7
  6
CONTINUOUS
 10
360.6864257594
 20
-58.0515117559
  0
VERTEX
  8
0
 62
7
  6
CONTINUOUS
 10
360.1853822151
 20
-60.0871768339
  0
VERTEX
  8
0
 62
7
  6
CONTINUOUS
 10
359.5980878963
 20
-62.3485069039
  0
VERTEX
  8
0
 62
7
  6
CONTINUOUS
 10
358.9044168834
 20
-64.8694264183
  0
VERTEX
  8
0
 62
7
  6
CONTINUOUS
 10
358.0778451891
 20
-67.6917098471
  0
VERTEX
  8
0
 62
7
  6
CONTINUOUS
 10
357.0834176193
 20
-70.8655295661
  0
VERTEX
  8
0
 62
7
  6
CONTINUOUS
 10
355.8719932035
 20
-74.458466525
  0
VERTEX
  8
0
 62
7
  6
CONTINUOUS
 10
354.4325008995
 20
-78.4049872428
  0
VERTEX
  8
0
 62
7
  6
CONTINUOUS
 10
352.8415115257
 20
-82.4313191474
  0
VERTEX
  8
0
 62
7
  6
CONTINUOUS
 10
351.1539861394
 20
-86.3840722107
  0
VERTEX
  8
0
 62
7
  6
CONTINUOUS
 10
349.3715506414
 20
-90.2628270139
  0
VERTEX
  8
0
 62
7
  6
CONTINUOUS
 10
347.4925618678
 20
-94.0738531496
  0
VERTEX
  8
0
 62
7
  6
CONTINUOUS
 10
345.5165973843
 20
-97.8197395696
  0
VERTEX
  8
0
 62
7
  6
CONTINUOUS
 10
343.4419629838
 20
-101.5047173702
  0
VERTEX
  8
0
 62
7
  6
CONTINUOUS
 10
341.2664941988
 20
-105.132825067
  0
VERTEX
  8
0
 62
7
  6
CONTINUOUS
 10
338.9884984654
 20
-108.7064525662
  0
VERTEX
  8
0
 62
7
  6
CONTINUOUS
 10
336.6054419471
 20
-112.22861841
  0
VERTEX
  8
0
 62
7
  6
CONTINUOUS
 10
334.1150826716
 20
-115.7012064421
  0
VERTEX
  8
0
 62
7
  6
CONTINUOUS
 10
331.5141773202
 20
-119.1268656555
  0
VERTEX
  8
0
 62
7
  6
CONTINUOUS
 10
328.7989215918
 20
-122.5082205454
  0
VERTEX
  8
0
 62
7
  6
CONTINUOUS
 10
325.9657225456
 20
-125.846922544
  0
VERTEX
  8
0
 62
7
  6
CONTINUOUS
 10
323.0106029087
 20
-129.1444790906
  0
VERTEX
  8
0
 62
7
  6
CONTINUOUS
 10
319.9287860496
 20
-132.4026594024
  0
VERTEX
  8
0
 62
7
  6
CONTINUOUS
 10
316.715518578
 20
-135.6225629833
  0
VERTEX
  8
0
 62
7
  6
CONTINUOUS
 10
313.3649581865
 20
-138.8057494342
  0
VERTEX
  8
0
 62
7
  6
CONTINUOUS
 10
309.8702897867
 20
-141.9539553238
  0
VERTEX
  8
0
 62
7
  6
CONTINUOUS
 10
306.230240133
 20
-145.0635482729
  0
VERTEX
  8
0
 62
7
  6
CONTINUOUS
 10
302.5118064217
 20
-148.0773100686
  0
VERTEX
  8
0
 62
7
  6
CONTINUOUS
 10
298.9795528509
 20
-150.8006393397
  0
VERTEX
  8
0
 62
7
  6
CONTINUOUS
 10
295.8208604416
 20
-153.1296391622
  0
VERTEX
  8
0
 62
7
  6
CONTINUOUS
 10
293.0122018443
 20
-155.1218886543
  0
VERTEX
  8
0
 62
7
  6
CONTINUOUS
 10
290.5051864998
 20
-156.8412383614
  0
VERTEX
  8
0
 62
7
  6
CONTINUOUS
 10
288.2601819631
 20
-158.3360701234
  0
VERTEX
  8
0
 62
7
  6
CONTINUOUS
 10
286.2436538024
 20
-159.6442335207
  0
VERTEX
  8
0
 62
7
  6
CONTINUOUS
 10
284.4272419998
 20
-160.7956644659
  0
VERTEX
  8
0
 62
7
  6
CONTINUOUS
 10
282.7868916246
 20
-161.8143095895
  0
VERTEX
  8
0
 62
7
  6
CONTINUOUS
 10
281.3020642255
 20
-162.7195622219
  0
VERTEX
  8
0
 62
7
  6
CONTINUOUS
 10
279.9551676765
 20
-163.5272716576
  0
VERTEX
  8
0
 62
7
  6
CONTINUOUS
 10
278.7309730298
 20
-164.2505636483
  0
VERTEX
  8
0
 62
7
  6
CONTINUOUS
 10
277.6165142476
 20
-164.900240439
  0
VERTEX
  8
0
 62
7
  6
CONTINUOUS
 10
276.6001976394
 20
-165.4855509622
  0
VERTEX
  8
0
 62
7
  6
CONTINUOUS
 10
275.6731183205
 20
-166.0136204051
  0
VERTEX
  8
0
 62
7
  6
CONTINUOUS
 10
274.8264702597
 20
-166.4910782713
  0
VERTEX
  8
0
 62
7
  6
CONTINUOUS
 10
274.0548420233
 20
-166.9222973891
  0
VERTEX
  8
0
 62
7
  6
CONTINUOUS
 10
273.346285168
 20
-167.3150097701
  0
VERTEX
  8
0
 62
7
  6
CONTINUOUS
 10
272.7044107275
 20
-167.6681015426
  0
VERTEX
  8
0
 62
7
  6
CONTINUOUS
 10
272.1267134396
 20
-167.9837488894
  0
SEQEND
  0
POLYLINE
  8
0
 62
7
  6
CONTINUOUS
 66
1
 70
0
  0
VERTEX
  8
0
 62
7
  6
CONTINUOUS
 10
186.0327043836
 20
-186.0148810499
  0
VERTEX
  8
0
 62
7
  6
CONTINUOUS
 10
173.6569936341
 20
-185.5778282803
  0
VERTEX
  8
0
 62
7
  6
CONTINUOUS
 10
161.3429475937
 20
-184.2688413973
  0
VERTEX
  8
0
 62
7
  6
CONTINUOUS
 10
149.151961752
 20
-182.0944412534
  0
VERTEX
  8
0
 62
7
  6
CONTINUOUS
 10
137.1448145978
 20
-179.0654590774
  0
VERTEX
  8
0
 62
7
  6
CONTINUOUS
 10
125.381361402
 20
-175.1969856035
  0
VERTEX
  8
0
 62
7
  6
CONTINUOUS
 10
113.9202788964
 20
-170.5083077075
  0
VERTEX
  8
0
 62
7
  6
CONTINUOUS
 10
102.8187260003
 20
-165.0228061998
  0
VERTEX
  8
0
 62
7
  6
CONTINUOUS
 10
92.1320673635
 20
-158.7678371
  0
VERTEX
  8
0
 62
7
  6
CONTINUOUS
 10
81.9136193873
 20
-151.7746154571
  0
VERTEX
  8
0
 62
7
  6
CONTINUOUS
 10
72.2142701812
 20
-144.0779718903
  0
VERTEX
  8
0
 62
7
  6
CONTINUOUS
 10
63.0823381667
 20
-135.7162371574
  0
VERTEX
  8
0
 62
7
  6
CONTINUOUS
 10
54.563374752
 20
-126.7311014812
  0
VERTEX
  8
0
 62
7
  6
CONTINUOUS
 10
46.6998498075
 20
-117.1673388502
  0
VERTEX
  8
0
 62
7
  6
CONTINUOUS
 10
39.5310133153
 20
-107.0726684407
  0
VERTEX
  8
0
 62
7
  6
CONTINUOUS
 10
33.0926442459
 20
-96.4974760543
  0
VERTEX
  8
0
 62
7
  6
CONTINUOUS
 10
27.416814488
 20
-85.4944471554
  0
VERTEX
  8
0
 62
7
  6
CONTINUOUS
 10
22.5318168453
 20
-74.1184214855
  0
VERTEX
  8
0
 62
7
  6
CONTINUOUS
 10
18.4620068639
 20
-62.426095679
  0
VERTEX
  8
0
 62
7
  6
CONTINUOUS
 10
15.2276795193
 20
-50.4757338262
  0
VERTEX
  8
0
 62
7
  6
CONTINUOUS
 10
12.8449790861
 20
-38.3269232598
  0
VERTEX
  8
0
 62
7
  6
CONTINUOUS
 10
11.3258010361
 20
-26.0402278987
  0
VERTEX
  8
0
 62
7
  6
CONTINUOUS
 10
10.6777365281
 20
-13.6769248796
  0
SEQEND
  0
POLYLINE
  8
0
 62
7
  6
CONTINUOUS
 66
1
 70
0
  0
VERTEX
  8
0
 62
7
  6
CONTINUOUS
 10
99.939229757
 20
-167.984218764
  0
VERTEX
  8
0
 62
7
  6
CONTINUOUS
 10
104.3853249772
 20
-170.3361934445
  0
VERTEX
  8
0
 62
7
  6
CONTINUOUS
 10
109.04899922
 20
-172.6563486131
  0
VERTEX
  8
0
 62
7
  6
CONTINUOUS
 10
113.698001209
 20
-174.821923241
  0
VERTEX
  8
0
 62
7
  6
CONTINUOUS
 10
118.3346946965
 20
-176.8374502387
  0
VERTEX
  8
0
 62
7
  6
CONTINUOUS
 10
122.9591160153
 20
-178.705957313
  0
VERTEX
  8
0
 62
7
  6
CONTINUOUS
 10
127.5711686766
 20
-180.430603954
  0
VERTEX
  8
0
 62
7
  6
CONTINUOUS
 10
132.1707393954
 20
-182.0144642668
  0
VERTEX
  8
0
 62
7
  6
CONTINUOUS
 10
136.7575649634
 20
-183.4600631515
  0
VERTEX
  8
0
 62
7
  6
CONTINUOUS
 10
141.3321507462
 20
-184.7696874861
  0
VERTEX
  8
0
 62
7
  6
CONTINUOUS
 10
145.8945156526
 20
-185.9452193325
  0
VERTEX
  8
0
 62
7
  6
CONTINUOUS
 10
150.4454911374
 20
-186.9892303034
  0
VERTEX
  8
0
 62
7
  6
CONTINUOUS
 10
154.9858321358
 20
-187.9040420499
  0
VERTEX
  8
0
 62
7
  6
CONTINUOUS
 10
159.5167074657
 20
-188.6914814716
  0
VERTEX
  8
0
 62
7
  6
CONTINUOUS
 10
164.038762126
 20
-189.3527245774
  0
VERTEX
  8
0
 62
7
  6
CONTINUOUS
 10
168.5529206668
 20
-189.8888384181
  0
VERTEX
  8
0
 62
7
  6
CONTINUOUS
 10
173.0602122197
 20
-190.3013023609
  0
VERTEX
  8
0
 62
7
  6
CONTINUOUS
 10
177.5617031663
 20
-190.5912928872
  0
VERTEX
  8
0
 62
7
  6
CONTINUOUS
 10
182.0586205355
 20
-190.7595358833
  0
VERTEX
  8
0
 62
7
  6
CONTINUOUS
 10
186.5518181434
 20
-190.8062962436
  0
VERTEX
  8
0
 62
7
  6
CONTINUOUS
 10
191.0439057999
 20
-190.7316087818
  0
VERTEX
  8
0
 62
7
  6
CONTINUOUS
 10
195.5368773003
 20
-190.5356354954
  0
VERTEX
  8
0
 62
7
  6
CONTINUOUS
 10
200.034501905
 20
-190.218004318
  0
VERTEX
  8
0
 62
7
  6
CONTINUOUS
 10
204.5400387806
 20
-189.7776988139
  0
VERTEX
  8
0
 62
7
  6
CONTINUOUS
 10
209.0566300311
 20
-189.2130590218
  0
VERTEX
  8
0
 62
7
  6
CONTINUOUS
 10
213.588320227
 20
-188.5218747656
  0
VERTEX
  8
0
 62
7
  6
CONTINUOUS
 10
218.1342068218
 20
-187.7028400183
  0
VERTEX
  8
0
 62
7
  6
CONTINUOUS
 10
222.6965997629
 20
-186.7537922337
  0
VERTEX
  8
0
 62
7
  6
CONTINUOUS
 10
227.2683715186
 20
-185.6742754922
  0
VERTEX
  8
0
 62
7
  6
CONTINUOUS
 10
231.8448441605
 20
-184.463540316
  0
VERTEX
  8
0
 62
7
  6
CONTINUOUS
 10
236.4202497208
 20
-183.1217127392
  0
VERTEX
  8
0
 62
7
  6
CONTINUOUS
 10
240.9886578042
 20
-181.6500222012
  0
VERTEX
  8
0
 62
7
  6
CONTINUOUS
 10
245.5460811874
 20
-180.0493680966
  0
VERTEX
  8
0
 62
7
  6
CONTINUOUS
 10
250.088318239
 20
-178.3208260189
  0
VERTEX
  8
0
 62
7
  6
CONTINUOUS
 10
254.6094741155
 20
-176.466311848
  0
VERTEX
  8
0
 62
7
  6
CONTINUOUS
 10
259.1036426689
 20
-174.4886372684
  0
VERTEX
  8
0
 62
7
  6
CONTINUOUS
 10
263.5628293886
 20
-172.3923152018
  0
VERTEX
  8
0
 62
7
  6
CONTINUOUS
 10
267.9827435156
 20
-170.1806106987
  0
VERTEX
  8
0
 62
7
  6
CONTINUOUS
 10
272.126199707
 20
-167.9842765296
  0
SEQEND
  0
POLYLINE
  8
0
 62
7
  6
CONTINUOUS
 66
1
 70
0
  0
VERTEX
  8
0
 62
7
  6
CONTINUOUS
 10
9.9500343155
 20
-51.5590695562
  0
VERTEX
  8
0
 62
7
  6
CONTINUOUS
 10
10.2777614838
 20
-53.1540514411
  0
VERTEX
  8
0
 62
7
  6
CONTINUOUS
 10
11.330199202
 20
-57.8477033341
  0
VERTEX
  8
0
 62
7
  6
CONTINUOUS
 10
12.4754754916
 20
-62.3796999749
  0
VERTEX
  8
0
 62
7
  6
CONTINUOUS
 10
13.7098005865
 20
-66.7646810164
  0
VERTEX
  8
0
 62
7
  6
CONTINUOUS
 10
15.0305391957
 20
-71.0166557174
  0
VERTEX
  8
0
 62
7
  6
CONTINUOUS
 10
16.4364153428
 20
-75.1497134452
  0
VERTEX
  8
0
 62
7
  6
CONTINUOUS
 10
17.9263422823
 20
-79.1746594876
  0
VERTEX
  8
0
 62
7
  6
CONTINUOUS
 10
19.5026158131
 20
-83.1079967129
  0
VERTEX
  8
0
 62
7
  6
CONTINUOUS
 10
21.1684615777
 20
-86.9640586352
  0
VERTEX
  8
0
 62
7
  6
CONTINUOUS
 10
22.9268032039
 20
-90.7530638989
  0
VERTEX
  8
0
 62
7
  6
CONTINUOUS
 10
24.7837258545
 20
-94.4889889529
  0
VERTEX
  8
0
 62
7
  6
CONTINUOUS
 10
26.7385869823
 20
-98.1701531137
  0
VERTEX
  8
0
 62
7
  6
CONTINUOUS
 10
28.7931005914
 20
-101.7991397331
  0
VERTEX
  8
0
 62
7
  6
CONTINUOUS
 10
30.9476191913
 20
-105.3759449057
  0
VERTEX
  8
0
 62
7
  6
CONTINUOUS
 10
33.2028501551
 20
-108.9008570193
  0
VERTEX
  8
0
 62
7
  6
CONTINUOUS
 10
35.5600213069
 20
-112.3748569082
  0
VERTEX
  8
0
 62
7
  6
CONTINUOUS
 10
38.0195448978
 20
-115.7975274638
  0
VERTEX
  8
0
 62
7
  6
CONTINUOUS
 10
40.5851568919
 20
-119.1726545511
  0
VERTEX
  8
0
 62
7
  6
CONTINUOUS
 10
43.2601987963
 20
-122.5027333584
  0
VERTEX
  8
0
 62
7
  6
CONTINUOUS
 10
46.0483858893
 20
-125.7899661093
  0
VERTEX
  8
0
 62
7
  6
CONTINUOUS
 10
48.9540509423
 20
-129.0366055755
  0
VERTEX
  8
0
 62
7
  6
CONTINUOUS
 10
51.9811610735
 20
-132.243871165
  0
VERTEX
  8
0
 62
7
  6
CONTINUOUS
 10
55.1336611441
 20
-135.412460513
  0
VERTEX
  8
0
 62
7
  6
CONTINUOUS
 10
58.4184652752
 20
-138.5453120487
  0
VERTEX
  8
0
 62
7
  6
CONTINUOUS
 10
61.8429525171
 20
-141.6450302082
  0
VERTEX
  8
0
 62
7
  6
CONTINUOUS
 10
65.4135195466
 20
-144.7123854244
  0
VERTEX
  8
0
 62
7
  6
CONTINUOUS
 10
69.1356465451
 20
-147.7468567093
  0
VERTEX
  8
0
 62
7
  6
CONTINUOUS
 10
73.0237316545
 20
-150.7542825337
  0
VERTEX
  8
0
 62
7
  6
CONTINUOUS
 10
77.096357777
 20
-153.7417817948
  0
VERTEX
  8
0
 62
7
  6
CONTINUOUS
 10
81.3564161961
 20
-156.7037243589
  0
VERTEX
  8
0
 62
7
  6
CONTINUOUS
 10
85.8306848426
 20
-159.6501510688
  0
VERTEX
  8
0
 62
7
  6
CONTINUOUS
 10
90.4695156994
 20
-162.5418226115
  0
VERTEX
  8
0
 62
7
  6
CONTINUOUS
 10
95.2108562584
 20
-165.339821345
  0
VERTEX
  8
0
 62
7
  6
CONTINUOUS
 10
99.9392684095
 20
-167.9841667614
  0
SEQEND
  0
POLYLINE
  8
0
 62
7
  6
CONTINUOUS
 66
1
 70
0
  0
VERTEX
  8
0
 62
7
  6
CONTINUOUS
 10
-14.4235188124
 20
360.7526451106
  0
VERTEX
  8
0
 62
7
  6
CONTINUOUS
 10
-14.3642054024
 20
359.850668895
  0
VERTEX
  8
0
 62
7
  6
CONTINUOUS
 10
-14.24294853
 20
358.7806913734
  0
VERTEX
  8
0
 62
7
  6
CONTINUOUS
 10
-14.066997492
 20
357.7183359985
  0
VERTEX
  8
0
 62
7
  6
CONTINUOUS
 10
-13.8368040592
 20
356.6664042253
  0
VERTEX
  8
0
 62
7
  6
CONTINUOUS
 10
-13.5530161772
 20
355.6276527928
  0
VERTEX
  8
0
 62
7
  6
CONTINUOUS
 10
-13.2163427986
 20
354.6048246748
  0
VERTEX
  8
0
 62
7
  6
CONTINUOUS
 10
-12.8276780864
 20
353.6006068557
  0
VERTEX
  8
0
 62
7
  6
CONTINUOUS
 10
-12.3880351835
 20
352.6176563454
  0
VERTEX
  8
0
 62
7
  6
CONTINUOUS
 10
-11.8985567488
 20
351.6585505404
  0
VERTEX
  8
0
 62
7
  6
CONTINUOUS
 10
-11.3606265733
 20
350.7258153337
  0
VERTEX
  8
0
 62
7
  6
CONTINUOUS
 10
-10.775644666
 20
349.8219416494
  0
VERTEX
  8
0
 62
7
  6
CONTINUOUS
 10
-10.1451507396
 20
348.9493719543
  0
VERTEX
  8
0
 62
7
  6
CONTINUOUS
 10
-9.4708934648
 20
348.110439703
  0
VERTEX
  8
0
 62
7
  6
CONTINUOUS
 10
-8.7546561323
 20
347.3072826944
  0
VERTEX
  8
0
 62
7
  6
CONTINUOUS
 10
-7.9983606794
 20
346.5420004555
  0
VERTEX
  8
0
 62
7
  6
CONTINUOUS
 10
-7.2038997957
 20
345.8165415014
  0
VERTEX
  8
0
 62
7
  6
CONTINUOUS
 10
-6.3733317352
 20
345.1327060958
  0
VERTEX
  8
0
 62
7
  6
CONTINUOUS
 10
-5.5088004939
 20
344.4923012774
  0
VERTEX
  8
0
 62
7
  6
CONTINUOUS
 10
-4.6125111695
 20
343.8969761977
  0
VERTEX
  8
0
 62
7
  6
CONTINUOUS
 10
-3.6868539961
 20
343.3483137505
  0
VERTEX
  8
0
 62
7
  6
CONTINUOUS
 10
-2.7342598538
 20
342.8477822027
  0
VERTEX
  8
0
 62
7
  6
CONTINUOUS
 10
-1.7572582721
 20
342.3966886554
  0
VERTEX
  8
0
 62
7
  6
CONTINUOUS
 10
-0.7584252432
 20
341.996250075
  0
VERTEX
  8
0
 62
7
  6
CONTINUOUS
 10
0.2596056138
 20
341.6475275029
  0
VERTEX
  8
0
 62
7
  6
CONTINUOUS
 10
1.2941095711
 20
341.3513807115
  0
VERTEX
  8
0
 62
7
  6
CONTINUOUS
 10
2.187090967
 20
341.1410372622
  0
SEQEND
  0
POLYLINE
  8
0
 62
7
  6
CONTINUOUS
 66
1
 70
0
  0
VERTEX
  8
0
 62
7
  6
CONTINUOUS
 10
-3.0667066845
 20
342.3070732055
  0
VERTEX
  8
0
 62
7
  6
CONTINUOUS
 10
-2.9399136806
 20
335.1376000377
  0
VERTEX
  8
0
 62
7
  6
CONTINUOUS
 10
-2.7265651865
 20
322.8621405518
  0
VERTEX
  8
0
 62
7
  6
CONTINUOUS
 10
-2.5171259368
 20
310.59155354
  0
VERTEX
  8
0
 62
7
  6
CONTINUOUS
 10
-2.437827139
 20
305.8943645177
  0
SEQEND
  0
LINE
  8
0
 62
7
  6
CONTINUOUS
 10
-11.4663725467
 20
489.2815227218
 11
-11.4944194648
 21
486.4019843842
  0
POLYLINE
  8
0
 62
7
  6
CONTINUOUS
 66
1
 70
0
  0
VERTEX
  8
0
 62
7
  6
CONTINUOUS
 10
-11.4663725466
 20
489.2815227218
  0
VERTEX
  8
0
 62
7
  6
CONTINUOUS
 10
-11.4590247624
 20
489.5081278894
  0
VERTEX
  8
0
 62
7
  6
CONTINUOUS
 10
-11.4278251241
 20
489.8543884444
  0
VERTEX
  8
0
 62
7
  6
CONTINUOUS
 10
-11.375338343
 20
490.183815265
  0
VERTEX
  8
0
 62
7
  6
CONTINUOUS
 10
-11.3052603853
 20
490.492768931
  0
VERTEX
  8
0
 62
7
  6
CONTINUOUS
 10
-11.2217523719
 20
490.7783401693
  0
VERTEX
  8
0
 62
7
  6
CONTINUOUS
 10
-11.1283123461
 20
491.0407318639
  0
VERTEX
  8
0
 62
7
  6
CONTINUOUS
 10
-11.02994365
 20
491.2763469326
  0
VERTEX
  8
0
 62
7
  6
CONTINUOUS
 10
-10.9252346964
 20
491.4957128936
  0
VERTEX
  8
0
 62
7
  6
CONTINUOUS
 10
-10.8136440606
 20
491.7033088802
  0
VERTEX
  8
0
 62
7
  6
CONTINUOUS
 10
-10.6888137911
 20
491.9110689781
  0
VERTEX
  8
0
 62
7
  6
CONTINUOUS
 10
-10.5331116002
 20
492.1420448829
  0
VERTEX
  8
0
 62
7
  6
CONTINUOUS
 10
-10.3680421009
 20
492.3599359841
  0
VERTEX
  8
0
 62
7
  6
CONTINUOUS
 10
-10.219353627
 20
492.5368998754
  0
VERTEX
  8
0
 62
7
  6
CONTINUOUS
 10
-10.0805177223
 20
492.688207246
  0
VERTEX
  8
0
 62
7
  6
CONTINUOUS
 10
-9.9531175281
 20
492.8167140518
  0
VERTEX
  8
0
 62
7
  6
CONTINUOUS
 10
-9.833206604
 20
492.9295834152
  0
VERTEX
  8
0
 62
7
  6
CONTINUOUS
 10
-9.7197918617
 20
493.0297715687
  0
VERTEX
  8
0
 62
7
  6
CONTINUOUS
 10
-9.6005960469
 20
493.1287365666
  0
VERTEX
  8
0
 62
7
  6
CONTINUOUS
 10
-9.4513192219
 20
493.2442469849
  0
VERTEX
  8
0
 62
7
  6
CONTINUOUS
 10
-9.3003560124
 20
493.3522763033
  0
VERTEX
  8
0
 62
7
  6
CONTINUOUS
 10
-9.1751501945
 20
493.4356580368
  0
VERTEX
  8
0
 62
7
  6
CONTINUOUS
 10
-9.0641788562
 20
493.5051348643
  0
VERTEX
  8
0
 62
7
  6
CONTINUOUS
 10
-8.9702085435
 20
493.5608718903
  0
VERTEX
  8
0
 62
7
  6
CONTINUOUS
 10
-8.8751796133
 20
493.6144671573
  0
VERTEX
  8
0
 62
7
  6
CONTINUOUS
 10
-8.7510929075
 20
493.6804236153
  0
VERTEX
  8
0
 62
7
  6
CONTINUOUS
 10
-8.6260735376
 20
493.7424494708
  0
VERTEX
  8
0
 62
7
  6
CONTINUOUS
 10
-8.5277422584
 20
493.78823162
  0
VERTEX
  8
0
 62
7
  6
CONTINUOUS
 10
-8.4342170771
 20
493.8294017787
  0
VERTEX
  8
0
 62
7
  6
CONTINUOUS
 10
-8.3278165724
 20
493.8735044567
  0
VERTEX
  8
0
 62
7
  6
CONTINUOUS
 10
-8.2209341287
 20
493.9149551362
  0
VERTEX
  8
0
 62
7
  6
CONTINUOUS
 10
-8.1193693578
 20
493.9517636836
  0
VERTEX
  8
0
 62
7
  6
CONTINUOUS
 10
-8.0262642302
 20
493.983348604
  0
VERTEX
  8
0
 62
7
  6
CONTINUOUS
 10
-7.9494765262
 20
494.0078750232
  0
VERTEX
  8
0
 62
7
  6
CONTINUOUS
 10
-7.8810183771
 20
494.0285986424
  0
VERTEX
  8
0
 62
7
  6
CONTINUOUS
 10
-7.8183201152
 20
494.0466463164
  0
VERTEX
  8
0
 62
7
  6
CONTINUOUS
 10
-7.7523233587
 20
494.0646918336
  0
VERTEX
  8
0
 62
7
  6
CONTINUOUS
 10
-7.6659013317
 20
494.0868641685
  0
VERTEX
  8
0
 62
7
  6
CONTINUOUS
 10
-7.5800269472
 20
494.1072786836
  0
VERTEX
  8
0
 62
7
  6
CONTINUOUS
 10
-7.5133503731
 20
494.1220305215
  0
VERTEX
  8
0
 62
7
  6
CONTINUOUS
 10
-7.4567210533
 20
494.1338122647
  0
VERTEX
  8
0
 62
7
  6
CONTINUOUS
 10
-7.4107533732
 20
494.1428748328
  0
VERTEX
  8
0
 62
7
  6
CONTINUOUS
 10
-7.3645132063
 20
494.1515408834
  0
VERTEX
  8
0
 62
7
  6
CONTINUOUS
 10
-7.3015909373
 20
494.1626123122
  0
VERTEX
  8
0
 62
7
  6
CONTINUOUS
 10
-7.2387345491
 20
494.172847252
  0
VERTEX
  8
0
 62
7
  6
CONTINUOUS
 10
-7.1914097978
 20
494.180012224
  0
VERTEX
  8
0
 62
7
  6
CONTINUOUS
 10
-7.1473113452
 20
494.1862724756
  0
VERTEX
  8
0
 62
7
  6
CONTINUOUS
 10
-7.0969271829
 20
494.1929355314
  0
VERTEX
  8
0
 62
7
  6
CONTINUOUS
 10
-7.0472557614
 20
494.1989952312
  0
VERTEX
  8
0
 62
7
  6
CONTINUOUS
 10
-7.0031138984
 20
494.2039576531
  0
VERTEX
  8
0
 62
7
  6
CONTINUOUS
 10
-6.9615344457
 20
494.2082693122
  0
VERTEX
  8
0
 62
7
  6
CONTINUOUS
 10
-6.9209566704
 20
494.2121387514
  0
VERTEX
  8
0
 62
7
  6
CONTINUOUS
 10
-6.8819954238
 20
494.215540254
  0
VERTEX
  8
0
 62
7
  6
CONTINUOUS
 10
-6.8448280699
 20
494.2184992236
  0
VERTEX
  8
0
 62
7
  6
CONTINUOUS
 10
-6.8092152118
 20
494.2210729952
  0
VERTEX
  8
0
 62
7
  6
CONTINUOUS
 10
-6.7748882616
 20
494.2233120428
  0
VERTEX
  8
0
 62
7
  6
CONTINUOUS
 10
-6.7421513326
 20
494.2252265667
  0
VERTEX
  8
0
 62
7
  6
CONTINUOUS
 10
-6.7113542312
 20
494.2268310778
  0
VERTEX
  8
0
 62
7
  6
CONTINUOUS
 10
-6.6821027729
 20
494.2281787741
  0
VERTEX
  8
0
 62
7
  6
CONTINUOUS
 10
-6.6540551689
 20
494.2293098431
  0
VERTEX
  8
0
 62
7
  6
CONTINUOUS
 10
-6.6275160413
 20
494.2302349032
  0
VERTEX
  8
0
 62
7
  6
CONTINUOUS
 10
-6.6027043159
 20
494.2309721413
  0
VERTEX
  8
0
 62
7
  6
CONTINUOUS
 10
-6.57948993
 20
494.2315503019
  0
VERTEX
  8
0
 62
7
  6
CONTINUOUS
 10
-6.5577069464
 20
494.2319947189
  0
VERTEX
  8
0
 62
7
  6
CONTINUOUS
 10
-6.5374704249
 20
494.2323225094
  0
VERTEX
  8
0
 62
7
  6
CONTINUOUS
 10
-6.5185584597
 20
494.2325547841
  0
VERTEX
  8
0
 62
7
  6
CONTINUOUS
 10
-6.5008263888
 20
494.2327075793
  0
VERTEX
  8
0
 62
7
  6
CONTINUOUS
 10
-6.4838500382
 20
494.2327949358
  0
SEQEND
  0
LINE
  8
0
 62
7
  6
CONTINUOUS
 10
6.1204151966
 20
253.7932803788
 11
6.1204609694
 21
253.7936944186
  0
LINE
  8
0
 62
7
  6
CONTINUOUS
 10
187.2981243636
 20
427.3014609667
 11
194.6952725432
 21
434.6986091462
  0
LINE
  8
0
 62
7
  6
CONTINUOUS
 10
194.9380084423
 20
434.2342382641
 11
187.6516777542
 21
426.9479075761
  0
LINE
  8
0
 62
7
  6
CONTINUOUS
 10
6.5600802629
 20
227.9034986944
 11
6.5647226485
 21
227.6481317468
  0
LINE
  8
0
 62
7
  6
CONTINUOUS
 10
6.5558231668
 20
228.3109352493
 11
6.4577390723
 21
233.9379439029
  0
LINE
  8
0
 62
7
  6
CONTINUOUS
 10
6.5647226485
 20
227.6481317468
 11
6.5769376118
 21
226.9499908853
  0
LINE
  8
0
 62
7
  6
CONTINUOUS
 10
6.1204609695
 20
253.7936944168
 11
6.2178592359
 21
248.236560663
  0
LINE
  8
0
 62
7
  6
CONTINUOUS
 10
6.5769376118
 20
226.9499908853
 11
6.6074046148
 21
225.1935854905
  0
LINE
  8
0
 62
7
  6
CONTINUOUS
 10
6.4577390723
 20
233.9379439029
 11
6.2174687127
 21
247.9389601609
  0
LINE
  8
0
 62
7
  6
CONTINUOUS
 10
6.5465531264
 20
229.096069381
 11
6.5657110996
 21
227.9758592231
  0
LINE
  8
0
 62
7
  6
CONTINUOUS
 10
6.4635854775
 20
233.9380441769
 11
6.5465531264
 21
229.096069381
  0
LINE
  8
0
 62
7
  6
CONTINUOUS
 10
6.4409782242
 20
235.2561445536
 11
6.4635854775
 21
233.9380441769
  0
LINE
  8
0
 62
7
  6
CONTINUOUS
 10
6.5623414579
 20
227.9325721203
 11
6.5558231668
 21
228.3109352493
  0
LINE
  8
0
 62
7
  6
CONTINUOUS
 10
6.3901727362
 20
238.2137406404
 11
6.4409782242
 21
235.2561445536
  0
LINE
  8
0
 62
7
  6
CONTINUOUS
 10
6.2178592359
 20
248.236560663
 11
6.3901727362
 21
238.2137406404
  0
LINE
  8
0
 62
7
  6
CONTINUOUS
 10
6.5944793536
 20
225.8497960129
 11
6.5812342819
 21
226.6294946011
  0
LINE
  8
0
 62
7
  6
CONTINUOUS
 10
10.6777365281
 20
-13.6769248796
 11
6.5944793536
 21
225.8497960129
  0
LINE
  8
0
 62
7
  6
CONTINUOUS
 10
6.2174687127
 20
247.9389601609
 11
6.1967139372
 21
249.1690985528
  0
LINE
  8
0
 62
7
  6
CONTINUOUS
 10
6.5812342819
 20
226.6294946011
 11
6.5608139379
 21
227.8528072904
  0
LINE
  8
0
 62
7
  6
CONTINUOUS
 10
6.1967139372
 20
249.1690985528
 11
6.1204151966
 21
253.7932803788
  0
LINE
  8
0
 62
7
  6
CONTINUOUS
 10
6.5608139379
 20
227.8528072904
 11
6.5600747443
 21
227.9032295888
  0
LINE
  8
0
 62
7
  6
CONTINUOUS
 10
6.5600747443
 20
227.9032295888
 11
6.5600802629
 21
227.9034986944
  0
POLYLINE
  8
0
 62
7
  6
CONTINUOUS
 66
1
 70
0
  0
VERTEX
  8
0
 62
7
  6
CONTINUOUS
 10
8.2528256751
 20
230.6550550043
  0
VERTEX
  8
0
 62
7
  6
CONTINUOUS
 10
7.7674654169
 20
230.3604887157
  0
VERTEX
  8
0
 62
7
  6
CONTINUOUS
 10
7.3462942754
 20
229.9797551276
  0
VERTEX
  8
0
 62
7
  6
CONTINUOUS
 10
7.004397277
 20
229.5264918475
  0
VERTEX
  8
0
 62
7
  6
CONTINUOUS
 10
6.7540181946
 20
229.0169318052
  0
VERTEX
  8
0
 62
7
  6
CONTINUOUS
 10
6.6041243666
 20
228.4693238598
  0
VERTEX
  8
0
 62
7
  6
CONTINUOUS
 10
6.5600809931
 20
227.9035337309
  0
SEQEND
  0
LINE
  8
0
 62
7
  6
CONTINUOUS
 10
8.7849909144
 20
230.8529033248
 11
8.2528256751
 21
230.6550550043
  0
LINE
  8
0
 62
7
  6
CONTINUOUS
 10
111.0327043836
 20
225.8202988962
 11
111.0327043836
 21
235.4040880603
  0
POLYLINE
  8
0
 62
7
  6
CONTINUOUS
 66
1
 70
0
  0
VERTEX
  8
0
 62
7
  6
CONTINUOUS
 10
-8.1911116624
 20
346.7370418289
  0
VERTEX
  8
0
 62
7
  6
CONTINUOUS
 10
-8.1829817548
 20
346.7266201954
  0
VERTEX
  8
0
 62
7
  6
CONTINUOUS
 10
-7.5241439521
 20
345.9645524045
  0
VERTEX
  8
0
 62
7
  6
CONTINUOUS
 10
-6.8277631099
 20
345.2366565762
  0
VERTEX
  8
0
 62
7
  6
CONTINUOUS
 10
-6.0956037993
 20
344.5447729378
  0
VERTEX
  8
0
 62
7
  6
CONTINUOUS
 10
-5.3295288467
 20
343.8906588476
  0
VERTEX
  8
0
 62
7
  6
CONTINUOUS
 10
-4.5314854046
 20
343.2759819527
  0
VERTEX
  8
0
 62
7
  6
CONTINUOUS
 10
-3.7034799252
 20
342.7023090983
  0
VERTEX
  8
0
 62
7
  6
CONTINUOUS
 10
-2.8476143043
 20
342.1710857504
  0
VERTEX
  8
0
 62
7
  6
CONTINUOUS
 10
-1.9660600158
 20
341.6836346809
  0
VERTEX
  8
0
 62
7
  6
CONTINUOUS
 10
-1.0610150717
 20
341.2412385884
  0
VERTEX
  8
0
 62
7
  6
CONTINUOUS
 10
-0.1347774042
 20
340.8449832975
  0
VERTEX
  8
0
 62
7
  6
CONTINUOUS
 10
0.8103182734
 20
340.4958832307
  0
VERTEX
  8
0
 62
7
  6
CONTINUOUS
 10
1.7718957259
 20
340.1948515352
  0
VERTEX
  8
0
 62
7
  6
CONTINUOUS
 10
2.7475296878
 20
339.9426594747
  0
VERTEX
  8
0
 62
7
  6
CONTINUOUS
 10
3.5643423558
 20
339.7712511823
  0
SEQEND
  0
LINE
  8
0
 62
7
  6
CONTINUOUS
 10
186.2729980978
 20
405.2918991117
 11
186.2729980978
 21
424.8265872325
  0
LINE
  8
0
 62
7
  6
CONTINUOUS
 10
186.7729980978
 20
424.8265872325
 11
186.7729980978
 21
405.2918991117
  0
LINE
  8
0
 62
7
  6
CONTINUOUS
 10
261.0327043836
 20
235.4040880603
 11
261.0327043836
 21
225.8202988962
  0
LINE
  8
0
 62
7
  6
CONTINUOUS
 10
111.0327043836
 20
230.95464436
 11
9.5596451053
 21
230.95464436
  0
LINE
  8
0
 62
7
  6
CONTINUOUS
 10
261.0327043836
 20
230.95464436
 11
362.5057643532
 21
230.95464436
  0
LINE
  8
0
 62
7
  6
CONTINUOUS
 10
9.3449011621
 20
230.9469475703
 11
8.7849909144
 21
230.8529033248
  0
LINE
  8
0
 62
7
  6
CONTINUOUS
 10
9.5596443957
 20
230.9546432206
 11
9.3449011621
 21
230.9469475703
  0
LINE
  8
0
 62
7
  6
CONTINUOUS
 10
111.0327043836
 20
235.4040880603
 11
261.0327043836
 21
235.4040880603
  0
LINE
  8
0
 62
7
  6
CONTINUOUS
 10
9.1200062655
 20
256.8459503271
 11
362.9454024782
 21
256.8459503271
  0
LINE
  8
0
 62
7
  6
CONTINUOUS
 10
362.7812721925
 20
230.9419656751
 11
362.5057643715
 21
230.9546432189
  0
POLYLINE
  8
0
 62
7
  6
CONTINUOUS
 66
1
 70
0
  0
VERTEX
  8
0
 62
7
  6
CONTINUOUS
 10
9.120006173
 20
256.8459472944
  0
VERTEX
  8
0
 62
7
  6
CONTINUOUS
 10
8.9052552971
 20
256.8382510931
  0
VERTEX
  8
0
 62
7
  6
CONTINUOUS
 10
8.3453311897
 20
256.7442016608
  0
VERTEX
  8
0
 62
7
  6
CONTINUOUS
 10
7.8131551487
 20
256.5463434993
  0
VERTEX
  8
0
 62
7
  6
CONTINUOUS
 10
7.327791643
 20
256.2517664581
  0
VERTEX
  8
0
 62
7
  6
CONTINUOUS
 10
6.9066314865
 20
255.8710327081
  0
VERTEX
  8
0
 62
7
  6
CONTINUOUS
 10
6.5647613751
 20
255.4178004577
  0
VERTEX
  8
0
 62
7
  6
CONTINUOUS
 10
6.3144029385
 20
254.9082987878
  0
VERTEX
  8
0
 62
7
  6
CONTINUOUS
 10
6.1645096689
 20
254.3607686763
  0
VERTEX
  8
0
 62
7
  6
CONTINUOUS
 10
6.1204428512
 20
253.7948380754
  0
SEQEND
  0
POLYLINE
  8
0
 62
7
  6
CONTINUOUS
 66
1
 70
0
  0
VERTEX
  8
0
 62
7
  6
CONTINUOUS
 10
369.878343701
 20
341.1409946765
  0
VERTEX
  8
0
 62
7
  6
CONTINUOUS
 10
370.7713299532
 20
341.3513387874
  0
VERTEX
  8
0
 62
7
  6
CONTINUOUS
 10
371.8058320002
 20
341.647488954
  0
VERTEX
  8
0
 62
7
  6
CONTINUOUS
 10
372.82386444
 20
341.9962193569
  0
VERTEX
  8
0
 62
7
  6
CONTINUOUS
 10
373.8227040654
 20
342.396667826
  0
VERTEX
  8
0
 62
7
  6
CONTINUOUS
 10
374.7997102008
 20
342.8477690946
  0
VERTEX
  8
0
 62
7
  6
CONTINUOUS
 10
375.7523064575
 20
343.3483072657
  0
VERTEX
  8
0
 62
7
  6
CONTINUOUS
 10
376.6779620129
 20
343.8969755246
  0
VERTEX
  8
0
 62
7
  6
CONTINUOUS
 10
377.5742473458
 20
344.4923051532
  0
VERTEX
  8
0
 62
7
  6
CONTINUOUS
 10
378.4387714745
 20
345.1327116657
  0
VERTEX
  8
0
 62
7
  6
CONTINUOUS
 10
379.2693291433
 20
345.8165453574
  0
VERTEX
  8
0
 62
7
  6
CONTINUOUS
 10
380.0637779901
 20
346.5419999061
  0
VERTEX
  8
0
 62
7
  6
CONTINUOUS
 10
380.8200617302
 20
347.3072763383
  0
VERTEX
  8
0
 62
7
  6
CONTINUOUS
 10
381.536288454
 20
348.1104267387
  0
VERTEX
  8
0
 62
7
  6
CONTINUOUS
 10
382.2105362794
 20
348.9493518781
  0
VERTEX
  8
0
 62
7
  6
CONTINUOUS
 10
382.8410223515
 20
349.8219148059
  0
VERTEX
  8
0
 62
7
  6
CONTINUOUS
 10
383.425997223
 20
350.7257811722
  0
VERTEX
  8
0
 62
7
  6
CONTINUOUS
 10
383.9639209737
 20
351.6585080513
  0
VERTEX
  8
0
 62
7
  6
CONTINUOUS
 10
384.4533940485
 20
352.6176050836
  0
VERTEX
  8
0
 62
7
  6
CONTINUOUS
 10
384.8930325114
 20
353.6005460989
  0
VERTEX
  8
0
 62
7
  6
CONTINUOUS
 10
385.2816945245
 20
354.6047563307
  0
VERTEX
  8
0
 62
7
  6
CONTINUOUS
 10
385.6183669323
 20
355.6275807397
  0
VERTEX
  8
0
 62
7
  6
CONTINUOUS
 10
385.9021555873
 20
356.6663341561
  0
VERTEX
  8
0
 62
7
  6
CONTINUOUS
 10
386.1323514905
 20
357.7182742114
  0
VERTEX
  8
0
 62
7
  6
CONTINUOUS
 10
386.3083054771
 20
358.7806443204
  0
VERTEX
  8
0
 62
7
  6
CONTINUOUS
 10
386.4295632371
 20
359.8506526168
  0
VERTEX
  8
0
 62
7
  6
CONTINUOUS
 10
386.4888614042
 20
360.7523763099
  0
SEQEND
  0
POLYLINE
  8
0
 62
7
  6
CONTINUOUS
 66
1
 70
0
  0
VERTEX
  8
0
 62
7
  6
CONTINUOUS
 10
368.5010661133
 20
339.7712513774
  0
VERTEX
  8
0
 62
7
  6
CONTINUOUS
 10
369.3180626361
 20
339.9427021149
  0
VERTEX
  8
0
 62
7
  6
CONTINUOUS
 10
370.2936860452
 20
340.1949008948
  0
VERTEX
  8
0
 62
7
  6
CONTINUOUS
 10
371.2552518509
 20
340.4959382167
  0
VERTEX
  8
0
 62
7
  6
CONTINUOUS
 10
372.2003352903
 20
340.845042795
  0
VERTEX
  8
0
 62
7
  6
CONTINUOUS
 10
373.1265603128
 20
341.2413012155
  0
VERTEX
  8
0
 62
7
  6
CONTINUOUS
 10
374.0315920194
 20
341.683698815
  0
VERTEX
  8
0
 62
7
  6
CONTINUOUS
 10
374.9131325442
 20
342.1711499708
  0
VERTEX
  8
0
 62
7
  6
CONTINUOUS
 10
375.7689844237
 20
342.7023719285
  0
VERTEX
  8
0
 62
7
  6
CONTINUOUS
 10
376.5969763261
 20
343.2760420036
  0
VERTEX
  8
0
 62
7
  6
CONTINUOUS
 10
377.3950064471
 20
343.8907146853
  0
VERTEX
  8
0
 62
7
  6
CONTINUOUS
 10
378.1610681454
 20
344.5448228718
  0
VERTEX
  8
0
 62
7
  6
CONTINUOUS
 10
378.8932146376
 20
345.2366991001
  0
VERTEX
  8
0
 62
7
  6
CONTINUOUS
 10
379.5895835996
 20
345.9645863911
  0
VERTEX
  8
0
 62
7
  6
CONTINUOUS
 10
380.2484101047
 20
346.7266440164
  0
VERTEX
  8
0
 62
7
  6
CONTINUOUS
 10
380.2564967404
 20
346.7370102043
  0
SEQEND
  0
POLYLINE
  8
0
 62
7
  6
CONTINUOUS
 66
1
 70
0
  0
VERTEX
  8
0
 62
7
  6
CONTINUOUS
 10
311.3147364535
 20
330.7609566439
  0
VERTEX
  8
0
 62
7
  6
CONTINUOUS
 10
316.7944685257
 20
331.4564750024
  0
VERTEX
  8
0
 62
7
  6
CONTINUOUS
 10
329.7978965363
 20
333.2830709457
  0
VERTEX
  8
0
 62
7
  6
CONTINUOUS
 10
342.7759226291
 20
335.2825335909
  0
VERTEX
  8
0
 62
7
  6
CONTINUOUS
 10
355.7262440926
 20
337.4545103715
  0
VERTEX
  8
0
 62
7
  6
CONTINUOUS
 10
368.5010696977
 20
339.7712318244
  0
SEQEND
  0
LINE
  8
0
 62
7
  6
CONTINUOUS
 10
67.3212519233
 20
329.8204916
 11
67.336907324
 21
329.8183703413
  0
POLYLINE
  8
0
 62
7
  6
CONTINUOUS
 66
1
 70
0
  0
VERTEX
  8
0
 62
7
  6
CONTINUOUS
 10
3.5643390722
 20
339.7712318239
  0
VERTEX
  8
0
 62
7
  6
CONTINUOUS
 10
16.3391645923
 20
337.4545103859
  0
VERTEX
  8
0
 62
7
  6
CONTINUOUS
 10
29.2894860694
 20
335.2825336018
  0
VERTEX
  8
0
 62
7
  6
CONTINUOUS
 10
42.2675121909
 20
333.2830709515
  0
VERTEX
  8
0
 62
7
  6
CONTINUOUS
 10
55.2709402313
 20
331.4564750038
  0
VERTEX
  8
0
 62
7
  6
CONTINUOUS
 10
60.750672306
 20
330.760956645
  0
SEQEND
  0
POLYLINE
  8
0
 62
7
  6
CONTINUOUS
 66
1
 70
0
  0
VERTEX
  8
0
 62
7
  6
CONTINUOUS
 10
363.8535329676
 20
230.6348522219
  0
VERTEX
  8
0
 62
7
  6
CONTINUOUS
 10
363.3318008577
 20
230.8386792629
  0
VERTEX
  8
0
 62
7
  6
CONTINUOUS
 10
362.7812721925
 20
230.9419656751
  0
SEQEND
  0
POLYLINE
  8
0
 62
7
  6
CONTINUOUS
 66
1
 70
0
  0
VERTEX
  8
0
 62
7
  6
CONTINUOUS
 10
365.5053292255
 20
227.9035410357
  0
VERTEX
  8
0
 62
7
  6
CONTINUOUS
 10
365.4625452732
 20
228.4620374922
  0
VERTEX
  8
0
 62
7
  6
CONTINUOUS
 10
365.3166850605
 20
229.0028450479
  0
VERTEX
  8
0
 62
7
  6
CONTINUOUS
 10
365.0728339357
 20
229.5071107816
  0
VERTEX
  8
0
 62
7
  6
CONTINUOUS
 10
364.7394925591
 20
229.9572564373
  0
VERTEX
  8
0
 62
7
  6
CONTINUOUS
 10
364.3282803904
 20
230.3375901863
  0
VERTEX
  8
0
 62
7
  6
CONTINUOUS
 10
363.8535329676
 20
230.6348522219
  0
SEQEND
  0
POLYLINE
  8
0
 62
7
  6
CONTINUOUS
 66
1
 70
0
  0
VERTEX
  8
0
 62
7
  6
CONTINUOUS
 10
365.9449673822
 20
253.794843951
  0
VERTEX
  8
0
 62
7
  6
CONTINUOUS
 10
365.9021978481
 20
254.3532638547
  0
VERTEX
  8
0
 62
7
  6
CONTINUOUS
 10
365.756372492
 20
254.8940194991
  0
VERTEX
  8
0
 62
7
  6
CONTINUOUS
 10
365.5125656809
 20
255.3982610045
  0
VERTEX
  8
0
 62
7
  6
CONTINUOUS
 10
365.1792628942
 20
255.8484135213
  0
VERTEX
  8
0
 62
7
  6
CONTINUOUS
 10
364.768061534
 20
256.2287851099
  0
VERTEX
  8
0
 62
7
  6
CONTINUOUS
 10
364.2932999273
 20
256.5260916166
  0
VERTEX
  8
0
 62
7
  6
CONTINUOUS
 10
363.7715375755
 20
256.7299551368
  0
VERTEX
  8
0
 62
7
  6
CONTINUOUS
 10
363.220970148
 20
256.8332642368
  0
VERTEX
  8
0
 62
7
  6
CONTINUOUS
 10
362.9454025697
 20
256.8459472926
  0
SEQEND
  0
LINE
  8
0
 62
7
  6
CONTINUOUS
 10
365.5053285041
 20
227.9034986942
 11
365.5053340228
 21
227.9032295888
  0
LINE
  8
0
 62
7
  6
CONTINUOUS
 10
365.5053340228
 20
227.9032295888
 11
365.4952377133
 21
227.2860796342
  0
LINE
  8
0
 62
7
  6
CONTINUOUS
 10
365.9449935705
 20
253.7932803788
 11
365.8687002314
 21
249.1694192176
  0
LINE
  8
0
 62
7
  6
CONTINUOUS
 10
365.4952377133
 20
227.2860796342
 11
365.4841747034
 21
226.629507491
  0
LINE
  8
0
 62
7
  6
CONTINUOUS
 10
365.8687002314
 20
249.1694192176
 11
365.8479464288
 21
247.9393373841
  0
LINE
  8
0
 62
7
  6
CONTINUOUS
 10
365.4709294136
 20
225.8497960129
 11
361.3876722391
 21
-13.6769248796
  0
LINE
  8
0
 62
7
  6
CONTINUOUS
 10
365.4841747034
 20
226.629507491
 11
365.4709294136
 21
225.8497960129
  0
POLYLINE
  8
0
 62
7
  6
CONTINUOUS
 66
1
 70
0
  0
VERTEX
  8
0
 62
7
  6
CONTINUOUS
 10
374.5046339044
 20
305.9773809773
  0
VERTEX
  8
0
 62
7
  6
CONTINUOUS
 10
374.7608269122
 20
321.0508739199
  0
VERTEX
  8
0
 62
7
  6
CONTINUOUS
 10
375.1079066541
 20
340.9627607474
  0
VERTEX
  8
0
 62
7
  6
CONTINUOUS
 10
375.1318973526
 20
342.3069359317
  0
SEQEND
  0
LINE
  8
0
 62
7
  6
CONTINUOUS
 10
365.5095801228
 20
228.3106178026
 11
365.503074277
 21
227.9329768562
  0
LINE
  8
0
 62
7
  6
CONTINUOUS
 10
365.8479464288
 20
247.9393373841
 11
365.6076696948
 21
233.9379439029
  0
LINE
  8
0
 62
7
  6
CONTINUOUS
 10
365.6076696948
 20
233.9379439029
 11
365.5095801228
 21
228.3106178026
  0
LINE
  8
0
 62
7
  6
CONTINUOUS
 10
365.5006861186
 20
227.6481317468
 11
365.5053285041
 21
227.9034986942
  0
POLYLINE
  8
0
 62
7
  6
CONTINUOUS
 66
1
 70
0
  0
VERTEX
  8
0
 62
7
  6
CONTINUOUS
 10
361.3876722391
 20
-13.6769248796
  0
VERTEX
  8
0
 62
7
  6
CONTINUOUS
 10
360.7396204144
 20
-26.040083639
  0
VERTEX
  8
0
 62
7
  6
CONTINUOUS
 10
359.2204693526
 20
-38.3266748166
  0
VERTEX
  8
0
 62
7
  6
CONTINUOUS
 10
356.8378014779
 20
-50.4754239307
  0
VERTEX
  8
0
 62
7
  6
CONTINUOUS
 10
353.6035055133
 20
-62.4257603038
  0
VERTEX
  8
0
 62
7
  6
CONTINUOUS
 10
349.533720125
 20
-74.1180912224
  0
VERTEX
  8
0
 62
7
  6
CONTINUOUS
 10
344.6487360618
 20
-85.4941467085
  0
VERTEX
  8
0
 62
7
  6
CONTINUOUS
 10
338.9729060471
 20
-96.4972239633
  0
VERTEX
  8
0
 62
7
  6
CONTINUOUS
 10
332.5345214546
 20
-107.0724770373
  0
VERTEX
  8
0
 62
7
  6
CONTINUOUS
 10
325.3656540979
 20
-117.167214434
  0
VERTEX
  8
0
 62
7
  6
CONTINUOUS
 10
317.5020841603
 20
-126.7310447049
  0
VERTEX
  8
0
 62
7
  6
CONTINUOUS
 10
308.983064026
 20
-135.7162436187
  0
VERTEX
  8
0
 62
7
  6
CONTINUOUS
 10
299.8510670322
 20
-144.0780329077
  0
VERTEX
  8
0
 62
7
  6
CONTINUOUS
 10
290.151648973
 20
-151.7747190105
  0
VERTEX
  8
0
 62
7
  6
CONTINUOUS
 10
279.9331334039
 20
-158.7679689155
  0
VERTEX
  8
0
 62
7
  6
CONTINUOUS
 10
269.2464141298
 20
-165.0229509533
  0
VERTEX
  8
0
 62
7
  6
CONTINUOUS
 10
258.1448136102
 20
-170.5084503187
  0
VERTEX
  8
0
 62
7
  6
CONTINUOUS
 10
246.6837026963
 20
-175.1971125974
  0
VERTEX
  8
0
 62
7
  6
CONTINUOUS
 10
234.9202464255
 20
-179.065559981
  0
VERTEX
  8
0
 62
7
  6
CONTINUOUS
 10
222.9131273387
 20
-182.0945099939
  0
VERTEX
  8
0
 62
7
  6
CONTINUOUS
 10
210.722205975
 20
-184.2688776734
  0
VERTEX
  8
0
 62
7
  6
CONTINUOUS
 10
198.4082674401
 20
-185.5778387243
  0
VERTEX
  8
0
 62
7
  6
CONTINUOUS
 10
186.0327043836
 20
-186.0148810499
  0
SEQEND
  0
LINE
  8
0
 62
7
  6
CONTINUOUS
 10
194.6952725432
 20
395.419877198
 11
187.2981243636
 21
402.8170253775
  0
LINE
  8
0
 62
7
  6
CONTINUOUS
 10
187.6516777542
 20
403.1705787681
 11
194.9380084423
 21
395.8842480801
  0
LINE
  8
0
 62
7
  6
CONTINUOUS
 10
383.5317813138
 20
489.2815227218
 11
383.5598217054
 21
486.4026544606
  0
LINE
  8
0
 62
7
  6
CONTINUOUS
 10
365.9449478168
 20
253.7936955833
 11
365.9449935705
 21
253.7932803788
  0
POLYLINE
  8
0
 62
7
  6
CONTINUOUS
 66
1
 70
0
  0
VERTEX
  8
0
 62
7
  6
CONTINUOUS
 10
383.5684547235
 20
486.3254220006
  0
VERTEX
  8
0
 62
7
  6
CONTINUOUS
 10
383.5455123401
 20
486.5306684945
  0
VERTEX
  8
0
 62
7
  6
CONTINUOUS
 10
383.4880518758
 20
486.8723228249
  0
VERTEX
  8
0
 62
7
  6
CONTINUOUS
 10
383.4124168073
 20
487.1897506774
  0
VERTEX
  8
0
 62
7
  6
CONTINUOUS
 10
383.3235335099
 20
487.4802386975
  0
VERTEX
  8
0
 62
7
  6
CONTINUOUS
 10
383.2253472656
 20
487.7446741407
  0
VERTEX
  8
0
 62
7
  6
CONTINUOUS
 10
383.1241910208
 20
487.9779455928
  0
VERTEX
  8
0
 62
7
  6
CONTINUOUS
 10
383.0156882179
 20
488.1974496502
  0
VERTEX
  8
0
 62
7
  6
CONTINUOUS
 10
382.8923829243
 20
488.4184686843
  0
VERTEX
  8
0
 62
7
  6
CONTINUOUS
 10
382.7555877206
 20
488.6366831669
  0
VERTEX
  8
0
 62
7
  6
CONTINUOUS
 10
382.5984977269
 20
488.8600061765
  0
VERTEX
  8
0
 62
7
  6
CONTINUOUS
 10
382.43667488
 20
489.0657364065
  0
VERTEX
  8
0
 62
7
  6
CONTINUOUS
 10
382.2906018727
 20
489.2339851945
  0
VERTEX
  8
0
 62
7
  6
CONTINUOUS
 10
382.1549798315
 20
489.3775383862
  0
VERTEX
  8
0
 62
7
  6
CONTINUOUS
 10
382.0325382323
 20
489.497911305
  0
VERTEX
  8
0
 62
7
  6
CONTINUOUS
 10
381.9144210416
 20
489.6065579365
  0
VERTEX
  8
0
 62
7
  6
CONTINUOUS
 10
381.7903750595
 20
489.7134454458
  0
VERTEX
  8
0
 62
7
  6
CONTINUOUS
 10
381.6604666984
 20
489.8181059148
  0
VERTEX
  8
0
 62
7
  6
CONTINUOUS
 10
381.5146954144
 20
489.9273824837
  0
VERTEX
  8
0
 62
7
  6
CONTINUOUS
 10
381.3713206506
 20
490.0270763885
  0
VERTEX
  8
0
 62
7
  6
CONTINUOUS
 10
381.2518350601
 20
490.1046578148
  0
VERTEX
  8
0
 62
7
  6
CONTINUOUS
 10
381.1429066635
 20
490.1712722791
  0
VERTEX
  8
0
 62
7
  6
CONTINUOUS
 10
381.0394170426
 20
490.2310969693
  0
VERTEX
  8
0
 62
7
  6
CONTINUOUS
 10
380.9349752693
 20
490.2881923493
  0
VERTEX
  8
0
 62
7
  6
CONTINUOUS
 10
380.8145108726
 20
490.3501188293
  0
VERTEX
  8
0
 62
7
  6
CONTINUOUS
 10
380.6967910432
 20
490.4067269073
  0
VERTEX
  8
0
 62
7
  6
CONTINUOUS
 10
380.6046801237
 20
490.4484207668
  0
VERTEX
  8
0
 62
7
  6
CONTINUOUS
 10
380.513811236
 20
490.4873822514
  0
VERTEX
  8
0
 62
7
  6
CONTINUOUS
 10
380.3982436872
 20
490.5339050332
  0
VERTEX
  8
0
 62
7
  6
CONTINUOUS
 10
380.2825207486
 20
490.5771858303
  0
VERTEX
  8
0
 62
7
  6
CONTINUOUS
 10
380.185733227
 20
490.6109112637
  0
VERTEX
  8
0
 62
7
  6
CONTINUOUS
 10
380.100862692
 20
490.638670749
  0
VERTEX
  8
0
 62
7
  6
CONTINUOUS
 10
380.030967454
 20
490.6602816698
  0
VERTEX
  8
0
 62
7
  6
CONTINUOUS
 10
379.9644047956
 20
490.679827238
  0
VERTEX
  8
0
 62
7
  6
CONTINUOUS
 10
379.8876660832
 20
490.7011241285
  0
VERTEX
  8
0
 62
7
  6
CONTINUOUS
 10
379.8084845771
 20
490.7217280537
  0
VERTEX
  8
0
 62
7
  6
CONTINUOUS
 10
379.7279328408
 20
490.7412778406
  0
VERTEX
  8
0
 62
7
  6
CONTINUOUS
 10
379.6527427558
 20
490.7582574755
  0
VERTEX
  8
0
 62
7
  6
CONTINUOUS
 10
379.5934476
 20
490.7707922071
  0
VERTEX
  8
0
 62
7
  6
CONTINUOUS
 10
379.5400478381
 20
490.7814403493
  0
VERTEX
  8
0
 62
7
  6
CONTINUOUS
 10
379.4857064116
 20
490.7916575082
  0
VERTEX
  8
0
 62
7
  6
CONTINUOUS
 10
379.4311537937
 20
490.8012904546
  0
VERTEX
  8
0
 62
7
  6
CONTINUOUS
 10
379.3732001087
 20
490.8108432394
  0
VERTEX
  8
0
 62
7
  6
CONTINUOUS
 10
379.3167383145
 20
490.8194794497
  0
VERTEX
  8
0
 62
7
  6
CONTINUOUS
 10
379.2667566292
 20
490.8265749722
  0
VERTEX
  8
0
 62
7
  6
CONTINUOUS
 10
379.2198402287
 20
490.8327678527
  0
VERTEX
  8
0
 62
7
  6
CONTINUOUS
 10
379.1743067461
 20
490.8383469529
  0
VERTEX
  8
0
 62
7
  6
CONTINUOUS
 10
379.1299216273
 20
490.8433778757
  0
VERTEX
  8
0
 62
7
  6
CONTINUOUS
 10
379.0854390793
 20
490.8480174849
  0
VERTEX
  8
0
 62
7
  6
CONTINUOUS
 10
379.0422308338
 20
490.8521395951
  0
VERTEX
  8
0
 62
7
  6
CONTINUOUS
 10
379.0014345063
 20
490.8556846083
  0
VERTEX
  8
0
 62
7
  6
CONTINUOUS
 10
378.9624989413
 20
490.8587542787
  0
VERTEX
  8
0
 62
7
  6
CONTINUOUS
 10
378.9252255572
 20
490.8614064407
  0
VERTEX
  8
0
 62
7
  6
CONTINUOUS
 10
378.8897242666
 20
490.8636723789
  0
VERTEX
  8
0
 62
7
  6
CONTINUOUS
 10
378.8561336636
 20
490.8655830063
  0
VERTEX
  8
0
 62
7
  6
CONTINUOUS
 10
378.8242023288
 20
490.86718913
  0
VERTEX
  8
0
 62
7
  6
CONTINUOUS
 10
378.7936935352
 20
490.8685325646
  0
VERTEX
  8
0
 62
7
  6
CONTINUOUS
 10
378.764805234
 20
490.8696326179
  0
VERTEX
  8
0
 62
7
  6
CONTINUOUS
 10
378.7377029409
 20
490.8705126283
  0
VERTEX
  8
0
 62
7
  6
CONTINUOUS
 10
378.7122716695
 20
490.8712046015
  0
VERTEX
  8
0
 62
7
  6
CONTINUOUS
 10
378.6883490588
 20
490.8717373477
  0
VERTEX
  8
0
 62
7
  6
CONTINUOUS
 10
378.6661155291
 20
490.872129796
  0
VERTEX
  8
0
 62
7
  6
CONTINUOUS
 10
378.6453450899
 20
490.8724070644
  0
VERTEX
  8
0
 62
7
  6
CONTINUOUS
 10
378.6259977377
 20
490.8725877039
  0
VERTEX
  8
0
 62
7
  6
CONTINUOUS
 10
378.6076268619
 20
490.8726899281
  0
VERTEX
  8
0
 62
7
  6
CONTINUOUS
 10
378.5889903831
 20
490.8727246602
  0
SEQEND
  0
POLYLINE
  8
0
 62
7
  6
CONTINUOUS
 66
1
 70
0
  0
VERTEX
  8
0
 62
7
  6
CONTINUOUS
 10
272.126140359
 20
-167.9841667398
  0
VERTEX
  8
0
 62
7
  6
CONTINUOUS
 10
276.7052514946
 20
-165.4254844508
  0
VERTEX
  8
0
 62
7
  6
CONTINUOUS
 10
281.3075587381
 20
-162.7163914366
  0
VERTEX
  8
0
 62
7
  6
CONTINUOUS
 10
285.8158075688
 20
-159.9178989106
  0
VERTEX
  8
0
 62
7
  6
CONTINUOUS
 10
290.171475204
 20
-157.0663154787
  0
VERTEX
  8
0
 62
7
  6
CONTINUOUS
 10
294.3286961653
 20
-154.1973047563
  0
VERTEX
  8
0
 62
7
  6
CONTINUOUS
 10
298.3083505622
 20
-151.3040862034
  0
VERTEX
  8
0
 62
7
  6
CONTINUOUS
 10
302.1089736141
 20
-148.3950575945
  0
VERTEX
  8
0
 62
7
  6
CONTINUOUS
 10
305.751161938
 20
-145.4614069722
  0
VERTEX
  8
0
 62
7
  6
CONTINUOUS
 10
309.2501728173
 20
-142.49628908
  0
VERTEX
  8
0
 62
7
  6
CONTINUOUS
 10
312.6102832031
 20
-139.5008606911
  0
VERTEX
  8
0
 62
7
  6
CONTINUOUS
 10
315.8372078744
 20
-136.4746768263
  0
VERTEX
  8
0
 62
7
  6
CONTINUOUS
 10
318.9381354759
 20
-133.4151903994
  0
VERTEX
  8
0
 62
7
  6
CONTINUOUS
 10
321.9196719265
 20
-130.3195365465
  0
VERTEX
  8
0
 62
7
  6
CONTINUOUS
 10
324.7854013182
 20
-127.1873340316
  0
VERTEX
  8
0
 62
7
  6
CONTINUOUS
 10
327.5392227192
 20
-124.0173599361
  0
VERTEX
  8
0
 62
7
  6
CONTINUOUS
 10
330.184467111
 20
-120.8085200357
  0
VERTEX
  8
0
 62
7
  6
CONTINUOUS
 10
332.7240620187
 20
-117.5598393966
  0
VERTEX
  8
0
 62
7
  6
CONTINUOUS
 10
335.1615084482
 20
-114.2690294413
  0
VERTEX
  8
0
 62
7
  6
CONTINUOUS
 10
337.4998970211
 20
-110.9336612986
  0
VERTEX
  8
0
 62
7
  6
CONTINUOUS
 10
339.7413716233
 20
-107.5520965971
  0
VERTEX
  8
0
 62
7
  6
CONTINUOUS
 10
341.8880006326
 20
-104.1222285205
  0
VERTEX
  8
0
 62
7
  6
CONTINUOUS
 10
343.941523163
 20
-100.6419509973
  0
VERTEX
  8
0
 62
7
  6
CONTINUOUS
 10
345.9034729238
 20
-97.1089170913
  0
VERTEX
  8
0
 62
7
  6
CONTINUOUS
 10
347.7750963577
 20
-93.5205423845
  0
VERTEX
  8
0
 62
7
  6
CONTINUOUS
 10
349.5573804916
 20
-89.8743675916
  0
VERTEX
  8
0
 62
7
  6
CONTINUOUS
 10
351.2515080757
 20
-86.1665957634
  0
VERTEX
  8
0
 62
7
  6
CONTINUOUS
 10
352.8581260147
 20
-82.3936706007
  0
VERTEX
  8
0
 62
7
  6
CONTINUOUS
 10
354.3780755292
 20
-78.5506500237
  0
VERTEX
  8
0
 62
7
  6
CONTINUOUS
 10
355.8118875646
 20
-74.631958495
  0
VERTEX
  8
0
 62
7
  6
CONTINUOUS
 10
357.158998088
 20
-70.6335849433
  0
VERTEX
  8
0
 62
7
  6
CONTINUOUS
 10
358.4188370606
 20
-66.5505945969
  0
VERTEX
  8
0
 62
7
  6
CONTINUOUS
 10
359.590364989
 20
-62.3780837955
  0
VERTEX
  8
0
 62
7
  6
CONTINUOUS
 10
360.6723799427
 20
-58.1102412876
  0
VERTEX
  8
0
 62
7
  6
CONTINUOUS
 10
361.6629921026
 20
-53.7423284665
  0
VERTEX
  8
0
 62
7
  6
CONTINUOUS
 10
362.115172254
 20
-51.5600764461
  0
SEQEND
  0
POLYLINE
  8
0
 62
7
  6
CONTINUOUS
 66
1
 70
0
  0
VERTEX
  8
0
 62
7
  6
CONTINUOUS
 10
-6.5421952249
 20
490.8726900126
  0
VERTEX
  8
0
 62
7
  6
CONTINUOUS
 10
-6.5603656403
 20
490.8725893519
  0
VERTEX
  8
0
 62
7
  6
CONTINUOUS
 10
-6.5791728185
 20
490.8724156124
  0
VERTEX
  8
0
 62
7
  6
CONTINUOUS
 10
-6.5991964954
 20
490.8721528665
  0
VERTEX
  8
0
 62
7
  6
CONTINUOUS
 10
-6.6206355798
 20
490.871782624
  0
VERTEX
  8
0
 62
7
  6
CONTINUOUS
 10
-6.6437219774
 20
490.8712810811
  0
VERTEX
  8
0
 62
7
  6
CONTINUOUS
 10
-6.6684011624
 20
490.87062695
  0
VERTEX
  8
0
 62
7
  6
CONTINUOUS
 10
-6.6947579349
 20
490.8697936679
  0
VERTEX
  8
0
 62
7
  6
CONTINUOUS
 10
-6.7227404602
 20
490.8687566609
  0
VERTEX
  8
0
 62
7
  6
CONTINUOUS
 10
-6.752513813
 20
490.8674809154
  0
VERTEX
  8
0
 62
7
  6
CONTINUOUS
 10
-6.7843958448
 20
490.8659176204
  0
VERTEX
  8
0
 62
7
  6
CONTINUOUS
 10
-6.8179533603
 20
490.8640516657
  0
VERTEX
  8
0
 62
7
  6
CONTINUOUS
 10
-6.8525357607
 20
490.8618918418
  0
VERTEX
  8
0
 62
7
  6
CONTINUOUS
 10
-6.8891124834
 20
490.8593454784
  0
VERTEX
  8
0
 62
7
  6
CONTINUOUS
 10
-6.9288250829
 20
490.8562753755
  0
VERTEX
  8
0
 62
7
  6
CONTINUOUS
 10
-6.9706233332
 20
490.8526999315
  0
VERTEX
  8
0
 62
7
  6
CONTINUOUS
 10
-7.013943205
 20
490.8486211133
  0
VERTEX
  8
0
 62
7
  6
CONTINUOUS
 10
-7.0584386554
 20
490.8440351461
  0
VERTEX
  8
0
 62
7
  6
CONTINUOUS
 10
-7.1031056189
 20
490.839026295
  0
VERTEX
  8
0
 62
7
  6
CONTINUOUS
 10
-7.1493644477
 20
490.8334096781
  0
VERTEX
  8
0
 62
7
  6
CONTINUOUS
 10
-7.1978629937
 20
490.8270505096
  0
VERTEX
  8
0
 62
7
  6
CONTINUOUS
 10
-7.2499342533
 20
490.8196845191
  0
VERTEX
  8
0
 62
7
  6
CONTINUOUS
 10
-7.3089146913
 20
490.810664712
  0
VERTEX
  8
0
 62
7
  6
CONTINUOUS
 10
-7.3694106036
 20
490.8006626999
  0
VERTEX
  8
0
 62
7
  6
CONTINUOUS
 10
-7.4255374096
 20
490.7906994205
  0
VERTEX
  8
0
 62
7
  6
CONTINUOUS
 10
-7.4821762317
 20
490.7799740284
  0
VERTEX
  8
0
 62
7
  6
CONTINUOUS
 10
-7.539860235
 20
490.768353094
  0
VERTEX
  8
0
 62
7
  6
CONTINUOUS
 10
-7.6056715422
 20
490.7542286693
  0
VERTEX
  8
0
 62
7
  6
CONTINUOUS
 10
-7.6926441342
 20
490.7341331806
  0
VERTEX
  8
0
 62
7
  6
CONTINUOUS
 10
-7.7830284767
 20
490.7115048375
  0
VERTEX
  8
0
 62
7
  6
CONTINUOUS
 10
-7.8597145967
 20
490.6908932596
  0
VERTEX
  8
0
 62
7
  6
CONTINUOUS
 10
-7.9346454187
 20
490.6694838729
  0
VERTEX
  8
0
 62
7
  6
CONTINUOUS
 10
-8.0112640787
 20
490.6462768895
  0
VERTEX
  8
0
 62
7
  6
CONTINUOUS
 10
-8.0975063569
 20
490.6185397545
  0
VERTEX
  8
0
 62
7
  6
CONTINUOUS
 10
-8.2076178196
 20
490.5805927611
  0
VERTEX
  8
0
 62
7
  6
CONTINUOUS
 10
-8.3249591146
 20
490.5369544044
  0
VERTEX
  8
0
 62
7
  6
CONTINUOUS
 10
-8.4352672597
 20
490.4928391607
  0
VERTEX
  8
0
 62
7
  6
CONTINUOUS
 10
-8.5470711558
 20
490.4449768494
  0
VERTEX
  8
0
 62
7
  6
CONTINUOUS
 10
-8.6644889221
 20
490.3911885481
  0
VERTEX
  8
0
 62
7
  6
CONTINUOUS
 10
-8.7857338675
 20
490.3317231117
  0
VERTEX
  8
0
 62
7
  6
CONTINUOUS
 10
-8.911224845
 20
490.2658055621
  0
VERTEX
  8
0
 62
7
  6
CONTINUOUS
 10
-9.0382966389
 20
490.1943225537
  0
VERTEX
  8
0
 62
7
  6
CONTINUOUS
 10
-9.1592303516
 20
490.1216487286
  0
VERTEX
  8
0
 62
7
  6
CONTINUOUS
 10
-9.2900682957
 20
490.0376438011
  0
VERTEX
  8
0
 62
7
  6
CONTINUOUS
 10
-9.4530782809
 20
489.9246438697
  0
VERTEX
  8
0
 62
7
  6
CONTINUOUS
 10
-9.6162108533
 20
489.8015469265
  0
VERTEX
  8
0
 62
7
  6
CONTINUOUS
 10
-9.7506753653
 20
489.6918693197
  0
VERTEX
  8
0
 62
7
  6
CONTINUOUS
 10
-9.87952048
 20
489.5791615395
  0
VERTEX
  8
0
 62
7
  6
CONTINUOUS
 10
-10.0122471391
 20
489.4545137197
  0
VERTEX
  8
0
 62
7
  6
CONTINUOUS
 10
-10.1540346955
 20
489.310719779
  0
VERTEX
  8
0
 62
7
  6
CONTINUOUS
 10
-10.3112089087
 20
489.1367527683
  0
VERTEX
  8
0
 62
7
  6
CONTINUOUS
 10
-10.4813520251
 20
488.9282202645
  0
VERTEX
  8
0
 62
7
  6
CONTINUOUS
 10
-10.6722862616
 20
488.6634682451
  0
VERTEX
  8
0
 62
7
  6
CONTINUOUS
 10
-10.8498808688
 20
488.379342855
  0
VERTEX
  8
0
 62
7
  6
CONTINUOUS
 10
-10.9854248928
 20
488.129260627
  0
VERTEX
  8
0
 62
7
  6
CONTINUOUS
 10
-11.1080598745
 20
487.8683596711
  0
VERTEX
  8
0
 62
7
  6
CONTINUOUS
 10
-11.2326276854
 20
487.553464115
  0
VERTEX
  8
0
 62
7
  6
CONTINUOUS
 10
-11.3396154841
 20
487.2165318563
  0
VERTEX
  8
0
 62
7
  6
CONTINUOUS
 10
-11.4201883762
 20
486.8842790264
  0
VERTEX
  8
0
 62
7
  6
CONTINUOUS
 10
-11.4789353216
 20
486.5394102323
  0
VERTEX
  8
0
 62
7
  6
CONTINUOUS
 10
-11.5030459564
 20
486.3254220006
  0
SEQEND
  0
LINE
  8
0
 62
7
  6
CONTINUOUS
 10
-6.5421952249
 20
490.8726900126
 11
378.5889903831
 21
490.8727246602
  0
LINE
  8
0
 62
7
  6
CONTINUOUS
 10
378.5320184696
 20
494.2328246588
 11
-6.4838500382
 21
494.2327949358
  0
POLYLINE
  8
0
 62
7
  6
CONTINUOUS
 66
1
 70
0
  0
VERTEX
  8
0
 62
7
  6
CONTINUOUS
 10
378.5320184696
 20
494.2328246588
  0
VERTEX
  8
0
 62
7
  6
CONTINUOUS
 10
378.5494633871
 20
494.2327942256
  0
VERTEX
  8
0
 62
7
  6
CONTINUOUS
 10
378.5664730352
 20
494.2327059457
  0
VERTEX
  8
0
 62
7
  6
CONTINUOUS
 10
378.5839597677
 20
494.2325548617
  0
VERTEX
  8
0
 62
7
  6
CONTINUOUS
 10
378.6024691208
 20
494.2323283048
  0
VERTEX
  8
0
 62
7
  6
CONTINUOUS
 10
378.6222576743
 20
494.2320102809
  0
VERTEX
  8
0
 62
7
  6
CONTINUOUS
 10
378.6435627008
 20
494.2315802924
  0
VERTEX
  8
0
 62
7
  6
CONTINUOUS
 10
378.6663740234
 20
494.2310191914
  0
VERTEX
  8
0
 62
7
  6
CONTINUOUS
 10
378.6908198292
 20
494.2303022354
  0
VERTEX
  8
0
 62
7
  6
CONTINUOUS
 10
378.7169702542
 20
494.2294027716
  0
VERTEX
  8
0
 62
7
  6
CONTINUOUS
 10
378.7447543043
 20
494.2282969553
  0
VERTEX
  8
0
 62
7
  6
CONTINUOUS
 10
378.7740432835
 20
494.2269636224
  0
VERTEX
  8
0
 62
7
  6
CONTINUOUS
 10
378.8050545739
 20
494.2253642216
  0
VERTEX
  8
0
 62
7
  6
CONTINUOUS
 10
378.8380935308
 20
494.2234476717
  0
VERTEX
  8
0
 62
7
  6
CONTINUOUS
 10
378.8728484004
 20
494.2211946289
  0
VERTEX
  8
0
 62
7
  6
CONTINUOUS
 10
378.9089887397
 20
494.2185937484
  0
VERTEX
  8
0
 62
7
  6
CONTINUOUS
 10
378.9468847315
 20
494.2155835317
  0
VERTEX
  8
0
 62
7
  6
CONTINUOUS
 10
378.9869076574
 20
494.2120892458
  0
VERTEX
  8
0
 62
7
  6
CONTINUOUS
 10
379.028767117
 20
494.2080875445
  0
VERTEX
  8
0
 62
7
  6
CONTINUOUS
 10
379.0718192021
 20
494.2036007721
  0
VERTEX
  8
0
 62
7
  6
CONTINUOUS
 10
379.1174993089
 20
494.1984275615
  0
VERTEX
  8
0
 62
7
  6
CONTINUOUS
 10
379.1682439997
 20
494.1921811767
  0
VERTEX
  8
0
 62
7
  6
CONTINUOUS
 10
379.2204206767
 20
494.1852081659
  0
VERTEX
  8
0
 62
7
  6
CONTINUOUS
 10
379.2690329861
 20
494.1782073128
  0
VERTEX
  8
0
 62
7
  6
CONTINUOUS
 10
379.3206069119
 20
494.1702458753
  0
VERTEX
  8
0
 62
7
  6
CONTINUOUS
 10
379.3835617171
 20
494.159778493
  0
VERTEX
  8
0
 62
7
  6
CONTINUOUS
 10
379.4471489014
 20
494.1483649438
  0
VERTEX
  8
0
 62
7
  6
CONTINUOUS
 10
379.4985514613
 20
494.1385166548
  0
VERTEX
  8
0
 62
7
  6
CONTINUOUS
 10
379.5525913553
 20
494.1275596859
  0
VERTEX
  8
0
 62
7
  6
CONTINUOUS
 10
379.6214936639
 20
494.112685702
  0
VERTEX
  8
0
 62
7
  6
CONTINUOUS
 10
379.6998604511
 20
494.0945265323
  0
VERTEX
  8
0
 62
7
  6
CONTINUOUS
 10
379.7909166028
 20
494.0717476253
  0
VERTEX
  8
0
 62
7
  6
CONTINUOUS
 10
379.8809164751
 20
494.0474351489
  0
VERTEX
  8
0
 62
7
  6
CONTINUOUS
 10
379.9501272442
 20
494.0275058252
  0
VERTEX
  8
0
 62
7
  6
CONTINUOUS
 10
380.0206959122
 20
494.0060666883
  0
VERTEX
  8
0
 62
7
  6
CONTINUOUS
 10
380.1091541004
 20
493.9775736724
  0
VERTEX
  8
0
 62
7
  6
CONTINUOUS
 10
380.2113238994
 20
493.9423823104
  0
VERTEX
  8
0
 62
7
  6
CONTINUOUS
 10
380.3350614306
 20
493.8964108396
  0
VERTEX
  8
0
 62
7
  6
CONTINUOUS
 10
380.4601145393
 20
493.8461147587
  0
VERTEX
  8
0
 62
7
  6
CONTINUOUS
 10
380.5600896797
 20
493.8030464426
  0
VERTEX
  8
0
 62
7
  6
CONTINUOUS
 10
380.6641085883
 20
493.7554557212
  0
VERTEX
  8
0
 62
7
  6
CONTINUOUS
 10
380.8015850729
 20
493.6880538808
  0
VERTEX
  8
0
 62
7
  6
CONTINUOUS
 10
380.9411942241
 20
493.6141340731
  0
VERTEX
  8
0
 62
7
  6
CONTINUOUS
 10
381.0530142513
 20
493.5507616964
  0
VERTEX
  8
0
 62
7
  6
CONTINUOUS
 10
381.1674536472
 20
493.4818811923
  0
VERTEX
  8
0
 62
7
  6
CONTINUOUS
 10
381.3094200556
 20
493.3904730841
  0
VERTEX
  8
0
 62
7
  6
CONTINUOUS
 10
381.4593635097
 20
493.286298603
  0
VERTEX
  8
0
 62
7
  6
CONTINUOUS
 10
381.6094328176
 20
493.1735759742
  0
VERTEX
  8
0
 62
7
  6
CONTINUOUS
 10
381.7525348914
 20
493.0575173232
  0
VERTEX
  8
0
 62
7
  6
CONTINUOUS
 10
381.8730037109
 20
492.9527463804
  0
VERTEX
  8
0
 62
7
  6
CONTINUOUS
 10
381.9933834685
 20
492.8410031944
  0
VERTEX
  8
0
 62
7
  6
CONTINUOUS
 10
382.1293011264
 20
492.7055120169
  0
VERTEX
  8
0
 62
7
  6
CONTINUOUS
 10
382.2764508743
 20
492.5463161658
  0
VERTEX
  8
0
 62
7
  6
CONTINUOUS
 10
382.4356779605
 20
492.3571553999
  0
VERTEX
  8
0
 62
7
  6
CONTINUOUS
 10
382.6019044082
 20
492.1373088551
  0
VERTEX
  8
0
 62
7
  6
CONTINUOUS
 10
382.7775058184
 20
491.8740056765
  0
VERTEX
  8
0
 62
7
  6
CONTINUOUS
 10
382.9373309442
 20
491.5978240248
  0
VERTEX
  8
0
 62
7
  6
CONTINUOUS
 10
383.0592138091
 20
491.3552059525
  0
VERTEX
  8
0
 62
7
  6
CONTINUOUS
 10
383.1680032528
 20
491.1056954738
  0
VERTEX
  8
0
 62
7
  6
CONTINUOUS
 10
383.276417168
 20
490.8110138079
  0
VERTEX
  8
0
 62
7
  6
CONTINUOUS
 10
383.3694451892
 20
490.4974600737
  0
VERTEX
  8
0
 62
7
  6
CONTINUOUS
 10
383.4403148377
 20
490.1860438164
  0
VERTEX
  8
0
 62
7
  6
CONTINUOUS
 10
383.4923650051
 20
489.8612848784
  0
VERTEX
  8
0
 62
7
  6
CONTINUOUS
 10
383.5241777349
 20
489.5127279798
  0
VERTEX
  8
0
 62
7
  6
CONTINUOUS
 10
383.5317813138
 20
489.2815227218
  0
SEQEND
  0
ARC
  8
0
 62
7
  6
CONTINUOUS
 10
917.0239063601
 20
401.9103819327
 40
932.3562624705
 50
174.8053569556
 51
182.530074536
  0
ARC
  8
0
 62
7
  6
CONTINUOUS
 10
-544.958497593
 20
401.9103819327
 40
932.3562624705
 50
357.469925464
 51
5.1946430444
  0
ARC
  8
0
 62
7
  6
CONTINUOUS
 10
186.0327043836
 20
1205.8807896039
 40
884.0667704896
 50
257.9974945353
 51
262.2830797421
  0
ARC
  8
0
 62
7
  6
CONTINUOUS
 10
186.0327043836
 20
1205.8807896039
 40
884.0667704896
 50
262.2841036298
 51
282.0025054647
  0
ARC
  8
0
 62
7
  6
CONTINUOUS
 10
105.4925194908
 20
259.7057431079
 40
25.2858213381
 50
353.5051431114
 51
186.4947165285
  0
ARC
  8
0
 62
7
  6
CONTINUOUS
 10
266.5728892764
 20
259.7057431079
 40
25.2858213381
 50
353.5051431114
 51
186.4947165285
  0
ARC
  8
0
 62
7
  6
CONTINUOUS
 10
186.0327043836
 20
415.0592431721
 40
21.462985367
 50
66.1882883411
 51
293.8117116589
  0
ARC
  8
0
 62
7
  6
CONTINUOUS
 10
186.0327043836
 20
415.0592431721
 40
21.1420168659
 50
293.4615672859
 51
66.5384327141
  0
ARC
  8
0
 62
7
  6
CONTINUOUS
 10
186.0327043836
 20
415.0592431721
 40
18.624232976
 50
69.6305396407
 51
290.3694603593
  0
ARC
  8
0
 62
7
  6
CONTINUOUS
 10
186.0327043836
 20
415.0592431721
 40
18.5087010099
 50
291.8995941767
 51
68.1004058233
  0
ARC
  8
0
 62
7
  6
CONTINUOUS
 10
189.7729980978
 20
405.2918991117
 40
3.5
 50
180.0
 51
225.0
  0
ARC
  8
0
 62
7
  6
CONTINUOUS
 10
189.7729980978
 20
424.8265872325
 40
3.5
 50
135.0
 51
180.0
  0
ARC
  8
0
 62
7
  6
CONTINUOUS
 10
189.7729980978
 20
424.8265872325
 40
3.0
 50
135.0
 51
180.0
  0
ARC
  8
0
 62
7
  6
CONTINUOUS
 10
189.7729980978
 20
405.2918991117
 40
3.0
 50
180.0
 51
225.0
  0
ENDSEC
  0
EOF
