999
DXF file: K:\Client\125_Heirloom\001\00\Final_Data\Drawings\BASINS\kubix-362133_3.dxf
999
Pro/ENGINEER 2017110 by Parametric Technology Corporation
  0
SECTION
  2
HEADER
  9
$EXTMAX
 10
420.0
 20
297.0
 30
0.0
  9
$EXTMIN
 10
0.0
 20
0.0
 30
0.0
  9
$LIMMIN
 10
0.0
 20
0.0
  9
$LIMMAX
 10
420.0
 20
297.0
  9
$VIEWCTR
 10
210.0
 20
148.5
  9
$VIEWSIZE
 40
297.0
  9
$CLAYER
  8
0
  9
$LTSCALE
 40
23.1
  9
$CELTYPE
  6
BYLAYER
  9
$DIMSCALE
 40
1.0
  9
$DIMASZ
 40
3.0
  9
$DIMEXO
 40
1.0
  9
$DIMDLI
 40
15.96
  9
$DIMEXE
 40
1.0
  9
$DIMCEN
 40
3.78
  9
$DIMLFAC
 40
1.0
  9
$DIMBLK
  1
_FILLED
  9
$DIMALT
 70
0
  9
$DIMALTF
 40
0.0393700787
  9
$DIMTXT
 40
3.0
  9
$AUNITS
 70
0
  9
$PDMODE
 70
3
  9
$PDSIZE
 40
5.0
  9
$TILEMODE
 70
1
  0
ENDSEC
  0
SECTION
  2
TABLES
  0
TABLE
  2
LTYPE
 70
6
  0
LTYPE
  2
BYBLOCK
 70
0
  3

 72
65
 73
0
 40
0.0
  0
LTYPE
  2
BYLAYER
 70
0
  3

 72
65
 73
0
 40
0.0
  0
LTYPE
  2
CONTINUOUS
 70
64
  3
Solid line
 72
65
 73
0
 40
0.0
  0
LTYPE
  2
CENTER
 70
64
  3
____ _ ____ _ ____ _ ____ _ ____ _ ____ _ ____
 72
65
 73
4
 40
0.6
 49
0.375
 49
-0.075
 49
0.075
 49
-0.075
  0
LTYPE
  2
HIDDEN
 70
64
  3
- - - - - - - - - - - - - - - - - - - -
 72
65
 73
2
 40
0.2
 49
0.1
 49
-0.1
  0
LTYPE
  2
PHANTOM
 70
64
  3
_____ _ _ _____ _ _ _____ _ _ _____
 72
65
 73
6
 40
0.8
 49
0.45
 49
-0.05
 49
0.1
 49
-0.05
 49
0.1
 49
-0.05
  0
LTYPE
  2
DOT
 70
64
  3
. . . . . . . . . . . . . . . . . . . .
 72
65
 73
2
 40
0.2
 49
0.1
 49
-0.1
  0
LTYPE
  2
DASHED
 70
64
  3
- - - - - - - - - - - - - - - - - - - -
 72
65
 73
2
 40
0.2
 49
0.1
 49
-0.1
  0
ENDTAB
  0
TABLE
  2
LAYER
 70
36
  0
LAYER
  2
0
 70
0
 62
7
  6
CONTINUOUS
  0
LAYER
  2
DEFAULT_1
 70
0
 62
7
  6
CENTER
  0
LAYER
  2
DEFAULT_2
 70
0
 62
8
  6
HIDDEN
  0
LAYER
  2
DEFAULT_3
 70
0
 62
7
  6
PHANTOM
  0
LAYER
  2
0000_BOM
 70
0
 62
7
  6
CONTINUOUS
  0
LAYER
  2
0000_REV_TABLE
 70
0
 62
7
  6
CONTINUOUS
  0
LAYER
  2
0000_STEVENS_NOTE
 70
0
 62
7
  6
CONTINUOUS
  0
LAYER
  2
01_DATUM_PLANES
 70
0
 62
7
  6
CONTINUOUS
  0
LAYER
  2
01_DEF_PLANES
 70
0
 62
7
  6
CONTINUOUS
  0
LAYER
  2
02_DATUM_COS
 70
0
 62
7
  6
CONTINUOUS
  0
LAYER
  2
99_SOLID
 70
0
 62
7
  6
CONTINUOUS
  0
LAYER
  2
CAD-MASTER_ZINC-PL
 70
0
 62
7
  6
CONTINUOUS
  0
LAYER
  2
CURVE
 70
0
 62
7
  6
CONTINUOUS
  0
LAYER
  2
SKEL
 70
0
 62
7
  6
CONTINUOUS
  0
LAYER
  2
SKETCH
 70
0
 62
7
  6
CONTINUOUS
  0
LAYER
  2
SURFACE
 70
0
 62
7
  6
CONTINUOUS
  0
ENDTAB
  0
TABLE
  2
STYLE
 70
1
  0
STYLE
  2
STANDARD
 70
0
 40
0.0
 41
0.75
 50
0.0
 71
0
 42
0.2
  3
txt
  4

  0
STYLE
  2
TEXTSTYLE_1
 70
0
 40
0.0
 41
0.8
 50
0.0
 71
0
 42
0.2
  3
gdt
  4

  0
ENDTAB
  0
ENDSEC
  0
SECTION
  2
BLOCKS
  0
ENDSEC
  0
SECTION
  2
ENTITIES
  0
POLYLINE
  8
0
 62
7
  6
CONTINUOUS
 66
1
 70
0
  0
VERTEX
  8
0
 62
7
  6
CONTINUOUS
 10
-38.3397794216
 20
-59.2113746678
  0
VERTEX
  8
0
 62
7
  6
CONTINUOUS
 10
-38.3291275566
 20
-59.744750217
  0
VERTEX
  8
0
 62
7
  6
CONTINUOUS
 10
-38.2980217505
 20
-60.2740507608
  0
VERTEX
  8
0
 62
7
  6
CONTINUOUS
 10
-38.2464685703
 20
-60.7988726213
  0
VERTEX
  8
0
 62
7
  6
CONTINUOUS
 10
-38.174448315
 20
-61.3204268317
  0
VERTEX
  8
0
 62
7
  6
CONTINUOUS
 10
-38.0818435305
 20
-61.8405521707
  0
VERTEX
  8
0
 62
7
  6
CONTINUOUS
 10
-37.9689540431
 20
-62.356961724
  0
VERTEX
  8
0
 62
7
  6
CONTINUOUS
 10
-37.8359241607
 20
-62.8682535737
  0
VERTEX
  8
0
 62
7
  6
CONTINUOUS
 10
-37.6831029847
 20
-63.3736115087
  0
VERTEX
  8
0
 62
7
  6
CONTINUOUS
 10
-37.5107677859
 20
-63.8719740704
  0
VERTEX
  8
0
 62
7
  6
CONTINUOUS
 10
-37.3192783639
 20
-64.3626750833
  0
VERTEX
  8
0
 62
7
  6
CONTINUOUS
 10
-37.1089921646
 20
-64.844848738
  0
VERTEX
  8
0
 62
7
  6
CONTINUOUS
 10
-36.8801935195
 20
-65.318032478
  0
VERTEX
  8
0
 62
7
  6
CONTINUOUS
 10
-36.6331714086
 20
-65.781670551
  0
VERTEX
  8
0
 62
7
  6
CONTINUOUS
 10
-36.3682693323
 20
-66.2351767355
  0
VERTEX
  8
0
 62
7
  6
CONTINUOUS
 10
-36.0857728788
 20
-66.6780078525
  0
VERTEX
  8
0
 62
7
  6
CONTINUOUS
 10
-35.7861447647
 20
-67.1094790209
  0
VERTEX
  8
0
 62
7
  6
CONTINUOUS
 10
-35.4697610582
 20
-67.5289447798
  0
VERTEX
  8
0
 62
7
  6
CONTINUOUS
 10
-35.1371672917
 20
-67.9357436901
  0
VERTEX
  8
0
 62
7
  6
CONTINUOUS
 10
-34.7888387712
 20
-68.3291950613
  0
VERTEX
  8
0
 62
7
  6
CONTINUOUS
 10
-34.4253622442
 20
-68.7087111866
  0
VERTEX
  8
0
 62
7
  6
CONTINUOUS
 10
-34.0472703914
 20
-69.0736558611
  0
VERTEX
  8
0
 62
7
  6
CONTINUOUS
 10
-33.6552007192
 20
-69.4234938888
  0
VERTEX
  8
0
 62
7
  6
CONTINUOUS
 10
-33.2497626999
 20
-69.7576235141
  0
VERTEX
  8
0
 62
7
  6
CONTINUOUS
 10
-32.8315731165
 20
-70.0756082107
  0
VERTEX
  8
0
 62
7
  6
CONTINUOUS
 10
-32.4012790823
 20
-70.376921869
  0
VERTEX
  8
0
 62
7
  6
CONTINUOUS
 10
-31.959399079
 20
-70.6612314838
  0
VERTEX
  8
0
 62
7
  6
CONTINUOUS
 10
-31.5064864504
 20
-70.9281426578
  0
VERTEX
  8
0
 62
7
  6
CONTINUOUS
 10
-31.0430837238
 20
-71.1773134575
  0
VERTEX
  8
0
 62
7
  6
CONTINUOUS
 10
-30.5696681359
 20
-71.4084034737
  0
VERTEX
  8
0
 62
7
  6
CONTINUOUS
 10
-30.0869889037
 20
-71.6210137359
  0
VERTEX
  8
0
 62
7
  6
CONTINUOUS
 10
-29.595502939
 20
-71.8147866458
  0
VERTEX
  8
0
 62
7
  6
CONTINUOUS
 10
-29.0965643947
 20
-71.9892576776
  0
VERTEX
  8
0
 62
7
  6
CONTINUOUS
 10
-28.5920824803
 20
-72.1437678418
  0
VERTEX
  8
0
 62
7
  6
CONTINUOUS
 10
-28.0808489377
 20
-72.2785429318
  0
VERTEX
  8
0
 62
7
  6
CONTINUOUS
 10
-27.5618724078
 20
-72.3937955419
  0
VERTEX
  8
0
 62
7
  6
CONTINUOUS
 10
-27.0364114031
 20
-72.4889062807
  0
VERTEX
  8
0
 62
7
  6
CONTINUOUS
 10
-26.5046927512
 20
-72.5634449738
  0
VERTEX
  8
0
 62
7
  6
CONTINUOUS
 10
-25.9688201474
 20
-72.6170565643
  0
VERTEX
  8
0
 62
7
  6
CONTINUOUS
 10
-25.4312453092
 20
-72.6491802977
  0
VERTEX
  8
0
 62
7
  6
CONTINUOUS
 10
-24.8911509973
 20
-72.660003092
  0
SEQEND
  0
POLYLINE
  8
0
 62
7
  6
CONTINUOUS
 66
1
 70
0
  0
VERTEX
  8
0
 62
7
  6
CONTINUOUS
 10
-30.8683191859
 20
-59.2113746678
  0
VERTEX
  8
0
 62
7
  6
CONTINUOUS
 10
-30.8658478244
 20
-59.4504449715
  0
VERTEX
  8
0
 62
7
  6
CONTINUOUS
 10
-30.8540364425
 20
-59.6879507026
  0
VERTEX
  8
0
 62
7
  6
CONTINUOUS
 10
-30.833069597
 20
-59.9231840259
  0
VERTEX
  8
0
 62
7
  6
CONTINUOUS
 10
-30.8029793069
 20
-60.1568721029
  0
VERTEX
  8
0
 62
7
  6
CONTINUOUS
 10
-30.7636293076
 20
-60.3898321212
  0
VERTEX
  8
0
 62
7
  6
CONTINUOUS
 10
-30.7151293774
 20
-60.6210347384
  0
VERTEX
  8
0
 62
7
  6
CONTINUOUS
 10
-30.6575991884
 20
-60.8498629829
  0
VERTEX
  8
0
 62
7
  6
CONTINUOUS
 10
-30.5911451456
 20
-61.0759398921
  0
VERTEX
  8
0
 62
7
  6
CONTINUOUS
 10
-30.5159226566
 20
-61.2988025945
  0
VERTEX
  8
0
 62
7
  6
CONTINUOUS
 10
-30.4320640024
 20
-61.5181423562
  0
VERTEX
  8
0
 62
7
  6
CONTINUOUS
 10
-30.3397429388
 20
-61.733581394
  0
VERTEX
  8
0
 62
7
  6
CONTINUOUS
 10
-30.2390774555
 20
-61.9449079234
  0
VERTEX
  8
0
 62
7
  6
CONTINUOUS
 10
-30.1301986301
 20
-62.1518774784
  0
VERTEX
  8
0
 62
7
  6
CONTINUOUS
 10
-30.0132527615
 20
-62.3542247581
  0
VERTEX
  8
0
 62
7
  6
CONTINUOUS
 10
-29.8883741722
 20
-62.551712505
  0
VERTEX
  8
0
 62
7
  6
CONTINUOUS
 10
-29.7557544461
 20
-62.7440272661
  0
VERTEX
  8
0
 62
7
  6
CONTINUOUS
 10
-29.6155759707
 20
-62.9308918033
  0
VERTEX
  8
0
 62
7
  6
CONTINUOUS
 10
-29.468062538
 20
-63.111998532
  0
VERTEX
  8
0
 62
7
  6
CONTINUOUS
 10
-29.3134432563
 20
-63.2870588054
  0
VERTEX
  8
0
 62
7
  6
CONTINUOUS
 10
-29.1519609031
 20
-63.4557958055
  0
VERTEX
  8
0
 62
7
  6
CONTINUOUS
 10
-28.9838690462
 20
-63.6179428133
  0
VERTEX
  8
0
 62
7
  6
CONTINUOUS
 10
-28.8094349513
 20
-63.7732450658
  0
VERTEX
  8
0
 62
7
  6
CONTINUOUS
 10
-28.6289444622
 20
-63.921452203
  0
VERTEX
  8
0
 62
7
  6
CONTINUOUS
 10
-28.4426598976
 20
-64.0623553116
  0
VERTEX
  8
0
 62
7
  6
CONTINUOUS
 10
-28.2508790534
 20
-64.1957337837
  0
VERTEX
  8
0
 62
7
  6
CONTINUOUS
 10
-28.0538268448
 20
-64.3214321748
  0
VERTEX
  8
0
 62
7
  6
CONTINUOUS
 10
-27.851754435
 20
-64.4392812177
  0
VERTEX
  8
0
 62
7
  6
CONTINUOUS
 10
-27.6448992965
 20
-64.5491256589
  0
VERTEX
  8
0
 62
7
  6
CONTINUOUS
 10
-27.4334801073
 20
-64.6508212531
  0
VERTEX
  8
0
 62
7
  6
CONTINUOUS
 10
-27.2178222265
 20
-64.7441797543
  0
VERTEX
  8
0
 62
7
  6
CONTINUOUS
 10
-26.9981428098
 20
-64.8290687896
  0
VERTEX
  8
0
 62
7
  6
CONTINUOUS
 10
-26.7750277136
 20
-64.9052378409
  0
VERTEX
  8
0
 62
7
  6
CONTINUOUS
 10
-26.549341882
 20
-64.9724174237
  0
VERTEX
  8
0
 62
7
  6
CONTINUOUS
 10
-26.3205561099
 20
-65.030766691
  0
VERTEX
  8
0
 62
7
  6
CONTINUOUS
 10
-26.088213178
 20
-65.0803018498
  0
VERTEX
  8
0
 62
7
  6
CONTINUOUS
 10
-25.852868477
 20
-65.1207679517
  0
VERTEX
  8
0
 62
7
  6
CONTINUOUS
 10
-25.6146396003
 20
-65.1520084228
  0
VERTEX
  8
0
 62
7
  6
CONTINUOUS
 10
-25.3744484301
 20
-65.1737895457
  0
VERTEX
  8
0
 62
7
  6
CONTINUOUS
 10
-25.1332229652
 20
-65.1859814789
  0
VERTEX
  8
0
 62
7
  6
CONTINUOUS
 10
-24.8911509973
 20
-65.1885428564
  0
SEQEND
  0
LINE
  8
0
 62
7
  6
CONTINUOUS
 10
-46.4672956164
 20
378.2124807131
 11
-46.4672956164
 21
-74.7875192869
  0
LINE
  8
0
 62
7
  6
CONTINUOUS
 10
-38.9672956164
 20
376.7124807131
 11
-38.9672956164
 21
-73.2875192869
  0
LINE
  8
0
 62
7
  6
CONTINUOUS
 10
-38.3397794216
 20
363.2124807131
 11
-38.3397794216
 21
-59.2113746678
  0
LINE
  8
0
 62
7
  6
CONTINUOUS
 10
-31.2687111255
 20
260.2088564755
 11
-31.2687116097
 21
363.2124807131
  0
LINE
  8
0
 62
7
  6
CONTINUOUS
 10
-30.8683191859
 20
250.3539047215
 11
-30.8683191859
 21
-59.2113746678
  0
POLYLINE
  8
0
 62
7
  6
CONTINUOUS
 66
1
 70
0
  0
VERTEX
  8
0
 62
7
  6
CONTINUOUS
 10
-31.2687116097
 20
363.2124807131
  0
VERTEX
  8
0
 62
7
  6
CONTINUOUS
 10
-31.2657789167
 20
363.5100699575
  0
VERTEX
  8
0
 62
7
  6
CONTINUOUS
 10
-31.2488338617
 20
363.8069413369
  0
VERTEX
  8
0
 62
7
  6
CONTINUOUS
 10
-31.2179729392
 20
364.1023759236
  0
VERTEX
  8
0
 62
7
  6
CONTINUOUS
 10
-31.1732823959
 20
364.3958036906
  0
VERTEX
  8
0
 62
7
  6
CONTINUOUS
 10
-31.1148863634
 20
364.6866294507
  0
VERTEX
  8
0
 62
7
  6
CONTINUOUS
 10
-31.0429098331
 20
364.9742562371
  0
VERTEX
  8
0
 62
7
  6
CONTINUOUS
 10
-30.9575160111
 20
365.258085556
  0
VERTEX
  8
0
 62
7
  6
CONTINUOUS
 10
-30.8588603344
 20
365.5375649345
  0
VERTEX
  8
0
 62
7
  6
CONTINUOUS
 10
-30.7471191368
 20
365.8121217708
  0
VERTEX
  8
0
 62
7
  6
CONTINUOUS
 10
-30.6225184638
 20
366.0812298614
  0
VERTEX
  8
0
 62
7
  6
CONTINUOUS
 10
-30.4852805154
 20
366.3443687031
  0
VERTEX
  8
0
 62
7
  6
CONTINUOUS
 10
-30.3356894225
 20
366.6009871103
  0
VERTEX
  8
0
 62
7
  6
CONTINUOUS
 10
-30.1740273482
 20
366.8505734589
  0
VERTEX
  8
0
 62
7
  6
CONTINUOUS
 10
-30.0006345205
 20
367.0925459488
  0
VERTEX
  8
0
 62
7
  6
CONTINUOUS
 10
-29.8158680305
 20
367.3263661815
  0
VERTEX
  8
0
 62
7
  6
CONTINUOUS
 10
-29.6201162498
 20
367.5514791584
  0
VERTEX
  8
0
 62
7
  6
CONTINUOUS
 10
-29.4138099208
 20
367.767339216
  0
VERTEX
  8
0
 62
7
  6
CONTINUOUS
 10
-29.1973531558
 20
367.9734928472
  0
VERTEX
  8
0
 62
7
  6
CONTINUOUS
 10
-28.9711851896
 20
368.1694777869
  0
VERTEX
  8
0
 62
7
  6
CONTINUOUS
 10
-28.7357580773
 20
368.354879987
  0
VERTEX
  8
0
 62
7
  6
CONTINUOUS
 10
-28.4915218603
 20
368.5293135014
  0
VERTEX
  8
0
 62
7
  6
CONTINUOUS
 10
-28.2390202967
 20
368.6923387101
  0
VERTEX
  8
0
 62
7
  6
CONTINUOUS
 10
-27.9787784007
 20
368.8435757871
  0
VERTEX
  8
0
 62
7
  6
CONTINUOUS
 10
-27.7114265238
 20
368.982609047
  0
VERTEX
  8
0
 62
7
  6
CONTINUOUS
 10
-27.4376112184
 20
369.1090679082
  0
VERTEX
  8
0
 62
7
  6
CONTINUOUS
 10
-27.1579470344
 20
369.2226444203
  0
VERTEX
  8
0
 62
7
  6
CONTINUOUS
 10
-26.8730901165
 20
369.3230476162
  0
VERTEX
  8
0
 62
7
  6
CONTINUOUS
 10
-26.5836635936
 20
369.4100537296
  0
VERTEX
  8
0
 62
7
  6
CONTINUOUS
 10
-26.2903047242
 20
369.4834669244
  0
VERTEX
  8
0
 62
7
  6
CONTINUOUS
 10
-25.9936848979
 20
369.5431012543
  0
VERTEX
  8
0
 62
7
  6
CONTINUOUS
 10
-25.6944830417
 20
369.588817212
  0
VERTEX
  8
0
 62
7
  6
CONTINUOUS
 10
-25.3933770622
 20
369.6204910922
  0
VERTEX
  8
0
 62
7
  6
CONTINUOUS
 10
-25.0910437426
 20
369.6380277344
  0
VERTEX
  8
0
 62
7
  6
CONTINUOUS
 10
-24.7882116147
 20
369.6414129012
  0
SEQEND
  0
POLYLINE
  8
0
 62
7
  6
CONTINUOUS
 66
1
 70
0
  0
VERTEX
  8
0
 62
7
  6
CONTINUOUS
 10
396.9565597645
 20
-72.660003092
  0
VERTEX
  8
0
 62
7
  6
CONTINUOUS
 10
397.4899353137
 20
-72.6493512271
  0
VERTEX
  8
0
 62
7
  6
CONTINUOUS
 10
398.0192358574
 20
-72.618245421
  0
VERTEX
  8
0
 62
7
  6
CONTINUOUS
 10
398.5440577179
 20
-72.5666922408
  0
VERTEX
  8
0
 62
7
  6
CONTINUOUS
 10
399.0656119283
 20
-72.4946719855
  0
VERTEX
  8
0
 62
7
  6
CONTINUOUS
 10
399.5857372673
 20
-72.402067201
  0
VERTEX
  8
0
 62
7
  6
CONTINUOUS
 10
400.1021468206
 20
-72.2891777136
  0
VERTEX
  8
0
 62
7
  6
CONTINUOUS
 10
400.6134386704
 20
-72.1561478312
  0
VERTEX
  8
0
 62
7
  6
CONTINUOUS
 10
401.1187966054
 20
-72.0033266552
  0
VERTEX
  8
0
 62
7
  6
CONTINUOUS
 10
401.6171591671
 20
-71.8309914564
  0
VERTEX
  8
0
 62
7
  6
CONTINUOUS
 10
402.10786018
 20
-71.6395020344
  0
VERTEX
  8
0
 62
7
  6
CONTINUOUS
 10
402.5900338347
 20
-71.4292158351
  0
VERTEX
  8
0
 62
7
  6
CONTINUOUS
 10
403.0632175747
 20
-71.20041719
  0
VERTEX
  8
0
 62
7
  6
CONTINUOUS
 10
403.5268556477
 20
-70.9533950791
  0
VERTEX
  8
0
 62
7
  6
CONTINUOUS
 10
403.9803618321
 20
-70.6884930028
  0
VERTEX
  8
0
 62
7
  6
CONTINUOUS
 10
404.4231929491
 20
-70.4059965493
  0
VERTEX
  8
0
 62
7
  6
CONTINUOUS
 10
404.8546641176
 20
-70.1063684352
  0
VERTEX
  8
0
 62
7
  6
CONTINUOUS
 10
405.2741298765
 20
-69.7899847287
  0
VERTEX
  8
0
 62
7
  6
CONTINUOUS
 10
405.6809287867
 20
-69.4573909622
  0
VERTEX
  8
0
 62
7
  6
CONTINUOUS
 10
406.0743801579
 20
-69.1090624417
  0
VERTEX
  8
0
 62
7
  6
CONTINUOUS
 10
406.4538962833
 20
-68.7455859147
  0
VERTEX
  8
0
 62
7
  6
CONTINUOUS
 10
406.8188409578
 20
-68.3674940619
  0
VERTEX
  8
0
 62
7
  6
CONTINUOUS
 10
407.1686789855
 20
-67.9754243897
  0
VERTEX
  8
0
 62
7
  6
CONTINUOUS
 10
407.5028086107
 20
-67.5699863704
  0
VERTEX
  8
0
 62
7
  6
CONTINUOUS
 10
407.8207933074
 20
-67.1517967869
  0
VERTEX
  8
0
 62
7
  6
CONTINUOUS
 10
408.1221069657
 20
-66.7215027528
  0
VERTEX
  8
0
 62
7
  6
CONTINUOUS
 10
408.4064165804
 20
-66.2796227495
  0
VERTEX
  8
0
 62
7
  6
CONTINUOUS
 10
408.6733277544
 20
-65.8267101208
  0
VERTEX
  8
0
 62
7
  6
CONTINUOUS
 10
408.9224985541
 20
-65.3633073943
  0
VERTEX
  8
0
 62
7
  6
CONTINUOUS
 10
409.1535885703
 20
-64.8898918064
  0
VERTEX
  8
0
 62
7
  6
CONTINUOUS
 10
409.3661988325
 20
-64.4072125742
  0
VERTEX
  8
0
 62
7
  6
CONTINUOUS
 10
409.5599717424
 20
-63.9157266095
  0
VERTEX
  8
0
 62
7
  6
CONTINUOUS
 10
409.7344427743
 20
-63.4167880651
  0
VERTEX
  8
0
 62
7
  6
CONTINUOUS
 10
409.8889529385
 20
-62.9123061508
  0
VERTEX
  8
0
 62
7
  6
CONTINUOUS
 10
410.0237280285
 20
-62.4010726082
  0
VERTEX
  8
0
 62
7
  6
CONTINUOUS
 10
410.1389806386
 20
-61.8820960783
  0
VERTEX
  8
0
 62
7
  6
CONTINUOUS
 10
410.2340913773
 20
-61.3566350736
  0
VERTEX
  8
0
 62
7
  6
CONTINUOUS
 10
410.3086300705
 20
-60.8249164217
  0
VERTEX
  8
0
 62
7
  6
CONTINUOUS
 10
410.362241661
 20
-60.2890438179
  0
VERTEX
  8
0
 62
7
  6
CONTINUOUS
 10
410.3943653943
 20
-59.7514689797
  0
VERTEX
  8
0
 62
7
  6
CONTINUOUS
 10
410.4051881887
 20
-59.2113746678
  0
SEQEND
  0
POLYLINE
  8
0
 62
7
  6
CONTINUOUS
 66
1
 70
0
  0
VERTEX
  8
0
 62
7
  6
CONTINUOUS
 10
396.9565597645
 20
-65.1885428564
  0
VERTEX
  8
0
 62
7
  6
CONTINUOUS
 10
397.1956300681
 20
-65.1860714949
  0
VERTEX
  8
0
 62
7
  6
CONTINUOUS
 10
397.4331357993
 20
-65.174260113
  0
VERTEX
  8
0
 62
7
  6
CONTINUOUS
 10
397.6683691226
 20
-65.1532932675
  0
VERTEX
  8
0
 62
7
  6
CONTINUOUS
 10
397.9020571996
 20
-65.1232029774
  0
VERTEX
  8
0
 62
7
  6
CONTINUOUS
 10
398.1350172178
 20
-65.0838529781
  0
VERTEX
  8
0
 62
7
  6
CONTINUOUS
 10
398.366219835
 20
-65.0353530479
  0
VERTEX
  8
0
 62
7
  6
CONTINUOUS
 10
398.5950480795
 20
-64.9778228589
  0
VERTEX
  8
0
 62
7
  6
CONTINUOUS
 10
398.8211249887
 20
-64.9113688161
  0
VERTEX
  8
0
 62
7
  6
CONTINUOUS
 10
399.0439876911
 20
-64.8361463271
  0
VERTEX
  8
0
 62
7
  6
CONTINUOUS
 10
399.2633274528
 20
-64.7522876729
  0
VERTEX
  8
0
 62
7
  6
CONTINUOUS
 10
399.4787664907
 20
-64.6599666093
  0
VERTEX
  8
0
 62
7
  6
CONTINUOUS
 10
399.6900930201
 20
-64.559301126
  0
VERTEX
  8
0
 62
7
  6
CONTINUOUS
 10
399.897062575
 20
-64.4504223006
  0
VERTEX
  8
0
 62
7
  6
CONTINUOUS
 10
400.0994098548
 20
-64.333476432
  0
VERTEX
  8
0
 62
7
  6
CONTINUOUS
 10
400.2968976017
 20
-64.2085978427
  0
VERTEX
  8
0
 62
7
  6
CONTINUOUS
 10
400.4892123628
 20
-64.0759781166
  0
VERTEX
  8
0
 62
7
  6
CONTINUOUS
 10
400.6760769
 20
-63.9357996412
  0
VERTEX
  8
0
 62
7
  6
CONTINUOUS
 10
400.8571836287
 20
-63.7882862084
  0
VERTEX
  8
0
 62
7
  6
CONTINUOUS
 10
401.032243902
 20
-63.6336669268
  0
VERTEX
  8
0
 62
7
  6
CONTINUOUS
 10
401.2009809022
 20
-63.4721845735
  0
VERTEX
  8
0
 62
7
  6
CONTINUOUS
 10
401.3631279099
 20
-63.3040927167
  0
VERTEX
  8
0
 62
7
  6
CONTINUOUS
 10
401.5184301625
 20
-63.1296586218
  0
VERTEX
  8
0
 62
7
  6
CONTINUOUS
 10
401.6666372997
 20
-62.9491681327
  0
VERTEX
  8
0
 62
7
  6
CONTINUOUS
 10
401.8075404083
 20
-62.762883568
  0
VERTEX
  8
0
 62
7
  6
CONTINUOUS
 10
401.9409188804
 20
-62.5711027239
  0
VERTEX
  8
0
 62
7
  6
CONTINUOUS
 10
402.0666172715
 20
-62.3740505153
  0
VERTEX
  8
0
 62
7
  6
CONTINUOUS
 10
402.1844663144
 20
-62.1719781055
  0
VERTEX
  8
0
 62
7
  6
CONTINUOUS
 10
402.2943107556
 20
-61.965122967
  0
VERTEX
  8
0
 62
7
  6
CONTINUOUS
 10
402.3960063497
 20
-61.7537037778
  0
VERTEX
  8
0
 62
7
  6
CONTINUOUS
 10
402.4893648509
 20
-61.538045897
  0
VERTEX
  8
0
 62
7
  6
CONTINUOUS
 10
402.5742538863
 20
-61.3183664803
  0
VERTEX
  8
0
 62
7
  6
CONTINUOUS
 10
402.6504229376
 20
-61.0952513841
  0
VERTEX
  8
0
 62
7
  6
CONTINUOUS
 10
402.7176025203
 20
-60.8695655525
  0
VERTEX
  8
0
 62
7
  6
CONTINUOUS
 10
402.7759517877
 20
-60.6407797803
  0
VERTEX
  8
0
 62
7
  6
CONTINUOUS
 10
402.8254869465
 20
-60.4084368485
  0
VERTEX
  8
0
 62
7
  6
CONTINUOUS
 10
402.8659530484
 20
-60.1730921475
  0
VERTEX
  8
0
 62
7
  6
CONTINUOUS
 10
402.8971935194
 20
-59.9348632708
  0
VERTEX
  8
0
 62
7
  6
CONTINUOUS
 10
402.9189746424
 20
-59.6946721006
  0
VERTEX
  8
0
 62
7
  6
CONTINUOUS
 10
402.9311665756
 20
-59.4534466357
  0
VERTEX
  8
0
 62
7
  6
CONTINUOUS
 10
402.933727953
 20
-59.2113746678
  0
SEQEND
  0
LINE
  8
0
 62
7
  6
CONTINUOUS
 10
-40.4672956164
 20
-80.7875192869
 11
412.5327043836
 21
-80.7875192869
  0
LINE
  8
0
 62
7
  6
CONTINUOUS
 10
-38.9672956164
 20
-73.2875192869
 11
411.0327043836
 21
-73.2875192869
  0
LINE
  8
0
 62
7
  6
CONTINUOUS
 10
-24.8911509973
 20
-72.660003092
 11
396.9565597645
 21
-72.660003092
  0
LINE
  8
0
 62
7
  6
CONTINUOUS
 10
-24.8911509973
 20
-65.1885428564
 11
396.9565597645
 21
-65.1885428564
  0
LINE
  8
0
 62
7
  6
CONTINUOUS
 10
-24.3486884649
 20
364.8421470289
 11
-24.4519883028
 21
366.3460248935
  0
POLYLINE
  8
0
 62
7
  6
CONTINUOUS
 66
1
 70
0
  0
VERTEX
  8
0
 62
7
  6
CONTINUOUS
 10
-24.1976437978
 20
362.5703450894
  0
VERTEX
  8
0
 62
7
  6
CONTINUOUS
 10
-24.3065901291
 20
364.2057331979
  0
VERTEX
  8
0
 62
7
  6
CONTINUOUS
 10
-24.3486884649
 20
364.8421470289
  0
SEQEND
  0
POLYLINE
  8
0
 62
7
  6
CONTINUOUS
 66
1
 70
0
  0
VERTEX
  8
0
 62
7
  6
CONTINUOUS
 10
-31.0676662918
 20
254.0340148016
  0
VERTEX
  8
0
 62
7
  6
CONTINUOUS
 10
-31.1264214291
 20
255.1126337365
  0
VERTEX
  8
0
 62
7
  6
CONTINUOUS
 10
-31.1533459264
 20
255.6552169281
  0
VERTEX
  8
0
 62
7
  6
CONTINUOUS
 10
-31.178048188
 20
256.1999826025
  0
SEQEND
  0
POLYLINE
  8
0
 62
7
  6
CONTINUOUS
 66
1
 70
0
  0
VERTEX
  8
0
 62
7
  6
CONTINUOUS
 10
-30.8683191859
 20
250.3539047215
  0
VERTEX
  8
0
 62
7
  6
CONTINUOUS
 10
-30.8848362045
 20
250.7504249229
  0
VERTEX
  8
0
 62
7
  6
CONTINUOUS
 10
-30.9045526566
 20
251.1664070184
  0
VERTEX
  8
0
 62
7
  6
CONTINUOUS
 10
-30.927283658
 20
251.6028731015
  0
VERTEX
  8
0
 62
7
  6
CONTINUOUS
 10
-31.0676662918
 20
254.0340148016
  0
SEQEND
  0
POLYLINE
  8
0
 62
7
  6
CONTINUOUS
 66
1
 70
0
  0
VERTEX
  8
0
 62
7
  6
CONTINUOUS
 10
-31.178048188
 20
256.1999826025
  0
VERTEX
  8
0
 62
7
  6
CONTINUOUS
 10
-31.1973787289
 20
256.6721732702
  0
VERTEX
  8
0
 62
7
  6
CONTINUOUS
 10
-31.2145818127
 20
257.1401710971
  0
VERTEX
  8
0
 62
7
  6
CONTINUOUS
 10
-31.2293475082
 20
257.5978589237
  0
VERTEX
  8
0
 62
7
  6
CONTINUOUS
 10
-31.2419105802
 20
258.0635882289
  0
VERTEX
  8
0
 62
7
  6
CONTINUOUS
 10
-31.2527225922
 20
258.5522652157
  0
VERTEX
  8
0
 62
7
  6
CONTINUOUS
 10
-31.2610673006
 20
259.0681085515
  0
VERTEX
  8
0
 62
7
  6
CONTINUOUS
 10
-31.2663589079
 20
259.6214540633
  0
VERTEX
  8
0
 62
7
  6
CONTINUOUS
 10
-31.2687111255
 20
260.2088564755
  0
SEQEND
  0
POLYLINE
  8
0
 62
7
  6
CONTINUOUS
 66
1
 70
0
  0
VERTEX
  8
0
 62
7
  6
CONTINUOUS
 10
-21.7291655368
 20
-50.0722210187
  0
VERTEX
  8
0
 62
7
  6
CONTINUOUS
 10
-21.7198180962
 20
-50.3640979945
  0
VERTEX
  8
0
 62
7
  6
CONTINUOUS
 10
-21.696232342
 20
-50.6552785978
  0
VERTEX
  8
0
 62
7
  6
CONTINUOUS
 10
-21.6584645469
 20
-50.9450681094
  0
VERTEX
  8
0
 62
7
  6
CONTINUOUS
 10
-21.606604816
 20
-51.2327751551
  0
VERTEX
  8
0
 62
7
  6
CONTINUOUS
 10
-21.5407768635
 20
-51.5177133595
  0
VERTEX
  8
0
 62
7
  6
CONTINUOUS
 10
-21.4611377659
 20
-51.7992028027
  0
VERTEX
  8
0
 62
7
  6
CONTINUOUS
 10
-21.3678775901
 20
-52.0765717437
  0
VERTEX
  8
0
 62
7
  6
CONTINUOUS
 10
-21.2612187802
 20
-52.3491586402
  0
VERTEX
  8
0
 62
7
  6
CONTINUOUS
 10
-21.1414156939
 20
-52.6163133706
  0
VERTEX
  8
0
 62
7
  6
CONTINUOUS
 10
-21.0087542436
 20
-52.8773983076
  0
VERTEX
  8
0
 62
7
  6
CONTINUOUS
 10
-20.863551044
 20
-53.1317903592
  0
VERTEX
  8
0
 62
7
  6
CONTINUOUS
 10
-20.7061524721
 20
-53.3788827129
  0
VERTEX
  8
0
 62
7
  6
CONTINUOUS
 10
-20.5369340113
 20
-53.6180859137
  0
VERTEX
  8
0
 62
7
  6
CONTINUOUS
 10
-20.3562994123
 20
-53.8488292228
  0
VERTEX
  8
0
 62
7
  6
CONTINUOUS
 10
-20.1646796512
 20
-54.0705621097
  0
VERTEX
  8
0
 62
7
  6
CONTINUOUS
 10
-19.962531902
 20
-54.2827555568
  0
VERTEX
  8
0
 62
7
  6
CONTINUOUS
 10
-19.7503384622
 20
-54.4849033006
  0
VERTEX
  8
0
 62
7
  6
CONTINUOUS
 10
-19.5286055877
 20
-54.6765230534
  0
VERTEX
  8
0
 62
7
  6
CONTINUOUS
 10
-19.2978622889
 20
-54.8571576474
  0
VERTEX
  8
0
 62
7
  6
CONTINUOUS
 10
-19.058659099
 20
-55.026376104
  0
VERTEX
  8
0
 62
7
  6
CONTINUOUS
 10
-18.8115667571
 20
-55.1837746726
  0
VERTEX
  8
0
 62
7
  6
CONTINUOUS
 10
-18.5571747175
 20
-55.3289778702
  0
VERTEX
  8
0
 62
7
  6
CONTINUOUS
 10
-18.2960897933
 20
-55.4616393192
  0
VERTEX
  8
0
 62
7
  6
CONTINUOUS
 10
-18.0289350715
 20
-55.5814424074
  0
VERTEX
  8
0
 62
7
  6
CONTINUOUS
 10
-17.7563481717
 20
-55.6881012241
  0
VERTEX
  8
0
 62
7
  6
CONTINUOUS
 10
-17.4789792222
 20
-55.781361408
  0
VERTEX
  8
0
 62
7
  6
CONTINUOUS
 10
-17.1974897708
 20
-55.8610005124
  0
VERTEX
  8
0
 62
7
  6
CONTINUOUS
 10
-16.9125515557
 20
-55.9268284714
  0
VERTEX
  8
0
 62
7
  6
CONTINUOUS
 10
-16.6248444954
 20
-55.9786882083
  0
VERTEX
  8
0
 62
7
  6
CONTINUOUS
 10
-16.3350549667
 20
-56.0164560081
  0
VERTEX
  8
0
 62
7
  6
CONTINUOUS
 10
-16.0438743446
 20
-56.0400417654
  0
VERTEX
  8
0
 62
7
  6
CONTINUOUS
 10
-15.7519973483
 20
-56.0493892073
  0
SEQEND
  0
LINE
  8
0
 62
7
  6
CONTINUOUS
 10
-24.8911509973
 20
-65.1885428564
 11
-24.8911509973
 21
-72.660003092
  0
LINE
  8
0
 62
7
  6
CONTINUOUS
 10
-24.7882116147
 20
369.6414129012
 11
-24.7882116147
 21
376.7124807131
  0
LINE
  8
0
 62
7
  6
CONTINUOUS
 10
-24.197237343
 20
259.9152496632
 11
-24.1976437978
 21
362.5703450894
  0
LINE
  8
0
 62
7
  6
CONTINUOUS
 10
-24.0162643628
 20
258.204889823
 11
-24.0162643621
 21
260.210077883
  0
LINE
  8
0
 62
7
  6
CONTINUOUS
 10
-21.7291655368
 20
-50.0722210187
 11
-21.7291655368
 21
237.0028903978
  0
POLYLINE
  8
0
 62
7
  6
CONTINUOUS
 66
1
 70
0
  0
VERTEX
  8
0
 62
7
  6
CONTINUOUS
 10
387.8174061154
 20
-56.0493892073
  0
VERTEX
  8
0
 62
7
  6
CONTINUOUS
 10
388.1092830912
 20
-56.0400417667
  0
VERTEX
  8
0
 62
7
  6
CONTINUOUS
 10
388.4004636945
 20
-56.0164560125
  0
VERTEX
  8
0
 62
7
  6
CONTINUOUS
 10
388.6902532061
 20
-55.9786882174
  0
VERTEX
  8
0
 62
7
  6
CONTINUOUS
 10
388.9779602518
 20
-55.9268284865
  0
VERTEX
  8
0
 62
7
  6
CONTINUOUS
 10
389.2628984562
 20
-55.861000534
  0
VERTEX
  8
0
 62
7
  6
CONTINUOUS
 10
389.5443878994
 20
-55.7813614364
  0
VERTEX
  8
0
 62
7
  6
CONTINUOUS
 10
389.8217568404
 20
-55.6881012606
  0
VERTEX
  8
0
 62
7
  6
CONTINUOUS
 10
390.0943437369
 20
-55.5814424507
  0
VERTEX
  8
0
 62
7
  6
CONTINUOUS
 10
390.3614984672
 20
-55.4616393644
  0
VERTEX
  8
0
 62
7
  6
CONTINUOUS
 10
390.6225834043
 20
-55.3289779141
  0
VERTEX
  8
0
 62
7
  6
CONTINUOUS
 10
390.8769754558
 20
-55.1837747145
  0
VERTEX
  8
0
 62
7
  6
CONTINUOUS
 10
391.1240678095
 20
-55.0263761425
  0
VERTEX
  8
0
 62
7
  6
CONTINUOUS
 10
391.3632710104
 20
-54.8571576818
  0
VERTEX
  8
0
 62
7
  6
CONTINUOUS
 10
391.5940143195
 20
-54.6765230828
  0
VERTEX
  8
0
 62
7
  6
CONTINUOUS
 10
391.8157472064
 20
-54.4849033216
  0
VERTEX
  8
0
 62
7
  6
CONTINUOUS
 10
392.0279406535
 20
-54.2827555725
  0
VERTEX
  8
0
 62
7
  6
CONTINUOUS
 10
392.2300883973
 20
-54.0705621327
  0
VERTEX
  8
0
 62
7
  6
CONTINUOUS
 10
392.42170815
 20
-53.8488292581
  0
VERTEX
  8
0
 62
7
  6
CONTINUOUS
 10
392.602342744
 20
-53.6180859594
  0
VERTEX
  8
0
 62
7
  6
CONTINUOUS
 10
392.7715612007
 20
-53.3788827694
  0
VERTEX
  8
0
 62
7
  6
CONTINUOUS
 10
392.9289597692
 20
-53.1317904276
  0
VERTEX
  8
0
 62
7
  6
CONTINUOUS
 10
393.0741629668
 20
-52.877398388
  0
VERTEX
  8
0
 62
7
  6
CONTINUOUS
 10
393.2068244159
 20
-52.6163134638
  0
VERTEX
  8
0
 62
7
  6
CONTINUOUS
 10
393.326627504
 20
-52.349158742
  0
VERTEX
  8
0
 62
7
  6
CONTINUOUS
 10
393.4332863208
 20
-52.0765718422
  0
VERTEX
  8
0
 62
7
  6
CONTINUOUS
 10
393.5265465046
 20
-51.7992028926
  0
VERTEX
  8
0
 62
7
  6
CONTINUOUS
 10
393.6061856091
 20
-51.5177134413
  0
VERTEX
  8
0
 62
7
  6
CONTINUOUS
 10
393.672013568
 20
-51.2327752262
  0
VERTEX
  8
0
 62
7
  6
CONTINUOUS
 10
393.7238733049
 20
-50.9450681659
  0
VERTEX
  8
0
 62
7
  6
CONTINUOUS
 10
393.7616411047
 20
-50.6552786372
  0
VERTEX
  8
0
 62
7
  6
CONTINUOUS
 10
393.7852268621
 20
-50.3640980151
  0
VERTEX
  8
0
 62
7
  6
CONTINUOUS
 10
393.794574304
 20
-50.0722210187
  0
SEQEND
  0
LINE
  8
0
 62
7
  6
CONTINUOUS
 10
-30.8683191859
 20
-59.2113746678
 11
-38.3397794216
 21
-59.2113746678
  0
LINE
  8
0
 62
7
  6
CONTINUOUS
 10
402.933727953
 20
-59.2113746678
 11
410.4051881887
 21
-59.2113746678
  0
LINE
  8
0
 62
7
  6
CONTINUOUS
 10
387.8174061154
 20
-56.0493892073
 11
-15.7519973483
 21
-56.0493892073
  0
POLYLINE
  8
0
 62
7
  6
CONTINUOUS
 66
1
 70
0
  0
VERTEX
  8
0
 62
7
  6
CONTINUOUS
 10
-24.5955940292
 20
368.1315524426
  0
VERTEX
  8
0
 62
7
  6
CONTINUOUS
 10
-24.6163270792
 20
368.3473368275
  0
VERTEX
  8
0
 62
7
  6
CONTINUOUS
 10
-24.6371670708
 20
368.5519490914
  0
VERTEX
  8
0
 62
7
  6
CONTINUOUS
 10
-24.6581395856
 20
368.7450035784
  0
VERTEX
  8
0
 62
7
  6
CONTINUOUS
 10
-24.6792653911
 20
368.9261348278
  0
VERTEX
  8
0
 62
7
  6
CONTINUOUS
 10
-24.7005748927
 20
369.0949875799
  0
VERTEX
  8
0
 62
7
  6
CONTINUOUS
 10
-24.7220959716
 20
369.2512349941
  0
VERTEX
  8
0
 62
7
  6
CONTINUOUS
 10
-24.7438569679
 20
369.3945701991
  0
VERTEX
  8
0
 62
7
  6
CONTINUOUS
 10
-24.7659002198
 20
369.5247124305
  0
VERTEX
  8
0
 62
7
  6
CONTINUOUS
 10
-24.7882116147
 20
369.6414129012
  0
SEQEND
  0
LINE
  8
0
 62
7
  6
CONTINUOUS
 10
-24.5543823868
 20
367.668167969
 11
-24.5955940292
 21
368.1315524426
  0
LINE
  8
0
 62
7
  6
CONTINUOUS
 10
-24.5133884561
 20
367.1654088585
 11
-24.5543823868
 21
367.668167969
  0
POLYLINE
  8
0
 62
7
  6
CONTINUOUS
 66
1
 70
0
  0
VERTEX
  8
0
 62
7
  6
CONTINUOUS
 10
-24.4519883028
 20
366.3460248935
  0
VERTEX
  8
0
 62
7
  6
CONTINUOUS
 10
-24.4724671226
 20
366.6271707667
  0
VERTEX
  8
0
 62
7
  6
CONTINUOUS
 10
-24.5133884561
 20
367.1654088585
  0
SEQEND
  0
LINE
  8
0
 62
7
  6
CONTINUOUS
 10
-6.7862450654
 20
-41.1064687359
 11
-6.7862450654
 21
229.5314301621
  0
LINE
  8
0
 62
7
  6
CONTINUOUS
 10
-40.2095383783
 20
-79.4988921607
 11
-39.5143856806
 21
-76.0229196913
  0
LINE
  8
0
 62
7
  6
CONTINUOUS
 10
-39.5143856806
 20
-76.0229196913
 11
-39.0371560601
 21
-73.6365431349
  0
POLYLINE
  8
0
 62
7
  6
CONTINUOUS
 66
1
 70
0
  0
VERTEX
  8
0
 62
7
  6
CONTINUOUS
 10
-40.42851204
 20
-80.5934466929
  0
VERTEX
  8
0
 62
7
  6
CONTINUOUS
 10
-40.3913847699
 20
-80.4078964535
  0
VERTEX
  8
0
 62
7
  6
CONTINUOUS
 10
-40.3683149317
 20
-80.2925873328
  0
VERTEX
  8
0
 62
7
  6
CONTINUOUS
 10
-40.3422624086
 20
-80.1624015826
  0
VERTEX
  8
0
 62
7
  6
CONTINUOUS
 10
-40.2095383783
 20
-79.4988921607
  0
SEQEND
  0
LINE
  8
0
 62
7
  6
CONTINUOUS
 10
-39.0371560601
 20
-73.6365431349
 11
-38.9672956164
 21
-73.2875192869
  0
LINE
  8
0
 62
7
  6
CONTINUOUS
 10
-40.4672956164
 20
-80.7875192869
 11
-40.42851204
 21
-80.5934466929
  0
LINE
  8
0
 62
7
  6
CONTINUOUS
 10
-45.6974172353
 20
-74.6335528904
 11
-45.8421774039
 21
-74.6625016538
  0
LINE
  8
0
 62
7
  6
CONTINUOUS
 10
-41.7026956687
 20
-73.8346113923
 11
-45.6974172353
 21
-74.6335528904
  0
LINE
  8
0
 62
7
  6
CONTINUOUS
 10
-38.9672956164
 20
-73.2875192869
 11
-40.3582661656
 21
-73.5657521118
  0
POLYLINE
  8
0
 62
7
  6
CONTINUOUS
 66
1
 70
0
  0
VERTEX
  8
0
 62
7
  6
CONTINUOUS
 10
-46.2732233215
 20
-74.7487053244
  0
VERTEX
  8
0
 62
7
  6
CONTINUOUS
 10
-46.4361970741
 20
-74.7812995855
  0
VERTEX
  8
0
 62
7
  6
CONTINUOUS
 10
-46.4672956164
 20
-74.7875192869
  0
SEQEND
  0
LINE
  8
0
 62
7
  6
CONTINUOUS
 10
-40.3582661656
 20
-73.5657521118
 11
-41.7026956687
 21
-73.8346113923
  0
LINE
  8
0
 62
7
  6
CONTINUOUS
 10
-45.8421774039
 20
-74.6625016538
 11
-46.2732233215
 21
-74.7487053244
  0
LINE
  8
0
 62
7
  6
CONTINUOUS
 10
378.8516538326
 20
-41.1064687359
 11
-6.7862450654
 21
-41.1064687359
  0
LINE
  8
0
 62
7
  6
CONTINUOUS
 10
417.2440772573
 20
-74.5297620488
 11
413.768104788
 21
-73.8346093511
  0
LINE
  8
0
 62
7
  6
CONTINUOUS
 10
413.768104788
 20
-73.8346093511
 11
411.3817282315
 21
-73.3573797306
  0
POLYLINE
  8
0
 62
7
  6
CONTINUOUS
 66
1
 70
0
  0
VERTEX
  8
0
 62
7
  6
CONTINUOUS
 10
418.3386317896
 20
-74.7487357105
  0
VERTEX
  8
0
 62
7
  6
CONTINUOUS
 10
418.1530815502
 20
-74.7116084404
  0
VERTEX
  8
0
 62
7
  6
CONTINUOUS
 10
418.0377724295
 20
-74.6885386022
  0
VERTEX
  8
0
 62
7
  6
CONTINUOUS
 10
417.9075866792
 20
-74.6624860791
  0
VERTEX
  8
0
 62
7
  6
CONTINUOUS
 10
417.2440772573
 20
-74.5297620488
  0
SEQEND
  0
LINE
  8
0
 62
7
  6
CONTINUOUS
 10
411.3817282315
 20
-73.3573797306
 11
411.0327043836
 21
-73.2875192869
  0
LINE
  8
0
 62
7
  6
CONTINUOUS
 10
418.5327043836
 20
-74.7875192869
 11
418.3386317896
 21
-74.7487357105
  0
POLYLINE
  8
0
 62
7
  6
CONTINUOUS
 66
1
 70
0
  0
VERTEX
  8
0
 62
7
  6
CONTINUOUS
 10
-23.795554558
 20
257.1220460465
  0
VERTEX
  8
0
 62
7
  6
CONTINUOUS
 10
-23.8553296749
 20
257.3897166237
  0
VERTEX
  8
0
 62
7
  6
CONTINUOUS
 10
-23.9130638689
 20
257.6613557588
  0
VERTEX
  8
0
 62
7
  6
CONTINUOUS
 10
-23.966452718
 20
257.9328488819
  0
VERTEX
  8
0
 62
7
  6
CONTINUOUS
 10
-24.0162643628
 20
258.204889823
  0
SEQEND
  0
LINE
  8
0
 62
7
  6
CONTINUOUS
 10
-40.31332922
 20
383.4426023319
 11
-40.3422779833
 21
383.5873625006
  0
LINE
  8
0
 62
7
  6
CONTINUOUS
 10
-39.5143877218
 20
379.4478807654
 11
-40.31332922
 21
383.4426023319
  0
LINE
  8
0
 62
7
  6
CONTINUOUS
 10
-38.9672956164
 20
376.7124807131
 11
-39.2455284414
 21
378.1034512623
  0
POLYLINE
  8
0
 62
7
  6
CONTINUOUS
 66
1
 70
0
  0
VERTEX
  8
0
 62
7
  6
CONTINUOUS
 10
-40.4284816539
 20
384.0184084182
  0
VERTEX
  8
0
 62
7
  6
CONTINUOUS
 10
-40.461075915
 20
384.1813821707
  0
VERTEX
  8
0
 62
7
  6
CONTINUOUS
 10
-40.4672956164
 20
384.2124807131
  0
SEQEND
  0
LINE
  8
0
 62
7
  6
CONTINUOUS
 10
-39.2455284414
 20
378.1034512623
 11
-39.5143877218
 21
379.4478807654
  0
LINE
  8
0
 62
7
  6
CONTINUOUS
 10
-40.3422779833
 20
383.5873625006
 11
-40.4284816539
 21
384.0184084182
  0
POLYLINE
  8
0
 62
7
  6
CONTINUOUS
 66
1
 70
0
  0
VERTEX
  8
0
 62
7
  6
CONTINUOUS
 10
-24.0162643628
 20
258.2050295676
  0
VERTEX
  8
0
 62
7
  6
CONTINUOUS
 10
-24.0613387029
 20
258.4409334718
  0
VERTEX
  8
0
 62
7
  6
CONTINUOUS
 10
-24.0999800591
 20
258.6749574084
  0
VERTEX
  8
0
 62
7
  6
CONTINUOUS
 10
-24.1311284719
 20
258.9037108512
  0
VERTEX
  8
0
 62
7
  6
CONTINUOUS
 10
-24.1559637046
 20
259.1364055884
  0
VERTEX
  8
0
 62
7
  6
CONTINUOUS
 10
-24.1759342115
 20
259.3806227745
  0
VERTEX
  8
0
 62
7
  6
CONTINUOUS
 10
-24.1899007343
 20
259.6384839646
  0
VERTEX
  8
0
 62
7
  6
CONTINUOUS
 10
-24.197237343
 20
259.9152496632
  0
SEQEND
  0
POLYLINE
  8
0
 62
7
  6
CONTINUOUS
 66
1
 70
0
  0
VERTEX
  8
0
 62
7
  6
CONTINUOUS
 10
-23.3968589502
 20
255.2819913022
  0
VERTEX
  8
0
 62
7
  6
CONTINUOUS
 10
-23.43017025
 20
255.480282955
  0
VERTEX
  8
0
 62
7
  6
CONTINUOUS
 10
-23.469327567
 20
255.6882429702
  0
VERTEX
  8
0
 62
7
  6
CONTINUOUS
 10
-23.5148552968
 20
255.906428137
  0
VERTEX
  8
0
 62
7
  6
CONTINUOUS
 10
-23.5651802528
 20
256.133417259
  0
VERTEX
  8
0
 62
7
  6
CONTINUOUS
 10
-23.795554558
 20
257.1220460465
  0
SEQEND
  0
POLYLINE
  8
0
 62
7
  6
CONTINUOUS
 66
1
 70
0
  0
VERTEX
  8
0
 62
7
  6
CONTINUOUS
 10
-13.7860767514
 20
243.53109409
  0
VERTEX
  8
0
 62
7
  6
CONTINUOUS
 10
-13.9573063781
 20
243.8735559032
  0
VERTEX
  8
0
 62
7
  6
CONTINUOUS
 10
-14.0298294927
 20
244.0186114703
  0
SEQEND
  0
LINE
  8
0
 62
7
  6
CONTINUOUS
 10
-14.0298294927
 20
244.0186114703
 11
-14.2577053011
 21
244.4743506335
  0
LINE
  8
0
 62
7
  6
CONTINUOUS
 10
-6.7862450654
 20
229.5314301621
 11
-13.7860767514
 21
243.53109409
  0
POLYLINE
  8
0
 62
7
  6
CONTINUOUS
 66
1
 70
0
  0
VERTEX
  8
0
 62
7
  6
CONTINUOUS
 10
-29.9934325506
 20
245.2671574116
  0
VERTEX
  8
0
 62
7
  6
CONTINUOUS
 10
-30.0434533847
 20
245.3282585569
  0
VERTEX
  8
0
 62
7
  6
CONTINUOUS
 10
-30.0931523061
 20
245.4110402524
  0
VERTEX
  8
0
 62
7
  6
CONTINUOUS
 10
-30.1425472896
 20
245.5155247263
  0
VERTEX
  8
0
 62
7
  6
CONTINUOUS
 10
-30.1915844104
 20
245.6416452942
  0
VERTEX
  8
0
 62
7
  6
CONTINUOUS
 10
-30.2402627699
 20
245.7894867403
  0
VERTEX
  8
0
 62
7
  6
CONTINUOUS
 10
-30.2884412648
 20
245.958616887
  0
VERTEX
  8
0
 62
7
  6
CONTINUOUS
 10
-30.3360046864
 20
246.1487840133
  0
VERTEX
  8
0
 62
7
  6
CONTINUOUS
 10
-30.3828744516
 20
246.3595315342
  0
VERTEX
  8
0
 62
7
  6
CONTINUOUS
 10
-30.4289498631
 20
246.5904436212
  0
VERTEX
  8
0
 62
7
  6
CONTINUOUS
 10
-30.4741820553
 20
246.8411462845
  0
VERTEX
  8
0
 62
7
  6
CONTINUOUS
 10
-30.5185020005
 20
247.1112280622
  0
VERTEX
  8
0
 62
7
  6
CONTINUOUS
 10
-30.5618694875
 20
247.4003855415
  0
VERTEX
  8
0
 62
7
  6
CONTINUOUS
 10
-30.6042306986
 20
247.7082273302
  0
VERTEX
  8
0
 62
7
  6
CONTINUOUS
 10
-30.6455574262
 20
248.0346059043
  0
VERTEX
  8
0
 62
7
  6
CONTINUOUS
 10
-30.6858383696
 20
248.3795339129
  0
VERTEX
  8
0
 62
7
  6
CONTINUOUS
 10
-30.7249689911
 20
248.7421394452
  0
VERTEX
  8
0
 62
7
  6
CONTINUOUS
 10
-30.7628708431
 20
249.1219227726
  0
VERTEX
  8
0
 62
7
  6
CONTINUOUS
 10
-30.7994543537
 20
249.5177799978
  0
VERTEX
  8
0
 62
7
  6
CONTINUOUS
 10
-30.8345893361
 20
249.9282818382
  0
VERTEX
  8
0
 62
7
  6
CONTINUOUS
 10
-30.8683191859
 20
250.3539047215
  0
SEQEND
  0
LINE
  8
0
 62
7
  6
CONTINUOUS
 10
-21.7291655368
 20
237.0028903978
 11
-29.9934325506
 21
245.2671574116
  0
POLYLINE
  8
0
 62
7
  6
CONTINUOUS
 66
1
 70
0
  0
VERTEX
  8
0
 62
7
  6
CONTINUOUS
 10
-12.6260845935
 20
-50.8395595078
  0
VERTEX
  8
0
 62
7
  6
CONTINUOUS
 10
-12.349265559
 20
-50.3781748774
  0
VERTEX
  8
0
 62
7
  6
CONTINUOUS
 10
-10.1287974055
 20
-46.6774108097
  0
SEQEND
  0
LINE
  8
0
 62
7
  6
CONTINUOUS
 10
-10.1287974055
 20
-46.6774108097
 11
-9.7770646536
 21
-46.0911671994
  0
POLYLINE
  8
0
 62
7
  6
CONTINUOUS
 66
1
 70
0
  0
VERTEX
  8
0
 62
7
  6
CONTINUOUS
 10
-13.6202560662
 20
-52.4965048633
  0
VERTEX
  8
0
 62
7
  6
CONTINUOUS
 10
-13.3891299305
 20
-52.1112848352
  0
VERTEX
  8
0
 62
7
  6
CONTINUOUS
 10
-12.6260845935
 20
-50.8395595078
  0
SEQEND
  0
POLYLINE
  8
0
 62
7
  6
CONTINUOUS
 66
1
 70
0
  0
VERTEX
  8
0
 62
7
  6
CONTINUOUS
 10
-14.7586998718
 20
-54.3939169055
  0
VERTEX
  8
0
 62
7
  6
CONTINUOUS
 10
-14.2430293924
 20
-53.5344513508
  0
VERTEX
  8
0
 62
7
  6
CONTINUOUS
 10
-13.6202560662
 20
-52.4965048633
  0
SEQEND
  0
LINE
  8
0
 62
7
  6
CONTINUOUS
 10
-15.4726798706
 20
-55.5838659035
 11
-14.7586998718
 21
-54.3939169055
  0
LINE
  8
0
 62
7
  6
CONTINUOUS
 10
-9.7770646536
 20
-46.0911671994
 11
-6.7862450654
 21
-41.1064687359
  0
LINE
  8
0
 62
7
  6
CONTINUOUS
 10
-15.7519973483
 20
-56.0493892073
 11
-15.4726798706
 21
-55.5838659035
  0
POLYLINE
  8
0
 62
7
  6
CONTINUOUS
 66
1
 70
0
  0
VERTEX
  8
0
 62
7
  6
CONTINUOUS
 10
388.5847445967
 20
-46.9463082593
  0
VERTEX
  8
0
 62
7
  6
CONTINUOUS
 10
388.1233599652
 20
-46.6694892241
  0
VERTEX
  8
0
 62
7
  6
CONTINUOUS
 10
384.4225958999
 20
-44.4490210721
  0
SEQEND
  0
LINE
  8
0
 62
7
  6
CONTINUOUS
 10
384.4225958999
 20
-44.4490210721
 11
383.8363522887
 21
-44.0972883197
  0
POLYLINE
  8
0
 62
7
  6
CONTINUOUS
 66
1
 70
0
  0
VERTEX
  8
0
 62
7
  6
CONTINUOUS
 10
390.2416899568
 20
-47.9404797347
  0
VERTEX
  8
0
 62
7
  6
CONTINUOUS
 10
389.8564699275
 20
-47.7093535984
  0
VERTEX
  8
0
 62
7
  6
CONTINUOUS
 10
388.5847445967
 20
-46.9463082593
  0
SEQEND
  0
POLYLINE
  8
0
 62
7
  6
CONTINUOUS
 66
1
 70
0
  0
VERTEX
  8
0
 62
7
  6
CONTINUOUS
 10
392.1391020015
 20
-49.0789235419
  0
VERTEX
  8
0
 62
7
  6
CONTINUOUS
 10
391.279636446
 20
-48.5632530621
  0
VERTEX
  8
0
 62
7
  6
CONTINUOUS
 10
390.2416899568
 20
-47.9404797347
  0
SEQEND
  0
LINE
  8
0
 62
7
  6
CONTINUOUS
 10
393.3290510005
 20
-49.7929035413
 11
392.1391020015
 21
-49.0789235419
  0
LINE
  8
0
 62
7
  6
CONTINUOUS
 10
383.8363522887
 20
-44.0972883197
 11
378.8516538326
 21
-41.1064687359
  0
LINE
  8
0
 62
7
  6
CONTINUOUS
 10
393.7945743039
 20
-50.0722210187
 11
393.3290510005
 21
-49.7929035413
  0
LINE
  8
0
 62
7
  6
CONTINUOUS
 10
-14.2577053011
 20
244.4743506335
 11
-22.5219723149
 21
252.7386176473
  0
POLYLINE
  8
0
 62
7
  6
CONTINUOUS
 66
1
 70
0
  0
VERTEX
  8
0
 62
7
  6
CONTINUOUS
 10
-22.5219723149
 20
252.7386176473
  0
VERTEX
  8
0
 62
7
  6
CONTINUOUS
 10
-22.5719953358
 20
252.7691331552
  0
VERTEX
  8
0
 62
7
  6
CONTINUOUS
 10
-22.6216947644
 20
252.8105589914
  0
VERTEX
  8
0
 62
7
  6
CONTINUOUS
 10
-22.6710877909
 20
252.8628074096
  0
VERTEX
  8
0
 62
7
  6
CONTINUOUS
 10
-22.7201228451
 20
252.9258616421
  0
VERTEX
  8
0
 62
7
  6
CONTINUOUS
 10
-22.768801901
 20
252.9997651776
  0
VERTEX
  8
0
 62
7
  6
CONTINUOUS
 10
-22.8169815154
 20
253.0843473597
  0
VERTEX
  8
0
 62
7
  6
CONTINUOUS
 10
-22.8645447218
 20
253.1794190453
  0
VERTEX
  8
0
 62
7
  6
CONTINUOUS
 10
-22.9114140631
 20
253.2848047181
  0
VERTEX
  8
0
 62
7
  6
CONTINUOUS
 10
-22.957489498
 20
253.4002566551
  0
VERTEX
  8
0
 62
7
  6
CONTINUOUS
 10
-23.0027218114
 20
253.5256120843
  0
VERTEX
  8
0
 62
7
  6
CONTINUOUS
 10
-23.0470418742
 20
253.6606530523
  0
VERTEX
  8
0
 62
7
  6
CONTINUOUS
 10
-23.0904093869
 20
253.8052317017
  0
VERTEX
  8
0
 62
7
  6
CONTINUOUS
 10
-23.132770219
 20
253.9591567437
  0
VERTEX
  8
0
 62
7
  6
CONTINUOUS
 10
-23.1740967351
 20
254.1223419313
  0
VERTEX
  8
0
 62
7
  6
CONTINUOUS
 10
-23.2143785725
 20
254.2947940487
  0
VERTEX
  8
0
 62
7
  6
CONTINUOUS
 10
-23.2535097826
 20
254.4761085755
  0
VERTEX
  8
0
 62
7
  6
CONTINUOUS
 10
-23.2914100857
 20
254.6659849564
  0
VERTEX
  8
0
 62
7
  6
CONTINUOUS
 10
-23.3279921126
 20
254.8639291164
  0
VERTEX
  8
0
 62
7
  6
CONTINUOUS
 10
-23.3631274679
 20
255.0693466513
  0
VERTEX
  8
0
 62
7
  6
CONTINUOUS
 10
-23.3968589502
 20
255.2819913022
  0
SEQEND
  0
LINE
  8
0
 62
7
  6
CONTINUOUS
 10
171.0327043836
 20
251.1503774897
 11
171.0327043836
 21
248.7124807131
  0
LINE
  8
0
 62
7
  6
CONTINUOUS
 10
-30.8683191859
 20
-59.2113746678
 11
-21.7291655368
 21
-50.0722210187
  0
LINE
  8
0
 62
7
  6
CONTINUOUS
 10
-20.7859094041
 20
236.5312554901
 11
-21.1283711222
 21
236.7024841382
  0
LINE
  8
0
 62
7
  6
CONTINUOUS
 10
-6.7862450654
 20
229.5314301621
 11
-20.7859094041
 21
236.5312554901
  0
LINE
  8
0
 62
7
  6
CONTINUOUS
 10
-21.1283711222
 20
236.7024841382
 11
-21.7291655368
 21
237.0028903978
  0
LINE
  8
0
 62
7
  6
CONTINUOUS
 10
396.9565597645
 20
-65.1885428564
 11
387.8174061154
 21
-56.0493892073
  0
LINE
  8
0
 62
7
  6
CONTINUOUS
 10
201.0327043836
 20
251.1503774897
 11
201.0327043836
 21
248.7124807131
  0
LINE
  8
0
 62
7
  6
CONTINUOUS
 10
-24.8911509973
 20
-65.1885428564
 11
-15.7519973483
 21
-56.0493892073
  0
LINE
  8
0
 62
7
  6
CONTINUOUS
 10
393.7945743039
 20
237.0028903978
 11
393.5640401039
 21
236.8876216677
  0
LINE
  8
0
 62
7
  6
CONTINUOUS
 10
384.3096688972
 20
232.2604284514
 11
383.7318831911
 21
231.9715467666
  0
POLYLINE
  8
0
 62
7
  6
CONTINUOUS
 66
1
 70
0
  0
VERTEX
  8
0
 62
7
  6
CONTINUOUS
 10
393.5640401039
 20
236.8876216677
  0
VERTEX
  8
0
 62
7
  6
CONTINUOUS
 10
390.8568579431
 20
235.5340215811
  0
VERTEX
  8
0
 62
7
  6
CONTINUOUS
 10
390.5032143771
 20
235.3572065361
  0
VERTEX
  8
0
 62
7
  6
CONTINUOUS
 10
390.1304006336
 20
235.1707933788
  0
VERTEX
  8
0
 62
7
  6
CONTINUOUS
 10
389.7386838965
 20
234.9749427425
  0
VERTEX
  8
0
 62
7
  6
CONTINUOUS
 10
389.3283450351
 20
234.769765695
  0
VERTEX
  8
0
 62
7
  6
CONTINUOUS
 10
388.8997575915
 20
234.5554806046
  0
VERTEX
  8
0
 62
7
  6
CONTINUOUS
 10
388.4533112011
 20
234.3322487071
  0
VERTEX
  8
0
 62
7
  6
CONTINUOUS
 10
387.9895000638
 20
234.1003524683
  0
VERTEX
  8
0
 62
7
  6
CONTINUOUS
 10
387.5088362968
 20
233.8600110342
  0
VERTEX
  8
0
 62
7
  6
CONTINUOUS
 10
387.0119459725
 20
233.6115756001
  0
VERTEX
  8
0
 62
7
  6
CONTINUOUS
 10
386.499474377
 20
233.3553302661
  0
VERTEX
  8
0
 62
7
  6
CONTINUOUS
 10
385.9721848481
 20
233.0916954639
  0
VERTEX
  8
0
 62
7
  6
CONTINUOUS
 10
384.3096688972
 20
232.2604284514
  0
SEQEND
  0
LINE
  8
0
 62
7
  6
CONTINUOUS
 10
383.7318831911
 20
231.9715467666
 11
378.8516538326
 21
229.5314301621
  0
LINE
  8
0
 62
7
  6
CONTINUOUS
 10
402.933727953
 20
-59.2113746678
 11
393.7945743039
 21
-50.0722210187
  0
POLYLINE
  8
0
 62
7
  6
CONTINUOUS
 66
1
 70
0
  0
VERTEX
  8
0
 62
7
  6
CONTINUOUS
 10
201.0327043836
 20
251.1503774897
  0
VERTEX
  8
0
 62
7
  6
CONTINUOUS
 10
201.0210526173
 20
251.2020601823
  0
VERTEX
  8
0
 62
7
  6
CONTINUOUS
 10
200.9862489492
 20
251.2535809255
  0
VERTEX
  8
0
 62
7
  6
CONTINUOUS
 10
200.928238383
 20
251.3049792992
  0
VERTEX
  8
0
 62
7
  6
CONTINUOUS
 10
200.8471859078
 20
251.3561365637
  0
VERTEX
  8
0
 62
7
  6
CONTINUOUS
 10
200.7431623634
 20
251.4069741404
  0
VERTEX
  8
0
 62
7
  6
CONTINUOUS
 10
200.6163952017
 20
251.4574111249
  0
VERTEX
  8
0
 62
7
  6
CONTINUOUS
 10
200.467041583
 20
251.5073647982
  0
VERTEX
  8
0
 62
7
  6
CONTINUOUS
 10
200.2953832219
 20
251.5567620243
  0
VERTEX
  8
0
 62
7
  6
CONTINUOUS
 10
200.1016279844
 20
251.6055281775
  0
VERTEX
  8
0
 62
7
  6
CONTINUOUS
 10
199.8861545771
 20
251.6535850078
  0
VERTEX
  8
0
 62
7
  6
CONTINUOUS
 10
199.649277003
 20
251.7008514952
  0
VERTEX
  8
0
 62
7
  6
CONTINUOUS
 10
199.3913972388
 20
251.7472613239
  0
VERTEX
  8
0
 62
7
  6
CONTINUOUS
 10
199.1128477354
 20
251.7927455443
  0
VERTEX
  8
0
 62
7
  6
CONTINUOUS
 10
198.8141510732
 20
251.837231037
  0
VERTEX
  8
0
 62
7
  6
CONTINUOUS
 10
198.4957717493
 20
251.8806411897
  0
VERTEX
  8
0
 62
7
  6
CONTINUOUS
 10
198.1582164654
 20
251.9229175318
  0
VERTEX
  8
0
 62
7
  6
CONTINUOUS
 10
197.8019293791
 20
251.9639979048
  0
VERTEX
  8
0
 62
7
  6
CONTINUOUS
 10
197.4275626198
 20
252.00381676
  0
VERTEX
  8
0
 62
7
  6
CONTINUOUS
 10
197.0357175125
 20
252.0423044635
  0
VERTEX
  8
0
 62
7
  6
CONTINUOUS
 10
196.6269906278
 20
252.0794111132
  0
VERTEX
  8
0
 62
7
  6
CONTINUOUS
 10
196.2019252671
 20
252.1150822202
  0
VERTEX
  8
0
 62
7
  6
CONTINUOUS
 10
195.7612825632
 20
252.1492619124
  0
VERTEX
  8
0
 62
7
  6
CONTINUOUS
 10
195.3057801845
 20
252.181889774
  0
VERTEX
  8
0
 62
7
  6
CONTINUOUS
 10
194.8360918258
 20
252.2129249473
  0
VERTEX
  8
0
 62
7
  6
CONTINUOUS
 10
194.3528489253
 20
252.2423212807
  0
VERTEX
  8
0
 62
7
  6
CONTINUOUS
 10
193.856895922
 20
252.2700342403
  0
VERTEX
  8
0
 62
7
  6
CONTINUOUS
 10
193.3490409493
 20
252.2960143833
  0
VERTEX
  8
0
 62
7
  6
CONTINUOUS
 10
192.8300243631
 20
252.3202302855
  0
VERTEX
  8
0
 62
7
  6
CONTINUOUS
 10
192.3005563447
 20
252.3426447396
  0
VERTEX
  8
0
 62
7
  6
CONTINUOUS
 10
191.7615355518
 20
252.3632256517
  0
VERTEX
  8
0
 62
7
  6
CONTINUOUS
 10
191.2138313429
 20
252.3819357069
  0
VERTEX
  8
0
 62
7
  6
CONTINUOUS
 10
190.6582417971
 20
252.3987533602
  0
VERTEX
  8
0
 62
7
  6
CONTINUOUS
 10
190.0955472066
 20
252.4136510186
  0
VERTEX
  8
0
 62
7
  6
CONTINUOUS
 10
189.5266702907
 20
252.4266095105
  0
VERTEX
  8
0
 62
7
  6
CONTINUOUS
 10
188.9525116422
 20
252.4376041567
  0
VERTEX
  8
0
 62
7
  6
CONTINUOUS
 10
188.3739179327
 20
252.4466238868
  0
VERTEX
  8
0
 62
7
  6
CONTINUOUS
 10
187.791730011
 20
252.4536515248
  0
VERTEX
  8
0
 62
7
  6
CONTINUOUS
 10
187.2068659395
 20
252.4586807076
  0
VERTEX
  8
0
 62
7
  6
CONTINUOUS
 10
186.6202295092
 20
252.4616992973
  0
VERTEX
  8
0
 62
7
  6
CONTINUOUS
 10
186.0327043836
 20
252.4627074426
  0
VERTEX
  8
0
 62
7
  6
CONTINUOUS
 10
185.445179258
 20
252.4616992973
  0
VERTEX
  8
0
 62
7
  6
CONTINUOUS
 10
184.8585428277
 20
252.4586807076
  0
VERTEX
  8
0
 62
7
  6
CONTINUOUS
 10
184.2736787562
 20
252.4536515248
  0
VERTEX
  8
0
 62
7
  6
CONTINUOUS
 10
183.6914908344
 20
252.4466238868
  0
VERTEX
  8
0
 62
7
  6
CONTINUOUS
 10
183.112897125
 20
252.4376041567
  0
VERTEX
  8
0
 62
7
  6
CONTINUOUS
 10
182.5387384764
 20
252.4266095105
  0
VERTEX
  8
0
 62
7
  6
CONTINUOUS
 10
181.9698615605
 20
252.4136510186
  0
VERTEX
  8
0
 62
7
  6
CONTINUOUS
 10
181.4071669701
 20
252.3987533602
  0
VERTEX
  8
0
 62
7
  6
CONTINUOUS
 10
180.8515774243
 20
252.3819357069
  0
VERTEX
  8
0
 62
7
  6
CONTINUOUS
 10
180.3038732154
 20
252.3632256517
  0
VERTEX
  8
0
 62
7
  6
CONTINUOUS
 10
179.7648524225
 20
252.3426447396
  0
VERTEX
  8
0
 62
7
  6
CONTINUOUS
 10
179.2353844041
 20
252.3202302855
  0
VERTEX
  8
0
 62
7
  6
CONTINUOUS
 10
178.7163678179
 20
252.2960143833
  0
VERTEX
  8
0
 62
7
  6
CONTINUOUS
 10
178.2085128451
 20
252.2700342403
  0
VERTEX
  8
0
 62
7
  6
CONTINUOUS
 10
177.7125598419
 20
252.2423212807
  0
VERTEX
  8
0
 62
7
  6
CONTINUOUS
 10
177.2293169413
 20
252.2129249473
  0
VERTEX
  8
0
 62
7
  6
CONTINUOUS
 10
176.7596285827
 20
252.181889774
  0
VERTEX
  8
0
 62
7
  6
CONTINUOUS
 10
176.3041262039
 20
252.1492619124
  0
VERTEX
  8
0
 62
7
  6
CONTINUOUS
 10
175.8634835
 20
252.1150822202
  0
VERTEX
  8
0
 62
7
  6
CONTINUOUS
 10
175.4384181393
 20
252.0794111132
  0
VERTEX
  8
0
 62
7
  6
CONTINUOUS
 10
175.0296912546
 20
252.0423044635
  0
VERTEX
  8
0
 62
7
  6
CONTINUOUS
 10
174.6378461474
 20
252.00381676
  0
VERTEX
  8
0
 62
7
  6
CONTINUOUS
 10
174.263479388
 20
251.9639979048
  0
VERTEX
  8
0
 62
7
  6
CONTINUOUS
 10
173.9071923017
 20
251.9229175318
  0
VERTEX
  8
0
 62
7
  6
CONTINUOUS
 10
173.5696370178
 20
251.8806411897
  0
VERTEX
  8
0
 62
7
  6
CONTINUOUS
 10
173.251257694
 20
251.837231037
  0
VERTEX
  8
0
 62
7
  6
CONTINUOUS
 10
172.9525610318
 20
251.7927455443
  0
VERTEX
  8
0
 62
7
  6
CONTINUOUS
 10
172.6740115283
 20
251.7472613239
  0
VERTEX
  8
0
 62
7
  6
CONTINUOUS
 10
172.4161317641
 20
251.7008514952
  0
VERTEX
  8
0
 62
7
  6
CONTINUOUS
 10
172.1792541901
 20
251.6535850078
  0
VERTEX
  8
0
 62
7
  6
CONTINUOUS
 10
171.9637807828
 20
251.6055281775
  0
VERTEX
  8
0
 62
7
  6
CONTINUOUS
 10
171.7700255453
 20
251.5567620243
  0
VERTEX
  8
0
 62
7
  6
CONTINUOUS
 10
171.5983671842
 20
251.5073647982
  0
VERTEX
  8
0
 62
7
  6
CONTINUOUS
 10
171.4490135655
 20
251.4574111249
  0
VERTEX
  8
0
 62
7
  6
CONTINUOUS
 10
171.3222464038
 20
251.4069741404
  0
VERTEX
  8
0
 62
7
  6
CONTINUOUS
 10
171.2182228593
 20
251.3561365637
  0
VERTEX
  8
0
 62
7
  6
CONTINUOUS
 10
171.1371703841
 20
251.3049792992
  0
VERTEX
  8
0
 62
7
  6
CONTINUOUS
 10
171.0791598179
 20
251.2535809255
  0
VERTEX
  8
0
 62
7
  6
CONTINUOUS
 10
171.0443561499
 20
251.2020601823
  0
VERTEX
  8
0
 62
7
  6
CONTINUOUS
 10
171.0327043836
 20
251.1503774897
  0
SEQEND
  0
LINE
  8
0
 62
7
  6
CONTINUOUS
 10
-20.0736926244
 20
-49.078928272
 11
-20.5481017723
 21
-49.3635919297
  0
POLYLINE
  8
0
 62
7
  6
CONTINUOUS
 66
1
 70
0
  0
VERTEX
  8
0
 62
7
  6
CONTINUOUS
 10
-11.1731315863
 20
-43.7385850616
  0
VERTEX
  8
0
 62
7
  6
CONTINUOUS
 10
-11.7709434833
 20
-44.0972884081
  0
VERTEX
  8
0
 62
7
  6
CONTINUOUS
 10
-12.357187043
 20
-44.4490212606
  0
VERTEX
  8
0
 62
7
  6
CONTINUOUS
 10
-12.9309341968
 20
-44.7932808193
  0
VERTEX
  8
0
 62
7
  6
CONTINUOUS
 10
-13.4912479401
 20
-45.1294532288
  0
VERTEX
  8
0
 62
7
  6
CONTINUOUS
 10
-14.0370359782
 20
-45.4569424497
  0
VERTEX
  8
0
 62
7
  6
CONTINUOUS
 10
-14.567252237
 20
-45.775058391
  0
VERTEX
  8
0
 62
7
  6
CONTINUOUS
 10
-15.0812478431
 20
-46.0834693512
  0
VERTEX
  8
0
 62
7
  6
CONTINUOUS
 10
-15.5783720103
 20
-46.3817287553
  0
VERTEX
  8
0
 62
7
  6
CONTINUOUS
 10
-16.0579505002
 20
-46.6694911318
  0
VERTEX
  8
0
 62
7
  6
CONTINUOUS
 10
-16.5193350222
 20
-46.9463106067
  0
VERTEX
  8
0
 62
7
  6
CONTINUOUS
 10
-16.9622013583
 20
-47.2120418119
  0
VERTEX
  8
0
 62
7
  6
CONTINUOUS
 10
-17.3862398314
 20
-47.4664520209
  0
VERTEX
  8
0
 62
7
  6
CONTINUOUS
 10
-17.7910601015
 20
-47.7093574343
  0
VERTEX
  8
0
 62
7
  6
CONTINUOUS
 10
-18.1762801006
 20
-47.9404840335
  0
VERTEX
  8
0
 62
7
  6
CONTINUOUS
 10
-18.5419133524
 20
-48.1598697488
  0
VERTEX
  8
0
 62
7
  6
CONTINUOUS
 10
-18.8879797573
 20
-48.3674984361
  0
VERTEX
  8
0
 62
7
  6
CONTINUOUS
 10
-19.2142266943
 20
-48.5632583002
  0
SEQEND
  0
POLYLINE
  8
0
 62
7
  6
CONTINUOUS
 66
1
 70
0
  0
VERTEX
  8
0
 62
7
  6
CONTINUOUS
 10
-19.2142266943
 20
-48.5632583002
  0
VERTEX
  8
0
 62
7
  6
CONTINUOUS
 10
-19.8068288352
 20
-48.9188200285
  0
VERTEX
  8
0
 62
7
  6
CONTINUOUS
 10
-20.0736926244
 20
-49.078928272
  0
SEQEND
  0
POLYLINE
  8
0
 62
7
  6
CONTINUOUS
 66
1
 70
0
  0
VERTEX
  8
0
 62
7
  6
CONTINUOUS
 10
-20.5481017723
 20
-49.3635919297
  0
VERTEX
  8
0
 62
7
  6
CONTINUOUS
 10
-20.9444181379
 20
-49.6013677712
  0
VERTEX
  8
0
 62
7
  6
CONTINUOUS
 10
-21.1136573184
 20
-49.702917467
  0
SEQEND
  0
LINE
  8
0
 62
7
  6
CONTINUOUS
 10
-6.7862450654
 20
-41.1064687359
 11
-11.1731315863
 21
-43.7385850616
  0
LINE
  8
0
 62
7
  6
CONTINUOUS
 10
-21.1136573184
 20
-49.702917467
 11
-21.7291655368
 21
-50.0722210187
  0
LINE
  8
0
 62
7
  6
CONTINUOUS
 10
386.8241133682
 20
-54.3939162942
 11
387.1087770262
 21
-54.8683254426
  0
POLYLINE
  8
0
 62
7
  6
CONTINUOUS
 66
1
 70
0
  0
VERTEX
  8
0
 62
7
  6
CONTINUOUS
 10
381.4837701535
 20
-45.4933552488
  0
VERTEX
  8
0
 62
7
  6
CONTINUOUS
 10
381.8424735003
 20
-46.0911671464
  0
VERTEX
  8
0
 62
7
  6
CONTINUOUS
 10
382.1942063533
 20
-46.677410707
  0
VERTEX
  8
0
 62
7
  6
CONTINUOUS
 10
382.5384659124
 20
-47.2511578615
  0
VERTEX
  8
0
 62
7
  6
CONTINUOUS
 10
382.874638322
 20
-47.8114716048
  0
VERTEX
  8
0
 62
7
  6
CONTINUOUS
 10
383.2021275425
 20
-48.3572596423
  0
VERTEX
  8
0
 62
7
  6
CONTINUOUS
 10
383.5202434829
 20
-48.8874758994
  0
VERTEX
  8
0
 62
7
  6
CONTINUOUS
 10
383.8286544421
 20
-49.4014715041
  0
VERTEX
  8
0
 62
7
  6
CONTINUOUS
 10
384.1269138462
 20
-49.8985956713
  0
VERTEX
  8
0
 62
7
  6
CONTINUOUS
 10
384.4146762231
 20
-50.3781741618
  0
VERTEX
  8
0
 62
7
  6
CONTINUOUS
 10
384.6914956987
 20
-50.8395586849
  0
VERTEX
  8
0
 62
7
  6
CONTINUOUS
 10
384.9572269046
 20
-51.2824250223
  0
VERTEX
  8
0
 62
7
  6
CONTINUOUS
 10
385.2116371143
 20
-51.7064634965
  0
VERTEX
  8
0
 62
7
  6
CONTINUOUS
 10
385.4545425283
 20
-52.1112837677
  0
VERTEX
  8
0
 62
7
  6
CONTINUOUS
 10
385.6856691282
 20
-52.4965037679
  0
VERTEX
  8
0
 62
7
  6
CONTINUOUS
 10
385.9050548441
 20
-52.8621370206
  0
VERTEX
  8
0
 62
7
  6
CONTINUOUS
 10
386.1126835318
 20
-53.2082034261
  0
VERTEX
  8
0
 62
7
  6
CONTINUOUS
 10
386.308443396
 20
-53.5344503634
  0
SEQEND
  0
POLYLINE
  8
0
 62
7
  6
CONTINUOUS
 66
1
 70
0
  0
VERTEX
  8
0
 62
7
  6
CONTINUOUS
 10
386.308443396
 20
-53.5344503634
  0
VERTEX
  8
0
 62
7
  6
CONTINUOUS
 10
386.6640051245
 20
-54.1270525047
  0
VERTEX
  8
0
 62
7
  6
CONTINUOUS
 10
386.8241133682
 20
-54.3939162942
  0
SEQEND
  0
POLYLINE
  8
0
 62
7
  6
CONTINUOUS
 66
1
 70
0
  0
VERTEX
  8
0
 62
7
  6
CONTINUOUS
 10
387.1087770262
 20
-54.8683254426
  0
VERTEX
  8
0
 62
7
  6
CONTINUOUS
 10
387.3465528679
 20
-55.2646418085
  0
VERTEX
  8
0
 62
7
  6
CONTINUOUS
 10
387.4481025638
 20
-55.4338809891
  0
SEQEND
  0
LINE
  8
0
 62
7
  6
CONTINUOUS
 10
378.8516538326
 20
-41.1064687359
 11
381.4837701535
 21
-45.4933552488
  0
LINE
  8
0
 62
7
  6
CONTINUOUS
 10
387.4481025638
 20
-55.4338809891
 11
387.8174061154
 21
-56.0493892073
  0
LINE
  8
0
 62
7
  6
CONTINUOUS
 10
394.5873810821
 20
252.7386176473
 11
386.3231140683
 21
244.4743506335
  0
LINE
  8
0
 62
7
  6
CONTINUOUS
 10
402.0588413178
 20
245.2671574116
 11
393.7945743039
 21
237.0028903978
  0
LINE
  8
0
 62
7
  6
CONTINUOUS
 10
-6.7862450654
 20
229.5314301621
 11
378.8516538326
 21
229.5314301621
  0
POLYLINE
  8
0
 62
7
  6
CONTINUOUS
 66
1
 70
0
  0
VERTEX
  8
0
 62
7
  6
CONTINUOUS
 10
-14.2577053011
 20
244.4743506335
  0
VERTEX
  8
0
 62
7
  6
CONTINUOUS
 10
-14.6011056006
 20
244.4638467918
  0
VERTEX
  8
0
 62
7
  6
CONTINUOUS
 10
-14.9437801359
 20
244.4375744883
  0
VERTEX
  8
0
 62
7
  6
CONTINUOUS
 10
-15.2850046769
 20
244.3955892486
  0
VERTEX
  8
0
 62
7
  6
CONTINUOUS
 10
-15.6240580578
 20
244.3379798071
  0
VERTEX
  8
0
 62
7
  6
CONTINUOUS
 10
-15.9602237015
 20
244.2648679191
  0
VERTEX
  8
0
 62
7
  6
CONTINUOUS
 10
-16.292791134
 20
244.176408104
  0
VERTEX
  8
0
 62
7
  6
CONTINUOUS
 10
-16.6210574862
 20
244.0727873184
  0
VERTEX
  8
0
 62
7
  6
CONTINUOUS
 10
-16.944328979
 20
243.9542245612
  0
VERTEX
  8
0
 62
7
  6
CONTINUOUS
 10
-17.2619223896
 20
243.8209704103
  0
VERTEX
  8
0
 62
7
  6
CONTINUOUS
 10
-17.573166496
 20
243.6733064937
  0
VERTEX
  8
0
 62
7
  6
CONTINUOUS
 10
-17.877403495
 20
243.5115448937
  0
VERTEX
  8
0
 62
7
  6
CONTINUOUS
 10
-18.1739903926
 20
243.3360274876
  0
VERTEX
  8
0
 62
7
  6
CONTINUOUS
 10
-18.4623003632
 20
243.1471252251
  0
VERTEX
  8
0
 62
7
  6
CONTINUOUS
 10
-18.741724074
 20
242.9452373443
  0
VERTEX
  8
0
 62
7
  6
CONTINUOUS
 10
-19.0116709732
 20
242.7307905279
  0
VERTEX
  8
0
 62
7
  6
CONTINUOUS
 10
-19.2715705377
 20
242.5042380016
  0
VERTEX
  8
0
 62
7
  6
CONTINUOUS
 10
-19.5208734792
 20
242.2660585759
  0
VERTEX
  8
0
 62
7
  6
CONTINUOUS
 10
-19.7590529049
 20
242.0167556344
  0
VERTEX
  8
0
 62
7
  6
CONTINUOUS
 10
-19.9856054313
 20
241.7568560699
  0
VERTEX
  8
0
 62
7
  6
CONTINUOUS
 10
-20.2000522477
 20
241.4869091707
  0
VERTEX
  8
0
 62
7
  6
CONTINUOUS
 10
-20.4019401285
 20
241.2074854599
  0
VERTEX
  8
0
 62
7
  6
CONTINUOUS
 10
-20.590842391
 20
240.9191754893
  0
VERTEX
  8
0
 62
7
  6
CONTINUOUS
 10
-20.7663597971
 20
240.6225885917
  0
VERTEX
  8
0
 62
7
  6
CONTINUOUS
 10
-20.9281213971
 20
240.3183515927
  0
VERTEX
  8
0
 62
7
  6
CONTINUOUS
 10
-21.0757853137
 20
240.0071074863
  0
VERTEX
  8
0
 62
7
  6
CONTINUOUS
 10
-21.2090394645
 20
239.6895140756
  0
VERTEX
  8
0
 62
7
  6
CONTINUOUS
 10
-21.3276022218
 20
239.3662425829
  0
VERTEX
  8
0
 62
7
  6
CONTINUOUS
 10
-21.4312230073
 20
239.0379762307
  0
VERTEX
  8
0
 62
7
  6
CONTINUOUS
 10
-21.5196828224
 20
238.7054087981
  0
VERTEX
  8
0
 62
7
  6
CONTINUOUS
 10
-21.5927947104
 20
238.3692431545
  0
VERTEX
  8
0
 62
7
  6
CONTINUOUS
 10
-21.650404152
 20
238.0301897736
  0
VERTEX
  8
0
 62
7
  6
CONTINUOUS
 10
-21.6923893916
 20
237.6889652326
  0
VERTEX
  8
0
 62
7
  6
CONTINUOUS
 10
-21.7186616951
 20
237.3462906973
  0
VERTEX
  8
0
 62
7
  6
CONTINUOUS
 10
-21.7291655368
 20
237.0028903978
  0
SEQEND
  0
POLYLINE
  8
0
 62
7
  6
CONTINUOUS
 66
1
 70
0
  0
VERTEX
  8
0
 62
7
  6
CONTINUOUS
 10
-22.5219723149
 20
252.7386176473
  0
VERTEX
  8
0
 62
7
  6
CONTINUOUS
 10
-22.86537259
 20
252.7281138069
  0
VERTEX
  8
0
 62
7
  6
CONTINUOUS
 10
-23.2080471017
 20
252.7018415069
  0
VERTEX
  8
0
 62
7
  6
CONTINUOUS
 10
-23.5492716197
 20
252.6598562728
  0
VERTEX
  8
0
 62
7
  6
CONTINUOUS
 10
-23.8883249787
 20
252.6022468389
  0
VERTEX
  8
0
 62
7
  6
CONTINUOUS
 10
-24.2244906019
 20
252.5291349603
  0
VERTEX
  8
0
 62
7
  6
CONTINUOUS
 10
-24.5570580154
 20
252.4406751563
  0
VERTEX
  8
0
 62
7
  6
CONTINUOUS
 10
-24.8853243504
 20
252.3370543833
  0
VERTEX
  8
0
 62
7
  6
CONTINUOUS
 10
-25.2085958278
 20
252.2184916398
  0
VERTEX
  8
0
 62
7
  6
CONTINUOUS
 10
-25.5261892252
 20
252.0852375038
  0
VERTEX
  8
0
 62
7
  6
CONTINUOUS
 10
-25.8374333206
 20
251.9375736027
  0
VERTEX
  8
0
 62
7
  6
CONTINUOUS
 10
-26.1416703108
 20
251.7758120187
  0
VERTEX
  8
0
 62
7
  6
CONTINUOUS
 10
-26.4382572021
 20
251.6002946287
  0
VERTEX
  8
0
 62
7
  6
CONTINUOUS
 10
-26.7265671688
 20
251.4113923822
  0
VERTEX
  8
0
 62
7
  6
CONTINUOUS
 10
-27.0059908782
 20
251.209504517
  0
VERTEX
  8
0
 62
7
  6
CONTINUOUS
 10
-27.2759377783
 20
250.9950577155
  0
VERTEX
  8
0
 62
7
  6
CONTINUOUS
 10
-27.5358373461
 20
250.7685052029
  0
VERTEX
  8
0
 62
7
  6
CONTINUOUS
 10
-27.7851402931
 20
250.5303257896
  0
VERTEX
  8
0
 62
7
  6
CONTINUOUS
 10
-28.0233197264
 20
250.2810228589
  0
VERTEX
  8
0
 62
7
  6
CONTINUOUS
 10
-28.2498722623
 20
250.0211233033
  0
VERTEX
  8
0
 62
7
  6
CONTINUOUS
 10
-28.46431909
 20
249.7511764108
  0
VERTEX
  8
0
 62
7
  6
CONTINUOUS
 10
-28.6662069836
 20
249.4717527042
  0
VERTEX
  8
0
 62
7
  6
CONTINUOUS
 10
-28.8551092602
 20
249.1834427351
  0
VERTEX
  8
0
 62
7
  6
CONTINUOUS
 10
-29.0306266814
 20
248.8868558362
  0
VERTEX
  8
0
 62
7
  6
CONTINUOUS
 10
-29.1923882971
 20
248.5826188328
  0
VERTEX
  8
0
 62
7
  6
CONTINUOUS
 10
-29.3400522298
 20
248.2713747188
  0
VERTEX
  8
0
 62
7
  6
CONTINUOUS
 10
-29.4733063967
 20
247.9537812973
  0
VERTEX
  8
0
 62
7
  6
CONTINUOUS
 10
-29.5918691696
 20
247.6305097903
  0
VERTEX
  8
0
 62
7
  6
CONTINUOUS
 10
-29.69548997
 20
247.3022434203
  0
VERTEX
  8
0
 62
7
  6
CONTINUOUS
 10
-29.7839497989
 20
246.9696759666
  0
VERTEX
  8
0
 62
7
  6
CONTINUOUS
 10
-29.857061699
 20
246.6335102984
  0
VERTEX
  8
0
 62
7
  6
CONTINUOUS
 10
-29.9146711508
 20
246.2944568896
  0
VERTEX
  8
0
 62
7
  6
CONTINUOUS
 10
-29.9566563983
 20
245.9532323176
  0
VERTEX
  8
0
 62
7
  6
CONTINUOUS
 10
-29.9829287069
 20
245.6105577481
  0
VERTEX
  8
0
 62
7
  6
CONTINUOUS
 10
-29.9934325506
 20
245.2671574116
  0
SEQEND
  0
LINE
  8
0
 62
7
  6
CONTINUOUS
 10
-24.1070623548
 20
260.2097677445
 11
-24.1976127586
 21
260.2088570059
  0
LINE
  8
0
 62
7
  6
CONTINUOUS
 10
-24.0162643621
 20
260.210077883
 11
-24.1070623548
 21
260.2097677445
  0
LINE
  8
0
 62
7
  6
CONTINUOUS
 10
-14.2577053011
 20
244.4743506335
 11
386.3231140683
 21
244.4743506335
  0
LINE
  8
0
 62
7
  6
CONTINUOUS
 10
199.0327043836
 20
246.7124807131
 11
173.0327043836
 21
246.7124807131
  0
LINE
  8
0
 62
7
  6
CONTINUOUS
 10
201.0327043836
 20
248.7124807131
 11
171.0327043836
 21
248.7124807131
  0
LINE
  8
0
 62
7
  6
CONTINUOUS
 10
394.5873810821
 20
252.7386176473
 11
-22.5219723149
 21
252.7386176473
  0
LINE
  8
0
 62
7
  6
CONTINUOUS
 10
-24.1976127586
 20
260.2088569009
 11
-31.2687111255
 21
260.2088564755
  0
LINE
  8
0
 62
7
  6
CONTINUOUS
 10
396.2630191944
 20
260.2088560054
 11
403.3341198283
 21
260.2088555416
  0
LINE
  8
0
 62
7
  6
CONTINUOUS
 10
396.1271171207
 20
260.2099972721
 11
-24.0162643621
 21
260.210077883
  0
POLYLINE
  8
0
 62
7
  6
CONTINUOUS
 66
1
 70
0
  0
VERTEX
  8
0
 62
7
  6
CONTINUOUS
 10
396.2630191944
 20
260.20885622
  0
VERTEX
  8
0
 62
7
  6
CONTINUOUS
 10
396.2177901533
 20
260.2093864407
  0
VERTEX
  8
0
 62
7
  6
CONTINUOUS
 10
396.1271171207
 20
260.2099972721
  0
SEQEND
  0
POLYLINE
  8
0
 62
7
  6
CONTINUOUS
 66
1
 70
0
  0
VERTEX
  8
0
 62
7
  6
CONTINUOUS
 10
386.3231140683
 20
244.4743506335
  0
VERTEX
  8
0
 62
7
  6
CONTINUOUS
 10
386.6665143476
 20
244.4638467933
  0
VERTEX
  8
0
 62
7
  6
CONTINUOUS
 10
387.0091888642
 20
244.437574493
  0
VERTEX
  8
0
 62
7
  6
CONTINUOUS
 10
387.3504133881
 20
244.3955892581
  0
VERTEX
  8
0
 62
7
  6
CONTINUOUS
 10
387.6894667536
 20
244.3379798226
  0
VERTEX
  8
0
 62
7
  6
CONTINUOUS
 10
388.0256323837
 20
244.2648679418
  0
VERTEX
  8
0
 62
7
  6
CONTINUOUS
 10
388.3581998045
 20
244.1764081348
  0
VERTEX
  8
0
 62
7
  6
CONTINUOUS
 10
388.6864661467
 20
244.0727873579
  0
VERTEX
  8
0
 62
7
  6
CONTINUOUS
 10
389.0097376314
 20
243.9542246098
  0
VERTEX
  8
0
 62
7
  6
CONTINUOUS
 10
389.3273310359
 20
243.8209704684
  0
VERTEX
  8
0
 62
7
  6
CONTINUOUS
 10
389.6385751379
 20
243.6733065612
  0
VERTEX
  8
0
 62
7
  6
CONTINUOUS
 10
389.9428121342
 20
243.5115449705
  0
VERTEX
  8
0
 62
7
  6
CONTINUOUS
 10
390.2393990309
 20
243.3360275733
  0
VERTEX
  8
0
 62
7
  6
CONTINUOUS
 10
390.5277090022
 20
243.1471253192
  0
VERTEX
  8
0
 62
7
  6
CONTINUOUS
 10
390.8071327152
 20
242.945237446
  0
VERTEX
  8
0
 62
7
  6
CONTINUOUS
 10
391.0770796179
 20
242.7307906365
  0
VERTEX
  8
0
 62
7
  6
CONTINUOUS
 10
391.3369791872
 20
242.504238116
  0
VERTEX
  8
0
 62
7
  6
CONTINUOUS
 10
391.5862821346
 20
242.2660586949
  0
VERTEX
  8
0
 62
7
  6
CONTINUOUS
 10
391.8244615672
 20
242.0167557569
  0
VERTEX
  8
0
 62
7
  6
CONTINUOUS
 10
392.0510141012
 20
241.7568561946
  0
VERTEX
  8
0
 62
7
  6
CONTINUOUS
 10
392.2654609258
 20
241.4869092963
  0
VERTEX
  8
0
 62
7
  6
CONTINUOUS
 10
392.4673488154
 20
241.2074855849
  0
VERTEX
  8
0
 62
7
  6
CONTINUOUS
 10
392.6562510869
 20
240.9191756122
  0
VERTEX
  8
0
 62
7
  6
CONTINUOUS
 10
392.8317685021
 20
240.6225887111
  0
VERTEX
  8
0
 62
7
  6
CONTINUOUS
 10
392.9935301111
 20
240.3183517073
  0
VERTEX
  8
0
 62
7
  6
CONTINUOUS
 10
393.1411940365
 20
240.0071075945
  0
VERTEX
  8
0
 62
7
  6
CONTINUOUS
 10
393.2744481958
 20
239.6895141761
  0
VERTEX
  8
0
 62
7
  6
CONTINUOUS
 10
393.3930109609
 20
239.3662426744
  0
VERTEX
  8
0
 62
7
  6
CONTINUOUS
 10
393.4966317536
 20
239.0379763119
  0
VERTEX
  8
0
 62
7
  6
CONTINUOUS
 10
393.5850915749
 20
238.705408868
  0
VERTEX
  8
0
 62
7
  6
CONTINUOUS
 10
393.6582034682
 20
238.3692432119
  0
VERTEX
  8
0
 62
7
  6
CONTINUOUS
 10
393.715812914
 20
238.0301898177
  0
VERTEX
  8
0
 62
7
  6
CONTINUOUS
 10
393.7577981566
 20
237.6889652626
  0
VERTEX
  8
0
 62
7
  6
CONTINUOUS
 10
393.7840704618
 20
237.3462907125
  0
VERTEX
  8
0
 62
7
  6
CONTINUOUS
 10
393.7945743039
 20
237.0028903978
  0
SEQEND
  0
POLYLINE
  8
0
 62
7
  6
CONTINUOUS
 66
1
 70
0
  0
VERTEX
  8
0
 62
7
  6
CONTINUOUS
 10
394.5873810821
 20
252.7386176473
  0
VERTEX
  8
0
 62
7
  6
CONTINUOUS
 10
394.9307813815
 20
252.7281138056
  0
VERTEX
  8
0
 62
7
  6
CONTINUOUS
 10
395.2734559169
 20
252.7018415021
  0
VERTEX
  8
0
 62
7
  6
CONTINUOUS
 10
395.6146804579
 20
252.6598562624
  0
VERTEX
  8
0
 62
7
  6
CONTINUOUS
 10
395.9537338388
 20
252.6022468209
  0
VERTEX
  8
0
 62
7
  6
CONTINUOUS
 10
396.2898994824
 20
252.5291349329
  0
VERTEX
  8
0
 62
7
  6
CONTINUOUS
 10
396.622466915
 20
252.4406751178
  0
VERTEX
  8
0
 62
7
  6
CONTINUOUS
 10
396.9507332672
 20
252.3370543322
  0
VERTEX
  8
0
 62
7
  6
CONTINUOUS
 10
397.2740047599
 20
252.218491575
  0
VERTEX
  8
0
 62
7
  6
CONTINUOUS
 10
397.5915981706
 20
252.0852374241
  0
VERTEX
  8
0
 62
7
  6
CONTINUOUS
 10
397.902842277
 20
251.9375735075
  0
VERTEX
  8
0
 62
7
  6
CONTINUOUS
 10
398.207079276
 20
251.7758119075
  0
VERTEX
  8
0
 62
7
  6
CONTINUOUS
 10
398.5036661736
 20
251.6002945014
  0
VERTEX
  8
0
 62
7
  6
CONTINUOUS
 10
398.7919761442
 20
251.4113922389
  0
VERTEX
  8
0
 62
7
  6
CONTINUOUS
 10
399.071399855
 20
251.2095043581
  0
VERTEX
  8
0
 62
7
  6
CONTINUOUS
 10
399.3413467542
 20
250.9950575417
  0
VERTEX
  8
0
 62
7
  6
CONTINUOUS
 10
399.6012463187
 20
250.7685050154
  0
VERTEX
  8
0
 62
7
  6
CONTINUOUS
 10
399.8505492602
 20
250.5303255897
  0
VERTEX
  8
0
 62
7
  6
CONTINUOUS
 10
400.0887286859
 20
250.2810226482
  0
VERTEX
  8
0
 62
7
  6
CONTINUOUS
 10
400.3152812122
 20
250.0211230837
  0
VERTEX
  8
0
 62
7
  6
CONTINUOUS
 10
400.5297280286
 20
249.7511761845
  0
VERTEX
  8
0
 62
7
  6
CONTINUOUS
 10
400.7316159094
 20
249.4717524737
  0
VERTEX
  8
0
 62
7
  6
CONTINUOUS
 10
400.9205181719
 20
249.1834425031
  0
VERTEX
  8
0
 62
7
  6
CONTINUOUS
 10
401.096035578
 20
248.8868556055
  0
VERTEX
  8
0
 62
7
  6
CONTINUOUS
 10
401.257797178
 20
248.5826186065
  0
VERTEX
  8
0
 62
7
  6
CONTINUOUS
 10
401.4054610946
 20
248.2713745001
  0
VERTEX
  8
0
 62
7
  6
CONTINUOUS
 10
401.5387152455
 20
247.9537810894
  0
VERTEX
  8
0
 62
7
  6
CONTINUOUS
 10
401.6572780027
 20
247.6305095967
  0
VERTEX
  8
0
 62
7
  6
CONTINUOUS
 10
401.7608987883
 20
247.3022432445
  0
VERTEX
  8
0
 62
7
  6
CONTINUOUS
 10
401.8493586034
 20
246.969675812
  0
VERTEX
  8
0
 62
7
  6
CONTINUOUS
 10
401.9224704914
 20
246.6335101683
  0
VERTEX
  8
0
 62
7
  6
CONTINUOUS
 10
401.9800799329
 20
246.2944567874
  0
VERTEX
  8
0
 62
7
  6
CONTINUOUS
 10
402.0220651726
 20
245.9532322464
  0
VERTEX
  8
0
 62
7
  6
CONTINUOUS
 10
402.0483374761
 20
245.6105577111
  0
VERTEX
  8
0
 62
7
  6
CONTINUOUS
 10
402.0588413178
 20
245.2671574116
  0
SEQEND
  0
POLYLINE
  8
0
 62
7
  6
CONTINUOUS
 66
1
 70
0
  0
VERTEX
  8
0
 62
7
  6
CONTINUOUS
 10
-24.0162643628
 20
258.2050295677
  0
VERTEX
  8
0
 62
7
  6
CONTINUOUS
 10
-24.3579891964
 20
258.1755594013
  0
VERTEX
  8
0
 62
7
  6
CONTINUOUS
 10
-24.6989994447
 20
258.1419573931
  0
VERTEX
  8
0
 62
7
  6
CONTINUOUS
 10
-25.0385819001
 20
258.1042938206
  0
VERTEX
  8
0
 62
7
  6
CONTINUOUS
 10
-25.3760263416
 20
258.0626474552
  0
VERTEX
  8
0
 62
7
  6
CONTINUOUS
 10
-25.7106270192
 20
258.0171053976
  0
VERTEX
  8
0
 62
7
  6
CONTINUOUS
 10
-26.0416841307
 20
257.9677628971
  0
VERTEX
  8
0
 62
7
  6
CONTINUOUS
 10
-26.3685052851
 20
257.9147231507
  0
VERTEX
  8
0
 62
7
  6
CONTINUOUS
 10
-26.6904069501
 20
257.8580970886
  0
VERTEX
  8
0
 62
7
  6
CONTINUOUS
 10
-27.0067158827
 20
257.798003141
  0
VERTEX
  8
0
 62
7
  6
CONTINUOUS
 10
-27.3167705365
 20
257.7345669918
  0
VERTEX
  8
0
 62
7
  6
CONTINUOUS
 10
-27.6199224455
 20
257.6679213143
  0
VERTEX
  8
0
 62
7
  6
CONTINUOUS
 10
-27.9155375803
 20
257.5982054948
  0
VERTEX
  8
0
 62
7
  6
CONTINUOUS
 10
-28.2029976743
 20
257.5255653405
  0
VERTEX
  8
0
 62
7
  6
CONTINUOUS
 10
-28.4817015169
 20
257.4501527749
  0
VERTEX
  8
0
 62
7
  6
CONTINUOUS
 10
-28.7510662103
 20
257.3721255198
  0
VERTEX
  8
0
 62
7
  6
CONTINUOUS
 10
-29.0105283892
 20
257.2916467655
  0
VERTEX
  8
0
 62
7
  6
CONTINUOUS
 10
-29.2595453989
 20
257.2088848296
  0
VERTEX
  8
0
 62
7
  6
CONTINUOUS
 10
-29.4975964303
 20
257.1240128049
  0
VERTEX
  8
0
 62
7
  6
CONTINUOUS
 10
-29.7241836088
 20
257.0372081975
  0
VERTEX
  8
0
 62
7
  6
CONTINUOUS
 10
-29.938833036
 20
256.9486525551
  0
VERTEX
  8
0
 62
7
  6
CONTINUOUS
 10
-30.1410957809
 20
256.858531088
  0
VERTEX
  8
0
 62
7
  6
CONTINUOUS
 10
-30.3305488184
 20
256.7670322812
  0
VERTEX
  8
0
 62
7
  6
CONTINUOUS
 10
-30.5067959143
 20
256.6743475005
  0
VERTEX
  8
0
 62
7
  6
CONTINUOUS
 10
-30.6694684542
 20
256.5806705921
  0
VERTEX
  8
0
 62
7
  6
CONTINUOUS
 10
-30.8182262139
 20
256.4861974772
  0
VERTEX
  8
0
 62
7
  6
CONTINUOUS
 10
-30.9527580718
 20
256.3911257422
  0
VERTEX
  8
0
 62
7
  6
CONTINUOUS
 10
-31.0727826589
 20
256.2956542261
  0
VERTEX
  8
0
 62
7
  6
CONTINUOUS
 10
-31.1780489474
 20
256.1999826025
  0
SEQEND
  0
POLYLINE
  8
0
 62
7
  6
CONTINUOUS
 66
1
 70
0
  0
VERTEX
  8
0
 62
7
  6
CONTINUOUS
 10
-23.3968589502
 20
255.2819913022
  0
VERTEX
  8
0
 62
7
  6
CONTINUOUS
 10
-23.7488935843
 20
255.2612862887
  0
VERTEX
  8
0
 62
7
  6
CONTINUOUS
 10
-24.1001496315
 20
255.2297277396
  0
VERTEX
  8
0
 62
7
  6
CONTINUOUS
 10
-24.4498502278
 20
255.1873854529
  0
VERTEX
  8
0
 62
7
  6
CONTINUOUS
 10
-24.7972219488
 20
255.1343530758
  0
VERTEX
  8
0
 62
7
  6
CONTINUOUS
 10
-25.1414965212
 20
255.0707478987
  0
VERTEX
  8
0
 62
7
  6
CONTINUOUS
 10
-25.4819125215
 20
254.9967105958
  0
VERTEX
  8
0
 62
7
  6
CONTINUOUS
 10
-25.8177170602
 20
254.9124049134
  0
VERTEX
  8
0
 62
7
  6
CONTINUOUS
 10
-26.1481674465
 20
254.8180173086
  0
VERTEX
  8
0
 62
7
  6
CONTINUOUS
 10
-26.4725328318
 20
254.713756536
  0
VERTEX
  8
0
 62
7
  6
CONTINUOUS
 10
-26.7900958252
 20
254.5998531868
  0
VERTEX
  8
0
 62
7
  6
CONTINUOUS
 10
-27.1001540805
 20
254.4765591781
  0
VERTEX
  8
0
 62
7
  6
CONTINUOUS
 10
-27.4020218498
 20
254.3441471965
  0
VERTEX
  8
0
 62
7
  6
CONTINUOUS
 10
-27.6950314997
 20
254.2029100942
  0
VERTEX
  8
0
 62
7
  6
CONTINUOUS
 10
-27.9785349881
 20
254.0531602419
  0
VERTEX
  8
0
 62
7
  6
CONTINUOUS
 10
-28.2519052976
 20
253.8952288376
  0
VERTEX
  8
0
 62
7
  6
CONTINUOUS
 10
-28.514537822
 20
253.7294651746
  0
VERTEX
  8
0
 62
7
  6
CONTINUOUS
 10
-28.7658517037
 20
253.5562358681
  0
VERTEX
  8
0
 62
7
  6
CONTINUOUS
 10
-29.0052911181
 20
253.3759240451
  0
VERTEX
  8
0
 62
7
  6
CONTINUOUS
 10
-29.2323265033
 20
253.188928497
  0
VERTEX
  8
0
 62
7
  6
CONTINUOUS
 10
-29.4464557309
 20
252.9956627971
  0
VERTEX
  8
0
 62
7
  6
CONTINUOUS
 10
-29.6472052169
 20
252.7965543864
  0
VERTEX
  8
0
 62
7
  6
CONTINUOUS
 10
-29.834130969
 20
252.5920436281
  0
VERTEX
  8
0
 62
7
  6
CONTINUOUS
 10
-30.0068195682
 20
252.3825828334
  0
VERTEX
  8
0
 62
7
  6
CONTINUOUS
 10
-30.1648890838
 20
252.1686352617
  0
VERTEX
  8
0
 62
7
  6
CONTINUOUS
 10
-30.3079899175
 20
251.9506740955
  0
VERTEX
  8
0
 62
7
  6
CONTINUOUS
 10
-30.4358055773
 20
251.7291813939
  0
VERTEX
  8
0
 62
7
  6
CONTINUOUS
 10
-30.5480533765
 20
251.5046470269
  0
VERTEX
  8
0
 62
7
  6
CONTINUOUS
 10
-30.6444850598
 20
251.2775675914
  0
VERTEX
  8
0
 62
7
  6
CONTINUOUS
 10
-30.7248873519
 20
251.0484453133
  0
VERTEX
  8
0
 62
7
  6
CONTINUOUS
 10
-30.7890824294
 20
250.8177869366
  0
VERTEX
  8
0
 62
7
  6
CONTINUOUS
 10
-30.8369283138
 20
250.5861026026
  0
VERTEX
  8
0
 62
7
  6
CONTINUOUS
 10
-30.8683191859
 20
250.3539047214
  0
SEQEND
  0
POLYLINE
  8
0
 62
7
  6
CONTINUOUS
 66
1
 70
0
  0
VERTEX
  8
0
 62
7
  6
CONTINUOUS
 10
395.4622677173
 20
255.2819913022
  0
VERTEX
  8
0
 62
7
  6
CONTINUOUS
 10
395.814302302
 20
255.2612862539
  0
VERTEX
  8
0
 62
7
  6
CONTINUOUS
 10
396.1655583015
 20
255.2297276752
  0
VERTEX
  8
0
 62
7
  6
CONTINUOUS
 10
396.5152588521
 20
255.1873853634
  0
VERTEX
  8
0
 62
7
  6
CONTINUOUS
 10
396.8626305299
 20
255.1343529657
  0
VERTEX
  8
0
 62
7
  6
CONTINUOUS
 10
397.2069050623
 20
255.0707477726
  0
VERTEX
  8
0
 62
7
  6
CONTINUOUS
 10
397.547321026
 20
254.9967104577
  0
VERTEX
  8
0
 62
7
  6
CONTINUOUS
 10
397.8831255318
 20
254.9124047674
  0
VERTEX
  8
0
 62
7
  6
CONTINUOUS
 10
398.2135758895
 20
254.8180171583
  0
VERTEX
  8
0
 62
7
  6
CONTINUOUS
 10
398.5379412506
 20
254.7137563849
  0
VERTEX
  8
0
 62
7
  6
CONTINUOUS
 10
398.8555042244
 20
254.5998530378
  0
VERTEX
  8
0
 62
7
  6
CONTINUOUS
 10
399.165562465
 20
254.4765590341
  0
VERTEX
  8
0
 62
7
  6
CONTINUOUS
 10
399.4674302244
 20
254.3441470597
  0
VERTEX
  8
0
 62
7
  6
CONTINUOUS
 10
399.7604398694
 20
254.2029099667
  0
VERTEX
  8
0
 62
7
  6
CONTINUOUS
 10
400.0439433578
 20
254.0531601253
  0
VERTEX
  8
0
 62
7
  6
CONTINUOUS
 10
400.317313672
 20
253.8952287332
  0
VERTEX
  8
0
 62
7
  6
CONTINUOUS
 10
400.5799462056
 20
253.729465083
  0
VERTEX
  8
0
 62
7
  6
CONTINUOUS
 10
400.8312601009
 20
253.55623579
  0
VERTEX
  8
0
 62
7
  6
CONTINUOUS
 10
401.0706995328
 20
253.3759239806
  0
VERTEX
  8
0
 62
7
  6
CONTINUOUS
 10
401.2977349392
 20
253.1889284458
  0
VERTEX
  8
0
 62
7
  6
CONTINUOUS
 10
401.5118641911
 20
252.9956627587
  0
VERTEX
  8
0
 62
7
  6
CONTINUOUS
 10
401.7126137041
 20
252.79655436
  0
VERTEX
  8
0
 62
7
  6
CONTINUOUS
 10
401.8995394851
 20
252.5920436125
  0
VERTEX
  8
0
 62
7
  6
CONTINUOUS
 10
402.0722281148
 20
252.3825828273
  0
VERTEX
  8
0
 62
7
  6
CONTINUOUS
 10
402.2302976616
 20
252.1686352636
  0
VERTEX
  8
0
 62
7
  6
CONTINUOUS
 10
402.3733985268
 20
251.9506741035
  0
VERTEX
  8
0
 62
7
  6
CONTINUOUS
 10
402.5012142172
 20
251.7291814064
  0
VERTEX
  8
0
 62
7
  6
CONTINUOUS
 10
402.6134620457
 20
251.5046470419
  0
VERTEX
  8
0
 62
7
  6
CONTINUOUS
 10
402.7098937561
 20
251.277567607
  0
VERTEX
  8
0
 62
7
  6
CONTINUOUS
 10
402.7902960724
 20
251.0484453277
  0
VERTEX
  8
0
 62
7
  6
CONTINUOUS
 10
402.8544911702
 20
250.8177869478
  0
VERTEX
  8
0
 62
7
  6
CONTINUOUS
 10
402.9023370704
 20
250.5861026089
  0
VERTEX
  8
0
 62
7
  6
CONTINUOUS
 10
402.933727953
 20
250.3539047215
  0
SEQEND
  0
POLYLINE
  8
0
 62
7
  6
CONTINUOUS
 66
1
 70
0
  0
VERTEX
  8
0
 62
7
  6
CONTINUOUS
 10
396.0816731292
 20
258.2050578395
  0
VERTEX
  8
0
 62
7
  6
CONTINUOUS
 10
396.4233977467
 20
258.1755880394
  0
VERTEX
  8
0
 62
7
  6
CONTINUOUS
 10
396.7644077923
 20
258.1419864628
  0
VERTEX
  8
0
 62
7
  6
CONTINUOUS
 10
397.1039900595
 20
258.1043233863
  0
VERTEX
  8
0
 62
7
  6
CONTINUOUS
 10
397.4414343275
 20
258.0626775801
  0
VERTEX
  8
0
 62
7
  6
CONTINUOUS
 10
397.776034847
 20
258.0171361437
  0
VERTEX
  8
0
 62
7
  6
CONTINUOUS
 10
398.1070918163
 20
257.9677943251
  0
VERTEX
  8
0
 62
7
  6
CONTINUOUS
 10
398.4339128445
 20
257.9147553198
  0
VERTEX
  8
0
 62
7
  6
CONTINUOUS
 10
398.7558144
 20
257.8581300564
  0
VERTEX
  8
0
 62
7
  6
CONTINUOUS
 10
399.0721232401
 20
257.7980369637
  0
VERTEX
  8
0
 62
7
  6
CONTINUOUS
 10
399.3821778187
 20
257.7346017236
  0
VERTEX
  8
0
 62
7
  6
CONTINUOUS
 10
399.6853296705
 20
257.6679570076
  0
VERTEX
  8
0
 62
7
  6
CONTINUOUS
 10
399.9809447664
 20
257.5982422001
  0
VERTEX
  8
0
 62
7
  6
CONTINUOUS
 10
400.2684048403
 20
257.5256031062
  0
VERTEX
  8
0
 62
7
  6
CONTINUOUS
 10
400.5471086821
 20
257.4501916472
  0
VERTEX
  8
0
 62
7
  6
CONTINUOUS
 10
400.8164733946
 20
257.3721655427
  0
VERTEX
  8
0
 62
7
  6
CONTINUOUS
 10
401.0759356131
 20
257.2916879806
  0
VERTEX
  8
0
 62
7
  6
CONTINUOUS
 10
401.3249526836
 20
257.208927276
  0
VERTEX
  8
0
 62
7
  6
CONTINUOUS
 10
401.5630037974
 20
257.1240565193
  0
VERTEX
  8
0
 62
7
  6
CONTINUOUS
 10
401.7895910809
 20
257.0372532137
  0
VERTEX
  8
0
 62
7
  6
CONTINUOUS
 10
402.0042406365
 20
256.9486989044
  0
VERTEX
  8
0
 62
7
  6
CONTINUOUS
 10
402.2065035337
 20
256.8585787989
  0
VERTEX
  8
0
 62
7
  6
CONTINUOUS
 10
402.3959567484
 20
256.7670813793
  0
VERTEX
  8
0
 62
7
  6
CONTINUOUS
 10
402.5722040474
 20
256.6743980084
  0
VERTEX
  8
0
 62
7
  6
CONTINUOUS
 10
402.7348768169
 20
256.5807225293
  0
VERTEX
  8
0
 62
7
  6
CONTINUOUS
 10
402.883634834
 20
256.4862508602
  0
VERTEX
  8
0
 62
7
  6
CONTINUOUS
 10
403.0181669777
 20
256.3911805843
  0
VERTEX
  8
0
 62
7
  6
CONTINUOUS
 10
403.1381918799
 20
256.2957105375
  0
VERTEX
  8
0
 62
7
  6
CONTINUOUS
 10
403.243458514
 20
256.2000403898
  0
SEQEND
  0
LINE
  8
0
 62
7
  6
CONTINUOUS
 10
386.1496814234
 20
244.1274818558
 11
386.0815334343
 21
243.9912022623
  0
LINE
  8
0
 62
7
  6
CONTINUOUS
 10
386.3231140683
 20
244.4743506335
 11
386.1496814234
 21
244.1274818558
  0
LINE
  8
0
 62
7
  6
CONTINUOUS
 10
386.0815334343
 20
243.9912022623
 11
378.8516538326
 21
229.5314301621
  0
POLYLINE
  8
0
 62
7
  6
CONTINUOUS
 66
1
 70
0
  0
VERTEX
  8
0
 62
7
  6
CONTINUOUS
 10
396.8536203819
 20
369.6414129012
  0
VERTEX
  8
0
 62
7
  6
CONTINUOUS
 10
396.8313089961
 20
369.5247122945
  0
VERTEX
  8
0
 62
7
  6
CONTINUOUS
 10
396.8092657526
 20
369.3945699373
  0
VERTEX
  8
0
 62
7
  6
CONTINUOUS
 10
396.7875047644
 20
369.2512346346
  0
VERTEX
  8
0
 62
7
  6
CONTINUOUS
 10
396.7659836919
 20
369.0949871453
  0
VERTEX
  8
0
 62
7
  6
CONTINUOUS
 10
396.744674194
 20
368.9261343361
  0
VERTEX
  8
0
 62
7
  6
CONTINUOUS
 10
396.7235483886
 20
368.7450030389
  0
VERTEX
  8
0
 62
7
  6
CONTINUOUS
 10
396.702575869
 20
368.5519484962
  0
VERTEX
  8
0
 62
7
  6
CONTINUOUS
 10
396.6817358682
 20
368.3473361685
  0
VERTEX
  8
0
 62
7
  6
CONTINUOUS
 10
396.6610028043
 20
368.1315517008
  0
VERTEX
  8
0
 62
7
  6
CONTINUOUS
 10
396.6403607149
 20
367.9050162689
  0
VERTEX
  8
0
 62
7
  6
CONTINUOUS
 10
396.5992759905
 20
367.4214683871
  0
SEQEND
  0
LINE
  8
0
 62
7
  6
CONTINUOUS
 10
411.5797944477
 20
379.4478811175
 11
411.4472480835
 21
378.7852742455
  0
POLYLINE
  8
0
 62
7
  6
CONTINUOUS
 66
1
 70
0
  0
VERTEX
  8
0
 62
7
  6
CONTINUOUS
 10
412.5327043836
 20
384.2124807131
  0
VERTEX
  8
0
 62
7
  6
CONTINUOUS
 10
412.4939208071
 20
384.0184081191
  0
VERTEX
  8
0
 62
7
  6
CONTINUOUS
 10
412.456793537
 20
383.8328578797
  0
SEQEND
  0
LINE
  8
0
 62
7
  6
CONTINUOUS
 10
411.1722238532
 20
377.4101821424
 11
411.0327043836
 21
376.7124807131
  0
LINE
  8
0
 62
7
  6
CONTINUOUS
 10
411.4472480835
 20
378.7852742455
 11
411.1722238532
 21
377.4101821424
  0
POLYLINE
  8
0
 62
7
  6
CONTINUOUS
 66
1
 70
0
  0
VERTEX
  8
0
 62
7
  6
CONTINUOUS
 10
412.456793537
 20
383.8328578797
  0
VERTEX
  8
0
 62
7
  6
CONTINUOUS
 10
412.4337236988
 20
383.717548759
  0
VERTEX
  8
0
 62
7
  6
CONTINUOUS
 10
412.4076711758
 20
383.5873630087
  0
VERTEX
  8
0
 62
7
  6
CONTINUOUS
 10
411.5797944477
 20
379.4478811175
  0
SEQEND
  0
LINE
  8
0
 62
7
  6
CONTINUOUS
 10
417.2440748462
 20
377.9547617281
 11
417.4308845813
 21
377.9921273691
  0
POLYLINE
  8
0
 62
7
  6
CONTINUOUS
 66
1
 70
0
  0
VERTEX
  8
0
 62
7
  6
CONTINUOUS
 10
417.4308845813
 20
377.9921273691
  0
VERTEX
  8
0
 62
7
  6
CONTINUOUS
 10
417.9075861711
 20
378.08746308
  0
VERTEX
  8
0
 62
7
  6
CONTINUOUS
 10
418.0377723353
 20
378.1135037318
  0
SEQEND
  0
LINE
  8
0
 62
7
  6
CONTINUOUS
 10
418.0377723353
 20
378.1135037318
 11
418.462788425
 21
378.1985027047
  0
LINE
  8
0
 62
7
  6
CONTINUOUS
 10
411.7304058145
 20
376.8520001532
 11
417.2440748462
 21
377.9547617281
  0
POLYLINE
  8
0
 62
7
  6
CONTINUOUS
 66
1
 70
0
  0
VERTEX
  8
0
 62
7
  6
CONTINUOUS
 10
418.462788425
 20
378.1985027047
  0
VERTEX
  8
0
 62
7
  6
CONTINUOUS
 10
418.5016058412
 20
378.2062610116
  0
VERTEX
  8
0
 62
7
  6
CONTINUOUS
 10
418.5327043836
 20
378.2124807131
  0
SEQEND
  0
LINE
  8
0
 62
7
  6
CONTINUOUS
 10
411.0327043836
 20
376.7124807131
 11
411.7304058145
 21
376.8520001532
  0
LINE
  8
0
 62
7
  6
CONTINUOUS
 10
-41.7026960208
 20
377.2595707773
 11
-41.0400891489
 21
377.127024413
  0
POLYLINE
  8
0
 62
7
  6
CONTINUOUS
 66
1
 70
0
  0
VERTEX
  8
0
 62
7
  6
CONTINUOUS
 10
-46.4672956164
 20
378.2124807131
  0
VERTEX
  8
0
 62
7
  6
CONTINUOUS
 10
-46.2732230225
 20
378.1736971366
  0
VERTEX
  8
0
 62
7
  6
CONTINUOUS
 10
-46.087672783
 20
378.1365698666
  0
SEQEND
  0
LINE
  8
0
 62
7
  6
CONTINUOUS
 10
-39.6649970458
 20
376.8520001828
 11
-38.9672956164
 21
376.7124807131
  0
LINE
  8
0
 62
7
  6
CONTINUOUS
 10
-41.0400891489
 20
377.127024413
 11
-39.6649970458
 21
376.8520001828
  0
POLYLINE
  8
0
 62
7
  6
CONTINUOUS
 66
1
 70
0
  0
VERTEX
  8
0
 62
7
  6
CONTINUOUS
 10
-46.087672783
 20
378.1365698666
  0
VERTEX
  8
0
 62
7
  6
CONTINUOUS
 10
-45.9723636623
 20
378.1135000284
  0
VERTEX
  8
0
 62
7
  6
CONTINUOUS
 10
-45.8421779121
 20
378.0874475053
  0
VERTEX
  8
0
 62
7
  6
CONTINUOUS
 10
-41.7026960208
 20
377.2595707773
  0
SEQEND
  0
POLYLINE
  8
0
 62
7
  6
CONTINUOUS
 66
1
 70
0
  0
VERTEX
  8
0
 62
7
  6
CONTINUOUS
 10
-31.2687116097
 20
363.2124807131
  0
VERTEX
  8
0
 62
7
  6
CONTINUOUS
 10
-31.1520115116
 20
363.1882211662
  0
VERTEX
  8
0
 62
7
  6
CONTINUOUS
 10
-31.0218695521
 20
363.1642531483
  0
VERTEX
  8
0
 62
7
  6
CONTINUOUS
 10
-30.8785344315
 20
363.1405920014
  0
VERTEX
  8
0
 62
7
  6
CONTINUOUS
 10
-30.7222869588
 20
363.1171916996
  0
VERTEX
  8
0
 62
7
  6
CONTINUOUS
 10
-30.5534340654
 20
363.0940214322
  0
VERTEX
  8
0
 62
7
  6
CONTINUOUS
 10
-30.3723026032
 20
363.0710508949
  0
VERTEX
  8
0
 62
7
  6
CONTINUOUS
 10
-30.1792478874
 20
363.0482470394
  0
VERTEX
  8
0
 62
7
  6
CONTINUOUS
 10
-29.9746353779
 20
363.0255872868
  0
VERTEX
  8
0
 62
7
  6
CONTINUOUS
 10
-29.7588507497
 20
363.0030438298
  0
VERTEX
  8
0
 62
7
  6
CONTINUOUS
 10
-29.5323151825
 20
362.9805993048
  0
VERTEX
  8
0
 62
7
  6
CONTINUOUS
 10
-29.0487671499
 20
362.9359271527
  0
SEQEND
  0
LINE
  8
0
 62
7
  6
CONTINUOUS
 10
412.2749853986
 20
-79.4988897496
 11
412.3123510396
 21
-79.6856994847
  0
POLYLINE
  8
0
 62
7
  6
CONTINUOUS
 66
1
 70
0
  0
VERTEX
  8
0
 62
7
  6
CONTINUOUS
 10
412.3123510396
 20
-79.6856994847
  0
VERTEX
  8
0
 62
7
  6
CONTINUOUS
 10
412.4076867505
 20
-80.1624010744
  0
VERTEX
  8
0
 62
7
  6
CONTINUOUS
 10
412.4337274023
 20
-80.2925872387
  0
SEQEND
  0
LINE
  8
0
 62
7
  6
CONTINUOUS
 10
412.4337274023
 20
-80.2925872387
 11
412.5187263752
 21
-80.7176033283
  0
LINE
  8
0
 62
7
  6
CONTINUOUS
 10
411.1722238237
 20
-73.9852207179
 11
412.2749853986
 21
-79.4988897496
  0
POLYLINE
  8
0
 62
7
  6
CONTINUOUS
 66
1
 70
0
  0
VERTEX
  8
0
 62
7
  6
CONTINUOUS
 10
412.5187263752
 20
-80.7176033283
  0
VERTEX
  8
0
 62
7
  6
CONTINUOUS
 10
412.5264846821
 20
-80.7564207445
  0
VERTEX
  8
0
 62
7
  6
CONTINUOUS
 10
412.5327043836
 20
-80.7875192869
  0
SEQEND
  0
LINE
  8
0
 62
7
  6
CONTINUOUS
 10
411.0327043836
 20
-73.2875192869
 11
411.1722238237
 21
-73.9852207179
  0
LINE
  8
0
 62
7
  6
CONTINUOUS
 10
378.8516538326
 20
229.5314301621
 11
378.8516538326
 21
-41.1064687359
  0
LINE
  8
0
 62
7
  6
CONTINUOUS
 10
396.4349370793
 20
365.1540667399
 11
396.263052565
 21
362.5703450894
  0
LINE
  8
0
 62
7
  6
CONTINUOUS
 10
396.5173969529
 20
366.3460237434
 11
396.4349370793
 21
365.1540667399
  0
LINE
  8
0
 62
7
  6
CONTINUOUS
 10
396.5583364705
 20
366.9004721722
 11
396.5173969529
 21
366.3460237434
  0
LINE
  8
0
 62
7
  6
CONTINUOUS
 10
396.5992759905
 20
367.4214683871
 11
396.5583364705
 21
366.9004721722
  0
POLYLINE
  8
0
 62
7
  6
CONTINUOUS
 66
1
 70
0
  0
VERTEX
  8
0
 62
7
  6
CONTINUOUS
 10
395.4622677173
 20
255.2819913022
  0
VERTEX
  8
0
 62
7
  6
CONTINUOUS
 10
395.4285237211
 20
255.0692886623
  0
VERTEX
  8
0
 62
7
  6
CONTINUOUS
 10
395.3934348328
 20
254.8641201573
  0
VERTEX
  8
0
 62
7
  6
CONTINUOUS
 10
395.3569730684
 20
254.6667789746
  0
VERTEX
  8
0
 62
7
  6
CONTINUOUS
 10
395.3192223795
 20
254.4775729855
  0
VERTEX
  8
0
 62
7
  6
CONTINUOUS
 10
395.2802384139
 20
254.2968002631
  0
VERTEX
  8
0
 62
7
  6
CONTINUOUS
 10
395.2400780988
 20
254.124697941
  0
VERTEX
  8
0
 62
7
  6
CONTINUOUS
 10
395.1988045893
 20
253.9615310252
  0
VERTEX
  8
0
 62
7
  6
CONTINUOUS
 10
395.15645485
 20
253.8074501061
  0
VERTEX
  8
0
 62
7
  6
CONTINUOUS
 10
395.1130642933
 20
253.6626126854
  0
VERTEX
  8
0
 62
7
  6
CONTINUOUS
 10
395.0687007317
 20
253.5272709995
  0
VERTEX
  8
0
 62
7
  6
CONTINUOUS
 10
395.0234097643
 20
253.4016080591
  0
VERTEX
  8
0
 62
7
  6
CONTINUOUS
 10
394.9772934427
 20
253.2859236323
  0
VERTEX
  8
0
 62
7
  6
CONTINUOUS
 10
394.9304585096
 20
253.180490047
  0
VERTEX
  8
0
 62
7
  6
CONTINUOUS
 10
394.8829364904
 20
253.0853730468
  0
VERTEX
  8
0
 62
7
  6
CONTINUOUS
 10
394.8347610298
 20
253.00066608
  0
VERTEX
  8
0
 62
7
  6
CONTINUOUS
 10
394.7860325128
 20
252.926564122
  0
VERTEX
  8
0
 62
7
  6
CONTINUOUS
 10
394.7368271891
 20
252.8631958644
  0
VERTEX
  8
0
 62
7
  6
CONTINUOUS
 10
394.6872511092
 20
252.8106985292
  0
VERTEX
  8
0
 62
7
  6
CONTINUOUS
 10
394.6374521736
 20
252.7691673316
  0
VERTEX
  8
0
 62
7
  6
CONTINUOUS
 10
394.5873810821
 20
252.7386176473
  0
SEQEND
  0
POLYLINE
  8
0
 62
7
  6
CONTINUOUS
 66
1
 70
0
  0
VERTEX
  8
0
 62
7
  6
CONTINUOUS
 10
396.0324960337
 20
257.9363664401
  0
VERTEX
  8
0
 62
7
  6
CONTINUOUS
 10
395.9806117869
 20
257.6717656567
  0
VERTEX
  8
0
 62
7
  6
CONTINUOUS
 10
395.9256218192
 20
257.4119144323
  0
VERTEX
  8
0
 62
7
  6
CONTINUOUS
 10
395.8687218398
 20
257.1561530111
  0
SEQEND
  0
POLYLINE
  8
0
 62
7
  6
CONTINUOUS
 66
1
 70
0
  0
VERTEX
  8
0
 62
7
  6
CONTINUOUS
 10
395.6378619891
 20
256.1653610611
  0
VERTEX
  8
0
 62
7
  6
CONTINUOUS
 10
395.585162295
 20
255.9288834236
  0
VERTEX
  8
0
 62
7
  6
CONTINUOUS
 10
395.5373874377
 20
255.7014633464
  0
VERTEX
  8
0
 62
7
  6
CONTINUOUS
 10
395.4966582236
 20
255.4862367542
  0
VERTEX
  8
0
 62
7
  6
CONTINUOUS
 10
395.4622677173
 20
255.2819913022
  0
SEQEND
  0
LINE
  8
0
 62
7
  6
CONTINUOUS
 10
395.8687218398
 20
257.1561530111
 11
395.6378619891
 21
256.1653610611
  0
POLYLINE
  8
0
 62
7
  6
CONTINUOUS
 66
1
 70
0
  0
VERTEX
  8
0
 62
7
  6
CONTINUOUS
 10
401.5977247755
 20
362.9805993134
  0
VERTEX
  8
0
 62
7
  6
CONTINUOUS
 10
401.824260252
 20
363.0030438197
  0
VERTEX
  8
0
 62
7
  6
CONTINUOUS
 10
402.0400447982
 20
363.0255872615
  0
VERTEX
  8
0
 62
7
  6
CONTINUOUS
 10
402.2446572447
 20
363.0482470041
  0
VERTEX
  8
0
 62
7
  6
CONTINUOUS
 10
402.4377119055
 20
363.0710508543
  0
VERTEX
  8
0
 62
7
  6
CONTINUOUS
 10
402.6188433208
 20
363.0940213918
  0
VERTEX
  8
0
 62
7
  6
CONTINUOUS
 10
402.7876961577
 20
363.1171916633
  0
VERTEX
  8
0
 62
7
  6
CONTINUOUS
 10
402.9439435561
 20
363.1405919724
  0
VERTEX
  8
0
 62
7
  6
CONTINUOUS
 10
403.0872785797
 20
363.1642531284
  0
VERTEX
  8
0
 62
7
  6
CONTINUOUS
 10
403.2174204141
 20
363.1882211558
  0
VERTEX
  8
0
 62
7
  6
CONTINUOUS
 10
403.3341203768
 20
363.2124807131
  0
SEQEND
  0
LINE
  8
0
 62
7
  6
CONTINUOUS
 10
401.1141769231
 20
362.9359272044
 11
401.5977247755
 21
362.9805993134
  0
LINE
  8
0
 62
7
  6
CONTINUOUS
 10
400.593180841
 20
362.8914129963
 11
401.1141769231
 21
362.9359272044
  0
LINE
  8
0
 62
7
  6
CONTINUOUS
 10
399.7502761187
 20
362.8245923288
 11
400.593180841
 21
362.8914129963
  0
POLYLINE
  8
0
 62
7
  6
CONTINUOUS
 66
1
 70
0
  0
VERTEX
  8
0
 62
7
  6
CONTINUOUS
 10
396.263052565
 20
362.5703450894
  0
VERTEX
  8
0
 62
7
  6
CONTINUOUS
 10
397.8984388721
 20
362.6888045322
  0
VERTEX
  8
0
 62
7
  6
CONTINUOUS
 10
399.7502761187
 20
362.8245923288
  0
SEQEND
  0
LINE
  8
0
 62
7
  6
CONTINUOUS
 10
-27.6848662418
 20
362.8245921889
 11
-24.1976437978
 21
362.5703450894
  0
LINE
  8
0
 62
7
  6
CONTINUOUS
 10
-28.5277709451
 20
362.8914129025
 11
-27.6848662418
 21
362.8245921889
  0
LINE
  8
0
 62
7
  6
CONTINUOUS
 10
-29.0487671499
 20
362.9359271527
 11
-28.5277709451
 21
362.8914129025
  0
LINE
  8
0
 62
7
  6
CONTINUOUS
 10
393.7945743039
 20
237.0028903978
 11
393.7945743039
 21
-50.0722210187
  0
LINE
  8
0
 62
7
  6
CONTINUOUS
 10
396.0816731292
 20
258.2050578395
 11
396.0816731292
 21
260.210077883
  0
LINE
  8
0
 62
7
  6
CONTINUOUS
 10
396.263052565
 20
362.5703450894
 11
396.2638439863
 21
259.9739220361
  0
LINE
  8
0
 62
7
  6
CONTINUOUS
 10
396.8536203819
 20
369.6414129012
 11
396.8536203819
 21
376.7124807131
  0
LINE
  8
0
 62
7
  6
CONTINUOUS
 10
396.9565597645
 20
-65.1885428564
 11
396.9565597645
 21
-72.660003092
  0
LINE
  8
0
 62
7
  6
CONTINUOUS
 10
402.933727953
 20
-59.2113746678
 11
402.933727953
 21
250.3539047215
  0
POLYLINE
  8
0
 62
7
  6
CONTINUOUS
 66
1
 70
0
  0
VERTEX
  8
0
 62
7
  6
CONTINUOUS
 10
403.3341203768
 20
363.2124807131
  0
VERTEX
  8
0
 62
7
  6
CONTINUOUS
 10
403.3328174401
 20
259.7388159886
  0
VERTEX
  8
0
 62
7
  6
CONTINUOUS
 10
403.3289309144
 20
259.269465868
  0
VERTEX
  8
0
 62
7
  6
CONTINUOUS
 10
403.322690087
 20
258.8065539075
  0
VERTEX
  8
0
 62
7
  6
CONTINUOUS
 10
403.3135661341
 20
258.3328339243
  0
VERTEX
  8
0
 62
7
  6
CONTINUOUS
 10
403.3012759643
 20
257.8305512307
  0
VERTEX
  8
0
 62
7
  6
CONTINUOUS
 10
403.285583142
 20
257.30698007
  0
VERTEX
  8
0
 62
7
  6
CONTINUOUS
 10
403.2661460505
 20
256.7636459581
  0
VERTEX
  8
0
 62
7
  6
CONTINUOUS
 10
403.2434594217
 20
256.2000403898
  0
SEQEND
  0
POLYLINE
  8
0
 62
7
  6
CONTINUOUS
 66
1
 70
0
  0
VERTEX
  8
0
 62
7
  6
CONTINUOUS
 10
396.2638439863
 20
259.9739220361
  0
VERTEX
  8
0
 62
7
  6
CONTINUOUS
 10
396.2589474848
 20
259.7391462361
  0
VERTEX
  8
0
 62
7
  6
CONTINUOUS
 10
396.2493151541
 20
259.5077750947
  0
VERTEX
  8
0
 62
7
  6
CONTINUOUS
 10
396.2331140885
 20
259.2709642382
  0
VERTEX
  8
0
 62
7
  6
CONTINUOUS
 10
396.2096768668
 20
259.0199774935
  0
VERTEX
  8
0
 62
7
  6
CONTINUOUS
 10
396.1773527266
 20
258.758313929
  0
VERTEX
  8
0
 62
7
  6
CONTINUOUS
 10
396.1340671519
 20
258.4864989413
  0
VERTEX
  8
0
 62
7
  6
CONTINUOUS
 10
396.0324960337
 20
257.9363664401
  0
SEQEND
  0
LINE
  8
0
 62
7
  6
CONTINUOUS
 10
403.2434594217
 20
256.2000403898
 11
403.2190282339
 21
255.6623267657
  0
POLYLINE
  8
0
 62
7
  6
CONTINUOUS
 66
1
 70
0
  0
VERTEX
  8
0
 62
7
  6
CONTINUOUS
 10
402.9712869014
 20
251.1928476399
  0
VERTEX
  8
0
 62
7
  6
CONTINUOUS
 10
402.9507862683
 20
250.7622694276
  0
VERTEX
  8
0
 62
7
  6
CONTINUOUS
 10
402.933727953
 20
250.3539047215
  0
SEQEND
  0
LINE
  8
0
 62
7
  6
CONTINUOUS
 10
403.2190282339
 20
255.6623267657
 11
403.1654169344
 21
254.613727399
  0
LINE
  8
0
 62
7
  6
CONTINUOUS
 10
403.0215251369
 20
252.1206445831
 11
402.9712869014
 21
251.1928476399
  0
LINE
  8
0
 62
7
  6
CONTINUOUS
 10
403.1654169344
 20
254.613727399
 11
403.1079781648
 21
253.5986939534
  0
LINE
  8
0
 62
7
  6
CONTINUOUS
 10
403.1079781648
 20
253.5986939534
 11
403.0215251369
 21
252.1206445831
  0
POLYLINE
  8
0
 62
7
  6
CONTINUOUS
 66
1
 70
0
  0
VERTEX
  8
0
 62
7
  6
CONTINUOUS
 10
402.933727953
 20
250.3539047215
  0
VERTEX
  8
0
 62
7
  6
CONTINUOUS
 10
402.8999856049
 20
249.9282022952
  0
VERTEX
  8
0
 62
7
  6
CONTINUOUS
 10
402.8648970938
 20
249.5181620773
  0
VERTEX
  8
0
 62
7
  6
CONTINUOUS
 10
402.8284338349
 20
249.1234906527
  0
VERTEX
  8
0
 62
7
  6
CONTINUOUS
 10
402.7906815824
 20
248.7450682662
  0
VERTEX
  8
0
 62
7
  6
CONTINUOUS
 10
402.751698198
 20
248.3835307064
  0
VERTEX
  8
0
 62
7
  6
CONTINUOUS
 10
402.7115387747
 20
248.039317926
  0
VERTEX
  8
0
 62
7
  6
CONTINUOUS
 10
402.6702650619
 20
247.7129831314
  0
VERTEX
  8
0
 62
7
  6
CONTINUOUS
 10
402.6279149518
 20
247.4048223501
  0
VERTEX
  8
0
 62
7
  6
CONTINUOUS
 10
402.5845244139
 20
247.115155682
  0
VERTEX
  8
0
 62
7
  6
CONTINUOUS
 10
402.540160965
 20
246.8444641163
  0
VERTEX
  8
0
 62
7
  6
CONTINUOUS
 10
402.4948701364
 20
246.5931631671
  0
VERTEX
  8
0
 62
7
  6
CONTINUOUS
 10
402.4487538539
 20
246.3617693599
  0
VERTEX
  8
0
 62
7
  6
CONTINUOUS
 10
402.401918487
 20
246.150901514
  0
VERTEX
  8
0
 62
7
  6
CONTINUOUS
 10
402.3543962352
 20
245.9606682618
  0
VERTEX
  8
0
 62
7
  6
CONTINUOUS
 10
402.306221874
 20
245.7912736233
  0
VERTEX
  8
0
 62
7
  6
CONTINUOUS
 10
402.2574940441
 20
245.6430502558
  0
VERTEX
  8
0
 62
7
  6
CONTINUOUS
 10
402.2082866827
 20
245.5163437849
  0
VERTEX
  8
0
 62
7
  6
CONTINUOUS
 10
402.1587086755
 20
245.4113193256
  0
VERTEX
  8
0
 62
7
  6
CONTINUOUS
 10
402.1089102452
 20
245.3282922415
  0
VERTEX
  8
0
 62
7
  6
CONTINUOUS
 10
402.0588413178
 20
245.2671574116
  0
SEQEND
  0
LINE
  8
0
 62
7
  6
CONTINUOUS
 10
-24.1976437978
 20
362.5703450894
 11
396.263052565
 21
362.5703450894
  0
LINE
  8
0
 62
7
  6
CONTINUOUS
 10
-31.2687116097
 20
363.2124807131
 11
-38.3397794216
 21
363.2124807131
  0
LINE
  8
0
 62
7
  6
CONTINUOUS
 10
403.3341203768
 20
363.2124807131
 11
410.4051881887
 21
363.2124807131
  0
LINE
  8
0
 62
7
  6
CONTINUOUS
 10
-24.7882116147
 20
369.6414129012
 11
396.8536203819
 21
369.6414129012
  0
POLYLINE
  8
0
 62
7
  6
CONTINUOUS
 66
1
 70
0
  0
VERTEX
  8
0
 62
7
  6
CONTINUOUS
 10
396.8536203819
 20
369.6414129012
  0
VERTEX
  8
0
 62
7
  6
CONTINUOUS
 10
397.1564518228
 20
369.638027684
  0
VERTEX
  8
0
 62
7
  6
CONTINUOUS
 10
397.4587863192
 20
369.6204910652
  0
VERTEX
  8
0
 62
7
  6
CONTINUOUS
 10
397.7598936463
 20
369.5888169728
  0
VERTEX
  8
0
 62
7
  6
CONTINUOUS
 10
398.0590958377
 20
369.543100959
  0
VERTEX
  8
0
 62
7
  6
CONTINUOUS
 10
398.3557166142
 20
369.4834662335
  0
VERTEX
  8
0
 62
7
  6
CONTINUOUS
 10
398.6490763477
 20
369.41005276
  0
VERTEX
  8
0
 62
7
  6
CONTINUOUS
 10
398.9385033294
 20
369.3230463828
  0
VERTEX
  8
0
 62
7
  6
CONTINUOUS
 10
399.2233607291
 20
369.2226426825
  0
VERTEX
  8
0
 62
7
  6
CONTINUOUS
 10
399.5030248775
 20
369.1090660893
  0
VERTEX
  8
0
 62
7
  6
CONTINUOUS
 10
399.7768396377
 20
368.9826070889
  0
VERTEX
  8
0
 62
7
  6
CONTINUOUS
 10
400.0441908543
 20
368.8435739899
  0
VERTEX
  8
0
 62
7
  6
CONTINUOUS
 10
400.304432028
 20
368.6923371411
  0
VERTEX
  8
0
 62
7
  6
CONTINUOUS
 10
400.5569329157
 20
368.5293120586
  0
VERTEX
  8
0
 62
7
  6
CONTINUOUS
 10
400.8011686772
 20
368.3548788592
  0
VERTEX
  8
0
 62
7
  6
CONTINUOUS
 10
401.0365953147
 20
368.1694767099
  0
VERTEX
  8
0
 62
7
  6
CONTINUOUS
 10
401.2627630301
 20
367.9734920087
  0
VERTEX
  8
0
 62
7
  6
CONTINUOUS
 10
401.4792195003
 20
367.7673385312
  0
VERTEX
  8
0
 62
7
  6
CONTINUOUS
 10
401.6855255331
 20
367.5514786499
  0
VERTEX
  8
0
 62
7
  6
CONTINUOUS
 10
401.881277142
 20
367.3263659956
  0
VERTEX
  8
0
 62
7
  6
CONTINUOUS
 10
402.0660432813
 20
367.0925459291
  0
VERTEX
  8
0
 62
7
  6
CONTINUOUS
 10
402.23943599
 20
366.8505738249
  0
VERTEX
  8
0
 62
7
  6
CONTINUOUS
 10
402.4010978026
 20
366.6009877297
  0
VERTEX
  8
0
 62
7
  6
CONTINUOUS
 10
402.5506887552
 20
366.3443696591
  0
VERTEX
  8
0
 62
7
  6
CONTINUOUS
 10
402.687926669
 20
366.0812311431
  0
VERTEX
  8
0
 62
7
  6
CONTINUOUS
 10
402.8125272041
 20
365.8121231706
  0
VERTEX
  8
0
 62
7
  6
CONTINUOUS
 10
402.9242685379
 20
365.5375666282
  0
VERTEX
  8
0
 62
7
  6
CONTINUOUS
 10
403.0229240891
 20
365.2580874604
  0
VERTEX
  8
0
 62
7
  6
CONTINUOUS
 10
403.1083181364
 20
364.9742579499
  0
VERTEX
  8
0
 62
7
  6
CONTINUOUS
 10
403.1802948614
 20
364.6866310588
  0
VERTEX
  8
0
 62
7
  6
CONTINUOUS
 10
403.2386908864
 20
364.3958050922
  0
VERTEX
  8
0
 62
7
  6
CONTINUOUS
 10
403.283381709
 20
364.102376446
  0
VERTEX
  8
0
 62
7
  6
CONTINUOUS
 10
403.3142425603
 20
363.8069421464
  0
VERTEX
  8
0
 62
7
  6
CONTINUOUS
 10
403.3311876984
 20
363.5100712355
  0
VERTEX
  8
0
 62
7
  6
CONTINUOUS
 10
403.3341203768
 20
363.2124807131
  0
SEQEND
  0
POLYLINE
  8
0
 62
7
  6
CONTINUOUS
 66
1
 70
0
  0
VERTEX
  8
0
 62
7
  6
CONTINUOUS
 10
410.4051881887
 20
363.2124807131
  0
VERTEX
  8
0
 62
7
  6
CONTINUOUS
 10
410.3945808193
 20
363.7435104204
  0
VERTEX
  8
0
 62
7
  6
CONTINUOUS
 10
410.3634580565
 20
364.2711108559
  0
VERTEX
  8
0
 62
7
  6
CONTINUOUS
 10
410.3118374811
 20
364.7949546236
  0
VERTEX
  8
0
 62
7
  6
CONTINUOUS
 10
410.2396663505
 20
365.3160239115
  0
VERTEX
  8
0
 62
7
  6
CONTINUOUS
 10
410.1468067923
 20
365.8359254371
  0
VERTEX
  8
0
 62
7
  6
CONTINUOUS
 10
410.0335317771
 20
366.3524582159
  0
VERTEX
  8
0
 62
7
  6
CONTINUOUS
 10
409.8999576658
 20
366.864239407
  0
VERTEX
  8
0
 62
7
  6
CONTINUOUS
 10
409.7464164159
 20
367.3704212968
  0
VERTEX
  8
0
 62
7
  6
CONTINUOUS
 10
409.5731634517
 20
367.869925313
  0
VERTEX
  8
0
 62
7
  6
CONTINUOUS
 10
409.3805447335
 20
368.362061192
  0
VERTEX
  8
0
 62
7
  6
CONTINUOUS
 10
409.1688994689
 20
368.845942667
  0
VERTEX
  8
0
 62
7
  6
CONTINUOUS
 10
408.9385033391
 20
369.3210791758
  0
VERTEX
  8
0
 62
7
  6
CONTINUOUS
 10
408.6896313726
 20
369.7868903288
  0
VERTEX
  8
0
 62
7
  6
CONTINUOUS
 10
408.422624735
 20
370.2427593412
  0
VERTEX
  8
0
 62
7
  6
CONTINUOUS
 10
408.1377596279
 20
370.6881158849
  0
VERTEX
  8
0
 62
7
  6
CONTINUOUS
 10
407.8355059715
 20
371.1222402004
  0
VERTEX
  8
0
 62
7
  6
CONTINUOUS
 10
407.5162385299
 20
371.5444544758
  0
VERTEX
  8
0
 62
7
  6
CONTINUOUS
 10
407.1805189729
 20
371.9540625392
  0
VERTEX
  8
0
 62
7
  6
CONTINUOUS
 10
406.8288320543
 20
372.3503472653
  0
VERTEX
  8
0
 62
7
  6
CONTINUOUS
 10
406.461783287
 20
372.7326937023
  0
VERTEX
  8
0
 62
7
  6
CONTINUOUS
 10
406.0799206096
 20
373.100433304
  0
VERTEX
  8
0
 62
7
  6
CONTINUOUS
 10
405.6839014988
 20
373.4530097277
  0
VERTEX
  8
0
 62
7
  6
CONTINUOUS
 10
405.2743503405
 20
373.7897968121
  0
VERTEX
  8
0
 62
7
  6
CONTINUOUS
 10
404.8519143454
 20
374.1103354676
  0
VERTEX
  8
0
 62
7
  6
CONTINUOUS
 10
404.4172608938
 20
374.4140762111
  0
VERTEX
  8
0
 62
7
  6
CONTINUOUS
 10
403.9709538626
 20
374.7006640624
  0
VERTEX
  8
0
 62
7
  6
CONTINUOUS
 10
403.5135828993
 20
374.9696782681
  0
VERTEX
  8
0
 62
7
  6
CONTINUOUS
 10
403.045738072
 20
375.2207666658
  0
VERTEX
  8
0
 62
7
  6
CONTINUOUS
 10
402.56794548
 20
375.4535678372
  0
VERTEX
  8
0
 62
7
  6
CONTINUOUS
 10
402.0809866777
 20
375.6676887966
  0
VERTEX
  8
0
 62
7
  6
CONTINUOUS
 10
401.5853705132
 20
375.8627640007
  0
VERTEX
  8
0
 62
7
  6
CONTINUOUS
 10
401.0824412053
 20
376.0383497033
  0
VERTEX
  8
0
 62
7
  6
CONTINUOUS
 10
400.5740907518
 20
376.1938062009
  0
VERTEX
  8
0
 62
7
  6
CONTINUOUS
 10
400.0591846633
 20
376.329355823
  0
VERTEX
  8
0
 62
7
  6
CONTINUOUS
 10
399.5367899111
 20
376.4452064922
  0
VERTEX
  8
0
 62
7
  6
CONTINUOUS
 10
399.0081941108
 20
376.5407617263
  0
VERTEX
  8
0
 62
7
  6
CONTINUOUS
 10
398.473681538
 20
376.615603643
  0
VERTEX
  8
0
 62
7
  6
CONTINUOUS
 10
397.9353291839
 20
376.6694043653
  0
VERTEX
  8
0
 62
7
  6
CONTINUOUS
 10
397.3955802673
 20
376.7016383256
  0
VERTEX
  8
0
 62
7
  6
CONTINUOUS
 10
396.8536203819
 20
376.7124807131
  0
SEQEND
  0
LINE
  8
0
 62
7
  6
CONTINUOUS
 10
410.4051881887
 20
-59.2113746678
 11
410.4051881887
 21
363.2124807131
  0
LINE
  8
0
 62
7
  6
CONTINUOUS
 10
411.0327043836
 20
-73.2875192869
 11
411.0327043836
 21
376.7124807131
  0
LINE
  8
0
 62
7
  6
CONTINUOUS
 10
418.5327043836
 20
-74.7875192869
 11
418.5327043836
 21
378.2124807131
  0
POLYLINE
  8
0
 62
7
  6
CONTINUOUS
 66
1
 70
0
  0
VERTEX
  8
0
 62
7
  6
CONTINUOUS
 10
-24.7882116147
 20
376.7124807131
  0
VERTEX
  8
0
 62
7
  6
CONTINUOUS
 10
-25.32430629
 20
376.7017866082
  0
VERTEX
  8
0
 62
7
  6
CONTINUOUS
 10
-25.8568164049
 20
376.670443329
  0
VERTEX
  8
0
 62
7
  6
CONTINUOUS
 10
-26.3854319815
 20
376.6184578189
  0
VERTEX
  8
0
 62
7
  6
CONTINUOUS
 10
-26.9110829541
 20
376.5458092477
  0
VERTEX
  8
0
 62
7
  6
CONTINUOUS
 10
-27.4353230024
 20
376.4523827707
  0
VERTEX
  8
0
 62
7
  6
CONTINUOUS
 10
-27.9559709129
 20
376.3384673746
  0
VERTEX
  8
0
 62
7
  6
CONTINUOUS
 10
-28.4716461754
 20
376.2041982544
  0
VERTEX
  8
0
 62
7
  6
CONTINUOUS
 10
-28.9815003588
 20
376.0499219396
  0
VERTEX
  8
0
 62
7
  6
CONTINUOUS
 10
-29.4844593956
 20
375.8759079886
  0
VERTEX
  8
0
 62
7
  6
CONTINUOUS
 10
-29.9798196845
 20
375.6825225095
  0
VERTEX
  8
0
 62
7
  6
CONTINUOUS
 10
-30.4666909992
 20
375.4701188912
  0
VERTEX
  8
0
 62
7
  6
CONTINUOUS
 10
-30.9445591476
 20
375.2390048496
  0
VERTEX
  8
0
 62
7
  6
CONTINUOUS
 10
-31.4128210645
 20
374.9894814879
  0
VERTEX
  8
0
 62
7
  6
CONTINUOUS
 10
-31.8708531428
 20
374.7219220326
  0
VERTEX
  8
0
 62
7
  6
CONTINUOUS
 10
-32.3180656062
 20
374.436636557
  0
VERTEX
  8
0
 62
7
  6
CONTINUOUS
 10
-32.7537538972
 20
374.1341156249
  0
VERTEX
  8
0
 62
7
  6
CONTINUOUS
 10
-33.177241224
 20
373.8147622692
  0
VERTEX
  8
0
 62
7
  6
CONTINUOUS
 10
-33.5878545136
 20
373.479149156
  0
VERTEX
  8
0
 62
7
  6
CONTINUOUS
 10
-33.9848950427
 20
373.1277765385
  0
VERTEX
  8
0
 62
7
  6
CONTINUOUS
 10
-34.3677629707
 20
372.7612646876
  0
VERTEX
  8
0
 62
7
  6
CONTINUOUS
 10
-34.7358061458
 20
372.3801759094
  0
VERTEX
  8
0
 62
7
  6
CONTINUOUS
 10
-35.0884827783
 20
371.9851843517
  0
VERTEX
  8
0
 62
7
  6
CONTINUOUS
 10
-35.4251776726
 20
371.5769355647
  0
VERTEX
  8
0
 62
7
  6
CONTINUOUS
 10
-35.7454588947
 20
371.156077648
  0
VERTEX
  8
0
 62
7
  6
CONTINUOUS
 10
-36.0487964924
 20
370.7232923557
  0
VERTEX
  8
0
 62
7
  6
CONTINUOUS
 10
-36.3348693241
 20
370.2791242741
  0
VERTEX
  8
0
 62
7
  6
CONTINUOUS
 10
-36.6032884314
 20
369.8241563706
  0
VERTEX
  8
0
 62
7
  6
CONTINUOUS
 10
-36.8537273131
 20
369.3589552545
  0
VERTEX
  8
0
 62
7
  6
CONTINUOUS
 10
-37.0858565773
 20
368.8840246252
  0
VERTEX
  8
0
 62
7
  6
CONTINUOUS
 10
-37.2992959382
 20
368.4001361785
  0
VERTEX
  8
0
 62
7
  6
CONTINUOUS
 10
-37.4937015001
 20
367.9077765578
  0
VERTEX
  8
0
 62
7
  6
CONTINUOUS
 10
-37.668634701
 20
367.4083046193
  0
VERTEX
  8
0
 62
7
  6
CONTINUOUS
 10
-37.8234595097
 20
366.9036378836
  0
VERTEX
  8
0
 62
7
  6
CONTINUOUS
 10
-37.9584244381
 20
366.3925870011
  0
VERTEX
  8
0
 62
7
  6
CONTINUOUS
 10
-38.0737637468
 20
365.8741772388
  0
VERTEX
  8
0
 62
7
  6
CONTINUOUS
 10
-38.1688841595
 20
365.349682267
  0
VERTEX
  8
0
 62
7
  6
CONTINUOUS
 10
-38.2433786337
 20
364.8193512151
  0
VERTEX
  8
0
 62
7
  6
CONTINUOUS
 10
-38.2969227292
 20
364.2852829725
  0
VERTEX
  8
0
 62
7
  6
CONTINUOUS
 10
-38.3289988101
 20
363.7499322134
  0
VERTEX
  8
0
 62
7
  6
CONTINUOUS
 10
-38.3397794216
 20
363.2124807131
  0
SEQEND
  0
LINE
  8
0
 62
7
  6
CONTINUOUS
 10
411.0327043836
 20
376.7124807131
 11
396.8536203819
 21
376.7124807131
  0
LINE
  8
0
 62
7
  6
CONTINUOUS
 10
-24.7882116147
 20
376.7124807131
 11
-38.9672956164
 21
376.7124807131
  0
LINE
  8
0
 62
7
  6
CONTINUOUS
 10
412.5327043836
 20
384.2124807131
 11
-40.4672956164
 21
384.2124807131
  0
CIRCLE
  8
0
 62
7
  6
CONTINUOUS
 10
186.0327043836
 20
169.2124807131
 40
20.0
  0
CIRCLE
  8
0
 62
7
  6
CONTINUOUS
 10
186.0327043836
 20
319.2124807131
 40
18.0
  0
ARC
  8
0
 62
7
  6
CONTINUOUS
 10
412.5327043836
 20
-74.7875192869
 40
6.0
 50
270.0
 51
360.0
  0
ARC
  8
0
 62
7
  6
CONTINUOUS
 10
412.5327043836
 20
378.2124807131
 40
6.0
 50
0.0
 51
90.0
  0
ARC
  8
0
 62
7
  6
CONTINUOUS
 10
-40.4672956164
 20
378.2124807131
 40
6.0
 50
90.0
 51
180.0
  0
ARC
  8
0
 62
7
  6
CONTINUOUS
 10
-40.4672956164
 20
-74.7875192869
 40
6.0
 50
180.0
 51
270.0
  0
ARC
  8
0
 62
7
  6
CONTINUOUS
 10
173.0327043836
 20
248.7124807131
 40
2.0
 50
180.0
 51
270.0
  0
ARC
  8
0
 62
7
  6
CONTINUOUS
 10
199.0327043836
 20
248.7124807131
 40
2.0
 50
270.0
 51
360.0
  0
ENDSEC
  0
EOF
