999
DXF file: K:\Client\125_Heirloom\001\00\Final_Data\Drawings\BASINS\lineal-362111_2.dxf
999
Pro/ENGINEER 2017110 by Parametric Technology Corporation
  0
SECTION
  2
HEADER
  9
$EXTMAX
 10
420.0
 20
297.0
 30
0.0
  9
$EXTMIN
 10
0.0
 20
0.0
 30
0.0
  9
$LIMMIN
 10
0.0
 20
0.0
  9
$LIMMAX
 10
420.0
 20
297.0
  9
$VIEWCTR
 10
210.0
 20
148.5
  9
$VIEWSIZE
 40
297.0
  9
$CLAYER
  8
0
  9
$LTSCALE
 40
23.1
  9
$CELTYPE
  6
BYLAYER
  9
$DIMSCALE
 40
1.0
  9
$DIMASZ
 40
3.0
  9
$DIMEXO
 40
1.0
  9
$DIMDLI
 40
15.96
  9
$DIMEXE
 40
1.0
  9
$DIMCEN
 40
3.78
  9
$DIMLFAC
 40
1.0
  9
$DIMBLK
  1
_FILLED
  9
$DIMALT
 70
0
  9
$DIMALTF
 40
0.0393700787
  9
$DIMTXT
 40
3.0
  9
$AUNITS
 70
0
  9
$PDMODE
 70
3
  9
$PDSIZE
 40
5.0
  9
$TILEMODE
 70
1
  0
ENDSEC
  0
SECTION
  2
TABLES
  0
TABLE
  2
LTYPE
 70
6
  0
LTYPE
  2
BYBLOCK
 70
0
  3

 72
65
 73
0
 40
0.0
  0
LTYPE
  2
BYLAYER
 70
0
  3

 72
65
 73
0
 40
0.0
  0
LTYPE
  2
CONTINUOUS
 70
64
  3
Solid line
 72
65
 73
0
 40
0.0
  0
LTYPE
  2
CENTER
 70
64
  3
____ _ ____ _ ____ _ ____ _ ____ _ ____ _ ____
 72
65
 73
4
 40
0.6
 49
0.375
 49
-0.075
 49
0.075
 49
-0.075
  0
LTYPE
  2
HIDDEN
 70
64
  3
- - - - - - - - - - - - - - - - - - - -
 72
65
 73
2
 40
0.2
 49
0.1
 49
-0.1
  0
LTYPE
  2
PHANTOM
 70
64
  3
_____ _ _ _____ _ _ _____ _ _ _____
 72
65
 73
6
 40
0.8
 49
0.45
 49
-0.05
 49
0.1
 49
-0.05
 49
0.1
 49
-0.05
  0
LTYPE
  2
DOT
 70
64
  3
. . . . . . . . . . . . . . . . . . . .
 72
65
 73
2
 40
0.2
 49
0.1
 49
-0.1
  0
LTYPE
  2
DASHED
 70
64
  3
- - - - - - - - - - - - - - - - - - - -
 72
65
 73
2
 40
0.2
 49
0.1
 49
-0.1
  0
ENDTAB
  0
TABLE
  2
LAYER
 70
36
  0
LAYER
  2
0
 70
0
 62
7
  6
CONTINUOUS
  0
LAYER
  2
DEFAULT_1
 70
0
 62
7
  6
CENTER
  0
LAYER
  2
DEFAULT_2
 70
0
 62
8
  6
HIDDEN
  0
LAYER
  2
DEFAULT_3
 70
0
 62
7
  6
PHANTOM
  0
LAYER
  2
0000_BOM
 70
0
 62
7
  6
CONTINUOUS
  0
LAYER
  2
0000_REV_TABLE
 70
0
 62
7
  6
CONTINUOUS
  0
LAYER
  2
0000_STEVENS_NOTE
 70
0
 62
7
  6
CONTINUOUS
  0
LAYER
  2
01_DATUM_PLANES
 70
0
 62
7
  6
CONTINUOUS
  0
LAYER
  2
01_DEF_PLANES
 70
0
 62
7
  6
CONTINUOUS
  0
LAYER
  2
02_DATUM_COS
 70
0
 62
7
  6
CONTINUOUS
  0
LAYER
  2
90_IMP_FEAT
 70
0
 62
7
  6
CONTINUOUS
  0
LAYER
  2
95_STL
 70
0
 62
7
  6
CONTINUOUS
  0
LAYER
  2
99_SOLID
 70
0
 62
7
  6
CONTINUOUS
  0
LAYER
  2
CAD-MASTER_ZINC-PL
 70
0
 62
7
  6
CONTINUOUS
  0
LAYER
  2
CURVE
 70
0
 62
7
  6
CONTINUOUS
  0
LAYER
  2
SKEL
 70
0
 62
7
  6
CONTINUOUS
  0
LAYER
  2
SKETCH
 70
0
 62
7
  6
CONTINUOUS
  0
LAYER
  2
SURFACE
 70
0
 62
7
  6
CONTINUOUS
  0
ENDTAB
  0
TABLE
  2
STYLE
 70
1
  0
STYLE
  2
STANDARD
 70
0
 40
0.0
 41
0.75
 50
0.0
 71
0
 42
0.2
  3
txt
  4

  0
STYLE
  2
TEXTSTYLE_1
 70
0
 40
0.0
 41
0.8
 50
0.0
 71
0
 42
0.2
  3
gdt
  4

  0
ENDTAB
  0
ENDSEC
  0
SECTION
  2
BLOCKS
  0
ENDSEC
  0
SECTION
  2
ENTITIES
  0
POLYLINE
  8
0
 62
7
  6
CONTINUOUS
 66
1
 70
0
  0
VERTEX
  8
0
 62
7
  6
CONTINUOUS
 10
-26.9845742771
 20
222.600848297
  0
VERTEX
  8
0
 62
7
  6
CONTINUOUS
 10
-27.2290401192
 20
222.2648404577
  0
VERTEX
  8
0
 62
7
  6
CONTINUOUS
 10
-27.3990252544
 20
221.884866697
  0
VERTEX
  8
0
 62
7
  6
CONTINUOUS
 10
-27.4868990584
 20
221.4762456725
  0
VERTEX
  8
0
 62
7
  6
CONTINUOUS
 10
-27.4878624405
 20
221.0569402511
  0
SEQEND
  0
POLYLINE
  8
0
 62
7
  6
CONTINUOUS
 66
1
 70
0
  0
VERTEX
  8
0
 62
7
  6
CONTINUOUS
 10
-27.49266516
 20
221.0546676515
  0
VERTEX
  8
0
 62
7
  6
CONTINUOUS
 10
-26.6177681025
 20
213.0602598962
  0
VERTEX
  8
0
 62
7
  6
CONTINUOUS
 10
-25.6339515517
 20
205.0767848694
  0
VERTEX
  8
0
 62
7
  6
CONTINUOUS
 10
-24.5575935783
 20
197.0227058706
  0
VERTEX
  8
0
 62
7
  6
CONTINUOUS
 10
-23.4524860122
 20
189.1493713967
  0
VERTEX
  8
0
 62
7
  6
CONTINUOUS
 10
-22.3692031728
 20
181.7906185596
  0
VERTEX
  8
0
 62
7
  6
CONTINUOUS
 10
-21.2523786491
 20
174.6079889479
  0
VERTEX
  8
0
 62
7
  6
CONTINUOUS
 10
-20.0220612729
 20
167.2776117044
  0
VERTEX
  8
0
 62
7
  6
CONTINUOUS
 10
-18.6959373672
 20
160.1246854935
  0
VERTEX
  8
0
 62
7
  6
CONTINUOUS
 10
-17.3081800538
 20
153.4626416607
  0
VERTEX
  8
0
 62
7
  6
CONTINUOUS
 10
-15.7748582265
 20
146.9898634818
  0
VERTEX
  8
0
 62
7
  6
CONTINUOUS
 10
-13.9785164177
 20
140.3984470709
  0
VERTEX
  8
0
 62
7
  6
CONTINUOUS
 10
-11.9708983189
 20
134.0423859581
  0
VERTEX
  8
0
 62
7
  6
CONTINUOUS
 10
-9.8628870074
 20
128.2585854249
  0
VERTEX
  8
0
 62
7
  6
CONTINUOUS
 10
-7.5600589453
 20
122.7380512874
  0
VERTEX
  8
0
 62
7
  6
CONTINUOUS
 10
-4.9198140388
 20
117.1935338949
  0
VERTEX
  8
0
 62
7
  6
CONTINUOUS
 10
-2.0695096735
 20
111.9305443127
  0
VERTEX
  8
0
 62
7
  6
CONTINUOUS
 10
0.7898161059
 20
107.2306462678
  0
VERTEX
  8
0
 62
7
  6
CONTINUOUS
 10
3.7746201551
 20
102.8115931552
  0
VERTEX
  8
0
 62
7
  6
CONTINUOUS
 10
7.0576590824
 20
98.4112153785
  0
VERTEX
  8
0
 62
7
  6
CONTINUOUS
 10
10.4272937366
 20
94.2969796307
  0
VERTEX
  8
0
 62
7
  6
CONTINUOUS
 10
13.5876770879
 20
90.7412608927
  0
VERTEX
  8
0
 62
7
  6
CONTINUOUS
 10
16.7694367035
 20
87.4076434949
  0
VERTEX
  8
0
 62
7
  6
CONTINUOUS
 10
20.1456705014
 20
84.1079863109
  0
VERTEX
  8
0
 62
7
  6
CONTINUOUS
 10
23.5894234658
 20
80.9819656336
  0
SEQEND
  0
POLYLINE
  8
0
 62
7
  6
CONTINUOUS
 66
1
 70
0
  0
VERTEX
  8
0
 62
7
  6
CONTINUOUS
 10
-9.1170588275
 20
221.5385366018
  0
VERTEX
  8
0
 62
7
  6
CONTINUOUS
 10
-9.1025203522
 20
221.9429023426
  0
VERTEX
  8
0
 62
7
  6
CONTINUOUS
 10
-9.0132029067
 20
222.342779563
  0
VERTEX
  8
0
 62
7
  6
CONTINUOUS
 10
-8.8544316192
 20
222.7085989507
  0
VERTEX
  8
0
 62
7
  6
CONTINUOUS
 10
-8.6348202249
 20
223.030155678
  0
VERTEX
  8
0
 62
7
  6
CONTINUOUS
 10
-8.3608339426
 20
223.2946134137
  0
VERTEX
  8
0
 62
7
  6
CONTINUOUS
 10
-8.0436862323
 20
223.4938536697
  0
VERTEX
  8
0
 62
7
  6
CONTINUOUS
 10
-7.6921018807
 20
223.6176812164
  0
VERTEX
  8
0
 62
7
  6
CONTINUOUS
 10
-7.3437608286
 20
223.6584596634
  0
SEQEND
  0
POLYLINE
  8
0
 62
7
  6
CONTINUOUS
 66
1
 70
0
  0
VERTEX
  8
0
 62
7
  6
CONTINUOUS
 10
-28.5790977497
 20
220.9154753129
  0
VERTEX
  8
0
 62
7
  6
CONTINUOUS
 10
-25.3011234716
 20
196.0966177789
  0
VERTEX
  8
0
 62
7
  6
CONTINUOUS
 10
-22.1249014716
 20
174.8172718096
  0
VERTEX
  8
0
 62
7
  6
CONTINUOUS
 10
-19.1991733586
 20
158.6900018569
  0
VERTEX
  8
0
 62
7
  6
CONTINUOUS
 10
-16.1940790758
 20
145.8805749119
  0
VERTEX
  8
0
 62
7
  6
CONTINUOUS
 10
-12.8606511962
 20
134.893815007
  0
VERTEX
  8
0
 62
7
  6
CONTINUOUS
 10
-9.276850829
 20
125.5480856495
  0
VERTEX
  8
0
 62
7
  6
CONTINUOUS
 10
-5.3061730736
 20
117.1261321018
  0
VERTEX
  8
0
 62
7
  6
CONTINUOUS
 10
-0.8818284307
 20
109.3283277484
  0
VERTEX
  8
0
 62
7
  6
CONTINUOUS
 10
4.2459227036
 20
101.7071208218
  0
VERTEX
  8
0
 62
7
  6
CONTINUOUS
 10
10.0500133288
 20
94.3424936479
  0
VERTEX
  8
0
 62
7
  6
CONTINUOUS
 10
16.6880776916
 20
87.0600468927
  0
VERTEX
  8
0
 62
7
  6
CONTINUOUS
 10
22.9977390334
 20
80.9819753242
  0
SEQEND
  0
POLYLINE
  8
0
 62
7
  6
CONTINUOUS
 66
1
 70
0
  0
VERTEX
  8
0
 62
7
  6
CONTINUOUS
 10
-9.1163673639
 20
221.5391549249
  0
VERTEX
  8
0
 62
7
  6
CONTINUOUS
 10
-8.5468604461
 20
204.5029938185
  0
VERTEX
  8
0
 62
7
  6
CONTINUOUS
 10
-7.2357715413
 20
188.2457648111
  0
VERTEX
  8
0
 62
7
  6
CONTINUOUS
 10
-5.2633131306
 20
172.9205388566
  0
VERTEX
  8
0
 62
7
  6
CONTINUOUS
 10
-2.5932233149
 20
158.5363989627
  0
VERTEX
  8
0
 62
7
  6
CONTINUOUS
 10
0.8182145167
 20
145.0668293538
  0
VERTEX
  8
0
 62
7
  6
CONTINUOUS
 10
4.9623439404
 20
132.6616524716
  0
VERTEX
  8
0
 62
7
  6
CONTINUOUS
 10
9.8039454057
 20
121.3913217096
  0
VERTEX
  8
0
 62
7
  6
CONTINUOUS
 10
15.202775849
 20
111.3034402199
  0
VERTEX
  8
0
 62
7
  6
CONTINUOUS
 10
20.9831880087
 20
102.4164715188
  0
VERTEX
  8
0
 62
7
  6
CONTINUOUS
 10
26.970861378
 20
94.6412593111
  0
SEQEND
  0
POLYLINE
  8
0
 62
7
  6
CONTINUOUS
 66
1
 70
0
  0
VERTEX
  8
0
 62
7
  6
CONTINUOUS
 10
-26.3159989225
 20
223.0875475975
  0
VERTEX
  8
0
 62
7
  6
CONTINUOUS
 10
-26.6759909921
 20
222.8789965
  0
VERTEX
  8
0
 62
7
  6
CONTINUOUS
 10
-26.9845742771
 20
222.600848297
  0
SEQEND
  0
POLYLINE
  8
0
 62
7
  6
CONTINUOUS
 66
1
 70
0
  0
VERTEX
  8
0
 62
7
  6
CONTINUOUS
 10
-26.3034550161
 20
223.09454032
  0
VERTEX
  8
0
 62
7
  6
CONTINUOUS
 10
-26.6554310855
 20
222.8963198511
  0
VERTEX
  8
0
 62
7
  6
CONTINUOUS
 10
-26.9625236022
 20
222.6290033061
  0
VERTEX
  8
0
 62
7
  6
CONTINUOUS
 10
-27.2150513155
 20
222.295157111
  0
VERTEX
  8
0
 62
7
  6
CONTINUOUS
 10
-27.3947144317
 20
221.909776573
  0
VERTEX
  8
0
 62
7
  6
CONTINUOUS
 10
-27.489381593
 20
221.4909108347
  0
VERTEX
  8
0
 62
7
  6
CONTINUOUS
 10
-27.4920179887
 20
221.056502898
  0
SEQEND
  0
POLYLINE
  8
0
 62
7
  6
CONTINUOUS
 66
1
 70
0
  0
VERTEX
  8
0
 62
7
  6
CONTINUOUS
 10
40.138298415
 20
80.9822403574
  0
VERTEX
  8
0
 62
7
  6
CONTINUOUS
 10
37.8355383672
 20
83.0888656011
  0
VERTEX
  8
0
 62
7
  6
CONTINUOUS
 10
35.5745427612
 20
85.2638680372
  0
VERTEX
  8
0
 62
7
  6
CONTINUOUS
 10
33.3551200907
 20
87.5083948743
  0
VERTEX
  8
0
 62
7
  6
CONTINUOUS
 10
31.1808530572
 20
89.8198468738
  0
VERTEX
  8
0
 62
7
  6
CONTINUOUS
 10
29.0520220667
 20
92.1986489705
  0
VERTEX
  8
0
 62
7
  6
CONTINUOUS
 10
26.9711722899
 20
94.6415314274
  0
SEQEND
  0
POLYLINE
  8
0
 62
7
  6
CONTINUOUS
 66
1
 70
0
  0
VERTEX
  8
0
 62
7
  6
CONTINUOUS
 10
-27.1148829018
 20
223.0887778916
  0
VERTEX
  8
0
 62
7
  6
CONTINUOUS
 10
-27.4288122172
 20
222.9750725829
  0
VERTEX
  8
0
 62
7
  6
CONTINUOUS
 10
-27.7098133973
 20
222.8164926566
  0
VERTEX
  8
0
 62
7
  6
CONTINUOUS
 10
-27.9549905429
 20
222.6226297937
  0
VERTEX
  8
0
 62
7
  6
CONTINUOUS
 10
-28.1615038394
 20
222.3994774601
  0
VERTEX
  8
0
 62
7
  6
CONTINUOUS
 10
-28.3267059296
 20
222.1546686034
  0
VERTEX
  8
0
 62
7
  6
CONTINUOUS
 10
-28.4519917257
 20
221.8959427501
  0
VERTEX
  8
0
 62
7
  6
CONTINUOUS
 10
-28.5370831306
 20
221.6308865466
  0
VERTEX
  8
0
 62
7
  6
CONTINUOUS
 10
-28.5829397567
 20
221.3647826727
  0
VERTEX
  8
0
 62
7
  6
CONTINUOUS
 10
-28.5928855216
 20
221.1033428155
  0
VERTEX
  8
0
 62
7
  6
CONTINUOUS
 10
-28.5789820986
 20
220.9154435303
  0
SEQEND
  0
LINE
  8
0
 62
7
  6
CONTINUOUS
 10
-25.914555713
 20
223.2187547935
 11
-26.3034550161
 21
223.09454032
  0
POLYLINE
  8
0
 62
7
  6
CONTINUOUS
 66
1
 70
0
  0
VERTEX
  8
0
 62
7
  6
CONTINUOUS
 10
100.7383026849
 20
193.0498978005
  0
VERTEX
  8
0
 62
7
  6
CONTINUOUS
 10
100.8165895373
 20
176.2879413995
  0
VERTEX
  8
0
 62
7
  6
CONTINUOUS
 10
100.8502339712
 20
168.6791989928
  0
VERTEX
  8
0
 62
7
  6
CONTINUOUS
 10
100.8945756548
 20
154.8724371373
  0
SEQEND
  0
POLYLINE
  8
0
 62
7
  6
CONTINUOUS
 66
1
 70
0
  0
VERTEX
  8
0
 62
7
  6
CONTINUOUS
 10
100.8945756548
 20
154.8724371373
  0
VERTEX
  8
0
 62
7
  6
CONTINUOUS
 10
100.9185610984
 20
148.5651398392
  0
VERTEX
  8
0
 62
7
  6
CONTINUOUS
 10
100.9573180924
 20
142.6690646747
  0
VERTEX
  8
0
 62
7
  6
CONTINUOUS
 10
101.0232767505
 20
137.2066445776
  0
VERTEX
  8
0
 62
7
  6
CONTINUOUS
 10
101.1183109847
 20
132.1411973343
  0
VERTEX
  8
0
 62
7
  6
CONTINUOUS
 10
101.2481853376
 20
127.463028831
  0
VERTEX
  8
0
 62
7
  6
CONTINUOUS
 10
101.4120296848
 20
123.1015246065
  0
VERTEX
  8
0
 62
7
  6
CONTINUOUS
 10
101.6115037847
 20
119.0012845233
  0
VERTEX
  8
0
 62
7
  6
CONTINUOUS
 10
101.8452511192
 20
115.1108483719
  0
VERTEX
  8
0
 62
7
  6
CONTINUOUS
 10
102.1124854068
 20
111.3773358579
  0
VERTEX
  8
0
 62
7
  6
CONTINUOUS
 10
102.4146983871
 20
107.760229962
  0
VERTEX
  8
0
 62
7
  6
CONTINUOUS
 10
102.7539314896
 20
104.2059738273
  0
VERTEX
  8
0
 62
7
  6
CONTINUOUS
 10
103.1294577662
 20
100.7123779432
  0
VERTEX
  8
0
 62
7
  6
CONTINUOUS
 10
103.5426089304
 20
97.2575440652
  0
VERTEX
  8
0
 62
7
  6
CONTINUOUS
 10
103.9894030391
 20
93.856576735
  0
VERTEX
  8
0
 62
7
  6
CONTINUOUS
 10
104.4672231875
 20
90.5152699392
  0
VERTEX
  8
0
 62
7
  6
CONTINUOUS
 10
104.9740640565
 20
87.2181199229
  0
VERTEX
  8
0
 62
7
  6
CONTINUOUS
 10
105.5032650186
 20
84.0112502988
  0
VERTEX
  8
0
 62
7
  6
CONTINUOUS
 10
106.0515740134
 20
80.9816779593
  0
SEQEND
  0
POLYLINE
  8
0
 62
7
  6
CONTINUOUS
 66
1
 70
0
  0
VERTEX
  8
0
 62
7
  6
CONTINUOUS
 10
100.7022366872
 20
211.8047284933
  0
VERTEX
  8
0
 62
7
  6
CONTINUOUS
 10
100.7078987113
 20
202.2000833297
  0
VERTEX
  8
0
 62
7
  6
CONTINUOUS
 10
100.7383026849
 20
193.0498978005
  0
SEQEND
  0
POLYLINE
  8
0
 62
7
  6
CONTINUOUS
 66
1
 70
0
  0
VERTEX
  8
0
 62
7
  6
CONTINUOUS
 10
100.7022366872
 20
211.8047284933
  0
VERTEX
  8
0
 62
7
  6
CONTINUOUS
 10
100.722079429
 20
222.2870498182
  0
VERTEX
  8
0
 62
7
  6
CONTINUOUS
 10
100.7340102627
 20
222.6876251696
  0
VERTEX
  8
0
 62
7
  6
CONTINUOUS
 10
100.7555396076
 20
223.0542099128
  0
VERTEX
  8
0
 62
7
  6
CONTINUOUS
 10
100.7854831415
 20
223.3764099903
  0
VERTEX
  8
0
 62
7
  6
CONTINUOUS
 10
100.8229467172
 20
223.641180186
  0
VERTEX
  8
0
 62
7
  6
CONTINUOUS
 10
100.8664022707
 20
223.8404706661
  0
VERTEX
  8
0
 62
7
  6
CONTINUOUS
 10
100.9146592686
 20
223.9639988926
  0
VERTEX
  8
0
 62
7
  6
CONTINUOUS
 10
100.9641460477
 20
224.0040563562
  0
SEQEND
  0
LINE
  8
0
 62
7
  6
CONTINUOUS
 10
22.9977361834
 20
80.9819753242
 11
335.9762007859
 21
80.9819753242
  0
POLYLINE
  8
0
 62
7
  6
CONTINUOUS
 66
1
 70
0
  0
VERTEX
  8
0
 62
7
  6
CONTINUOUS
 10
-14.3456425743
 20
223.5999869113
  0
VERTEX
  8
0
 62
7
  6
CONTINUOUS
 10
-16.995145336
 20
223.5700850404
  0
VERTEX
  8
0
 62
7
  6
CONTINUOUS
 10
-19.2281689007
 20
223.5366872465
  0
VERTEX
  8
0
 62
7
  6
CONTINUOUS
 10
-20.869255455
 20
223.5003425091
  0
VERTEX
  8
0
 62
7
  6
CONTINUOUS
 10
-22.2793642709
 20
223.4475062754
  0
SEQEND
  0
LINE
  8
0
 62
7
  6
CONTINUOUS
 10
-10.9298103236
 20
223.6310128869
 11
-14.7155105463
 21
223.595847252
  0
LINE
  8
0
 62
7
  6
CONTINUOUS
 10
-7.331993446
 20
223.6584953451
 11
-11.493002587
 21
223.6267494648
  0
LINE
  8
0
 62
7
  6
CONTINUOUS
 10
-7.3312737237
 20
223.6584981881
 11
-1.5950447415
 21
223.6968834722
  0
LINE
  8
0
 62
7
  6
CONTINUOUS
 10
-1.5950447415
 20
223.6968834722
 11
4.8799941919
 21
223.7346115607
  0
LINE
  8
0
 62
7
  6
CONTINUOUS
 10
4.8799941919
 20
223.7346115607
 11
12.1214512645
 21
223.7708690873
  0
LINE
  8
0
 62
7
  6
CONTINUOUS
 10
12.1214512645
 20
223.7708690873
 11
20.2621256352
 21
223.8056533032
  0
POLYLINE
  8
0
 62
7
  6
CONTINUOUS
 66
1
 70
0
  0
VERTEX
  8
0
 62
7
  6
CONTINUOUS
 10
28.2569979774
 20
221.6478377013
  0
VERTEX
  8
0
 62
7
  6
CONTINUOUS
 10
10.9638693569
 20
221.5817874623
  0
VERTEX
  8
0
 62
7
  6
CONTINUOUS
 10
3.476625245
 20
221.5802230071
  0
VERTEX
  8
0
 62
7
  6
CONTINUOUS
 10
-3.1882040879
 20
221.5717804693
  0
VERTEX
  8
0
 62
7
  6
CONTINUOUS
 10
-9.1163673639
 20
221.5391549249
  0
SEQEND
  0
POLYLINE
  8
0
 62
7
  6
CONTINUOUS
 66
1
 70
0
  0
VERTEX
  8
0
 62
7
  6
CONTINUOUS
 10
-9.1170835182
 20
221.5385236072
  0
VERTEX
  8
0
 62
7
  6
CONTINUOUS
 10
-13.2309813849
 20
221.5227800071
  0
VERTEX
  8
0
 62
7
  6
CONTINUOUS
 10
-16.838014591
 20
221.4676416115
  0
VERTEX
  8
0
 62
7
  6
CONTINUOUS
 10
-19.788927087
 20
221.4151856204
  0
VERTEX
  8
0
 62
7
  6
CONTINUOUS
 10
-21.9692821801
 20
221.3872410588
  0
VERTEX
  8
0
 62
7
  6
CONTINUOUS
 10
-23.3984971238
 20
221.3408579981
  0
VERTEX
  8
0
 62
7
  6
CONTINUOUS
 10
-24.3326267825
 20
221.3024380971
  0
VERTEX
  8
0
 62
7
  6
CONTINUOUS
 10
-25.0681932065
 20
221.2699989024
  0
VERTEX
  8
0
 62
7
  6
CONTINUOUS
 10
-26.7032168399
 20
221.1177182366
  0
SEQEND
  0
POLYLINE
  8
0
 62
7
  6
CONTINUOUS
 66
1
 70
0
  0
VERTEX
  8
0
 62
7
  6
CONTINUOUS
 10
100.7202747322
 20
221.8821629767
  0
VERTEX
  8
0
 62
7
  6
CONTINUOUS
 10
89.8655179876
 20
221.8421811794
  0
VERTEX
  8
0
 62
7
  6
CONTINUOUS
 10
79.090999044
 20
221.8136926228
  0
VERTEX
  8
0
 62
7
  6
CONTINUOUS
 10
68.4324967119
 20
221.7670527411
  0
VERTEX
  8
0
 62
7
  6
CONTINUOUS
 10
57.949247162
 20
221.7483769642
  0
VERTEX
  8
0
 62
7
  6
CONTINUOUS
 10
47.7610117572
 20
221.7478919362
  0
VERTEX
  8
0
 62
7
  6
CONTINUOUS
 10
37.8313896257
 20
221.6888851392
  0
VERTEX
  8
0
 62
7
  6
CONTINUOUS
 10
28.2569979774
 20
221.6478377013
  0
SEQEND
  0
LINE
  8
0
 62
7
  6
CONTINUOUS
 10
20.2621256352
 20
223.8056533032
 11
29.0279965443
 21
223.8379199428
  0
LINE
  8
0
 62
7
  6
CONTINUOUS
 10
29.0279965443
 20
223.8379199428
 11
38.5049043254
 21
223.8684717296
  0
LINE
  8
0
 62
7
  6
CONTINUOUS
 10
38.5049043254
 20
223.8684717296
 11
48.2688077404
 21
223.8966520053
  0
LINE
  8
0
 62
7
  6
CONTINUOUS
 10
48.2688077404
 20
223.8966520053
 11
58.3626378372
 21
223.9230965611
  0
LINE
  8
0
 62
7
  6
CONTINUOUS
 10
58.3626378372
 20
223.9230965611
 11
73.973858835
 21
223.9581257997
  0
POLYLINE
  8
0
 62
7
  6
CONTINUOUS
 66
1
 70
0
  0
VERTEX
  8
0
 62
7
  6
CONTINUOUS
 10
282.1256078258
 20
222.0062109214
  0
VERTEX
  8
0
 62
7
  6
CONTINUOUS
 10
271.530713637
 20
221.984672741
  0
VERTEX
  8
0
 62
7
  6
CONTINUOUS
 10
260.5323620713
 20
221.9984048047
  0
VERTEX
  8
0
 62
7
  6
CONTINUOUS
 10
249.1132781223
 20
221.9895504328
  0
VERTEX
  8
0
 62
7
  6
CONTINUOUS
 10
237.3056498269
 20
221.989841823
  0
VERTEX
  8
0
 62
7
  6
CONTINUOUS
 10
225.1274221328
 20
221.9961589992
  0
VERTEX
  8
0
 62
7
  6
CONTINUOUS
 10
212.5935441559
 20
221.9785027603
  0
VERTEX
  8
0
 62
7
  6
CONTINUOUS
 10
159.2425202326
 20
221.9286695025
  0
SEQEND
  0
LINE
  8
0
 62
7
  6
CONTINUOUS
 10
73.973858835
 20
223.9581257997
 11
84.7067882401
 21
223.9783707937
  0
LINE
  8
0
 62
7
  6
CONTINUOUS
 10
84.7067882401
 20
223.9783707937
 11
100.9641138754
 21
224.0040575232
  0
LINE
  8
0
 62
7
  6
CONTINUOUS
 10
99.1530240713
 20
224.001398186
 11
116.8147300189
 21
224.0250137664
  0
LINE
  8
0
 62
7
  6
CONTINUOUS
 10
147.5701511681
 20
224.0609895494
 11
107.2616393713
 21
224.0125817392
  0
LINE
  8
0
 62
7
  6
CONTINUOUS
 10
142.3810470191
 20
224.0551401242
 11
228.2044445302
 21
224.1456213227
  0
LINE
  8
0
 62
7
  6
CONTINUOUS
 10
223.9790133293
 20
224.1414209486
 11
251.1015295415
 21
224.1664000141
  0
LINE
  8
0
 62
7
  6
CONTINUOUS
 10
262.7295571479
 20
224.1744134661
 11
246.9167953649
 21
224.1630068098
  0
LINE
  8
0
 62
7
  6
CONTINUOUS
 10
272.1772788962
 20
224.1789739758
 11
261.9735292163
 21
224.1739675763
  0
LINE
  8
0
 62
7
  6
CONTINUOUS
 10
271.8043777642
 20
224.1788324244
 11
281.5509675842
 21
224.1813897798
  0
POLYLINE
  8
0
 62
7
  6
CONTINUOUS
 66
1
 70
0
  0
VERTEX
  8
0
 62
7
  6
CONTINUOUS
 10
159.2425202326
 20
221.9286695025
  0
VERTEX
  8
0
 62
7
  6
CONTINUOUS
 10
145.0944516199
 20
221.9302034282
  0
VERTEX
  8
0
 62
7
  6
CONTINUOUS
 10
130.6189219452
 20
221.9092475068
  0
VERTEX
  8
0
 62
7
  6
CONTINUOUS
 10
115.8225374688
 20
221.8497055837
  0
VERTEX
  8
0
 62
7
  6
CONTINUOUS
 10
100.7202387575
 20
221.8817387636
  0
SEQEND
  0
LINE
  8
0
 62
7
  6
CONTINUOUS
 10
308.4040808859
 20
222.0078923031
 11
292.9054077197
 21
222.0072649074
  0
LINE
  8
0
 62
7
  6
CONTINUOUS
 10
318.227572845
 20
222.0069657462
 11
308.4040808859
 21
222.0078923031
  0
POLYLINE
  8
0
 62
7
  6
CONTINUOUS
 66
1
 70
0
  0
VERTEX
  8
0
 62
7
  6
CONTINUOUS
 10
281.5509675842
 20
224.1813897798
  0
VERTEX
  8
0
 62
7
  6
CONTINUOUS
 10
299.115018679
 20
224.1804708075
  0
VERTEX
  8
0
 62
7
  6
CONTINUOUS
 10
307.4887768106
 20
224.1772907356
  0
VERTEX
  8
0
 62
7
  6
CONTINUOUS
 10
315.559373627
 20
224.172128446
  0
VERTEX
  8
0
 62
7
  6
CONTINUOUS
 10
323.3340548333
 20
224.1647766979
  0
VERTEX
  8
0
 62
7
  6
CONTINUOUS
 10
330.6981341997
 20
224.1553517317
  0
VERTEX
  8
0
 62
7
  6
CONTINUOUS
 10
337.5289150501
 20
224.1438504606
  0
VERTEX
  8
0
 62
7
  6
CONTINUOUS
 10
343.8576744286
 20
224.130423626
  0
VERTEX
  8
0
 62
7
  6
CONTINUOUS
 10
349.6627076789
 20
224.1151732764
  0
VERTEX
  8
0
 62
7
  6
CONTINUOUS
 10
354.9802632257
 20
224.0982424039
  0
VERTEX
  8
0
 62
7
  6
CONTINUOUS
 10
359.8429813007
 20
224.0798301433
  0
VERTEX
  8
0
 62
7
  6
CONTINUOUS
 10
364.2399818266
 20
224.0598701162
  0
SEQEND
  0
LINE
  8
0
 62
7
  6
CONTINUOUS
 10
347.710722219
 20
221.9951822111
 11
318.227572845
 21
222.0069657462
  0
POLYLINE
  8
0
 62
7
  6
CONTINUOUS
 66
1
 70
0
  0
VERTEX
  8
0
 62
7
  6
CONTINUOUS
 10
292.9054077197
 20
222.0072649074
  0
VERTEX
  8
0
 62
7
  6
CONTINUOUS
 10
287.5567687719
 20
222.0114856437
  0
VERTEX
  8
0
 62
7
  6
CONTINUOUS
 10
282.126741177
 20
222.0057679994
  0
SEQEND
  0
LINE
  8
0
 62
7
  6
CONTINUOUS
 10
354.4962029005
 20
221.9882264437
 11
347.710722219
 21
221.9951822111
  0
POLYLINE
  8
0
 62
7
  6
CONTINUOUS
 66
1
 70
0
  0
VERTEX
  8
0
 62
7
  6
CONTINUOUS
 10
366.020884816
 20
221.9639027032
  0
VERTEX
  8
0
 62
7
  6
CONTINUOUS
 10
363.3893286247
 20
221.9690208564
  0
VERTEX
  8
0
 62
7
  6
CONTINUOUS
 10
360.5972084149
 20
221.9779085163
  0
VERTEX
  8
0
 62
7
  6
CONTINUOUS
 10
357.6321302598
 20
221.9818009476
  0
VERTEX
  8
0
 62
7
  6
CONTINUOUS
 10
354.4962029005
 20
221.9882264437
  0
SEQEND
  0
LINE
  8
0
 62
7
  6
CONTINUOUS
 10
368.6232570126
 20
224.0361816435
 11
364.2400192161
 21
224.0598701669
  0
LINE
  8
0
 62
7
  6
CONTINUOUS
 10
372.0500454827
 20
224.0115114826
 11
368.0078737433
 21
224.0395888605
  0
LINE
  8
0
 62
7
  6
CONTINUOUS
 10
-25.6861452262
 20
223.2530104638
 11
-25.9896498663
 21
223.2243648489
  0
LINE
  8
0
 62
7
  6
CONTINUOUS
 10
-25.6447903658
 20
223.2564372021
 11
-25.6861578185
 21
223.2530092884
  0
LINE
  8
0
 62
7
  6
CONTINUOUS
 10
-26.7032168399
 20
221.1177182366
 11
-27.4887715019
 21
221.0576824115
  0
LINE
  8
0
 62
7
  6
CONTINUOUS
 10
-22.2793642709
 20
223.4475062754
 11
-25.641511847
 21
223.2566020596
  0
LINE
  8
0
 62
7
  6
CONTINUOUS
 10
-25.5023625197
 20
223.2616492766
 11
-25.6447903658
 21
223.2564372021
  0
POLYLINE
  8
0
 62
7
  6
CONTINUOUS
 66
1
 70
0
  0
VERTEX
  8
0
 62
7
  6
CONTINUOUS
 10
381.5479623999
 20
221.7837753935
  0
VERTEX
  8
0
 62
7
  6
CONTINUOUS
 10
379.8573198957
 20
221.8415191916
  0
VERTEX
  8
0
 62
7
  6
CONTINUOUS
 10
377.4007028364
 20
221.8743416041
  0
VERTEX
  8
0
 62
7
  6
CONTINUOUS
 10
374.1941751984
 20
221.9263033505
  0
VERTEX
  8
0
 62
7
  6
CONTINUOUS
 10
370.3629683041
 20
221.9710968411
  0
VERTEX
  8
0
 62
7
  6
CONTINUOUS
 10
366.020710534
 20
221.9640111071
  0
SEQEND
  0
POLYLINE
  8
0
 62
7
  6
CONTINUOUS
 66
1
 70
0
  0
VERTEX
  8
0
 62
7
  6
CONTINUOUS
 10
285.5523478518
 20
80.984335782
  0
VERTEX
  8
0
 62
7
  6
CONTINUOUS
 10
285.432292442
 20
82.587682034
  0
VERTEX
  8
0
 62
7
  6
CONTINUOUS
 10
285.3111864952
 20
84.3144395276
  0
VERTEX
  8
0
 62
7
  6
CONTINUOUS
 10
285.1888648081
 20
86.1710967645
  0
VERTEX
  8
0
 62
7
  6
CONTINUOUS
 10
285.0656693863
 20
88.1554492155
  0
VERTEX
  8
0
 62
7
  6
CONTINUOUS
 10
284.9419251235
 20
90.2627600231
  0
VERTEX
  8
0
 62
7
  6
CONTINUOUS
 10
284.8186042495
 20
92.4779498153
  0
SEQEND
  0
POLYLINE
  8
0
 62
7
  6
CONTINUOUS
 66
1
 70
0
  0
VERTEX
  8
0
 62
7
  6
CONTINUOUS
 10
284.8186042495
 20
92.4779498153
  0
VERTEX
  8
0
 62
7
  6
CONTINUOUS
 10
284.6540911117
 20
95.6193280287
  0
VERTEX
  8
0
 62
7
  6
CONTINUOUS
 10
284.4955069163
 20
98.8644884157
  0
VERTEX
  8
0
 62
7
  6
CONTINUOUS
 10
284.3465580158
 20
102.1434493346
  0
VERTEX
  8
0
 62
7
  6
CONTINUOUS
 10
284.1992756018
 20
105.6366618289
  0
VERTEX
  8
0
 62
7
  6
CONTINUOUS
 10
284.0463946947
 20
109.5827774801
  0
VERTEX
  8
0
 62
7
  6
CONTINUOUS
 10
283.8982915357
 20
113.7748951623
  0
VERTEX
  8
0
 62
7
  6
CONTINUOUS
 10
283.7619057918
 20
118.0022085524
  0
VERTEX
  8
0
 62
7
  6
CONTINUOUS
 10
283.6308543599
 20
122.4578878578
  0
VERTEX
  8
0
 62
7
  6
CONTINUOUS
 10
283.5002141592
 20
127.3537490869
  0
VERTEX
  8
0
 62
7
  6
CONTINUOUS
 10
283.3768527797
 20
132.4513697294
  0
VERTEX
  8
0
 62
7
  6
CONTINUOUS
 10
283.2655276675
 20
137.4782043583
  0
VERTEX
  8
0
 62
7
  6
CONTINUOUS
 10
283.1594919787
 20
142.6898646442
  0
VERTEX
  8
0
 62
7
  6
CONTINUOUS
 10
283.0539458356
 20
148.3523386135
  0
VERTEX
  8
0
 62
7
  6
CONTINUOUS
 10
282.953682832
 20
154.2045376884
  0
VERTEX
  8
0
 62
7
  6
CONTINUOUS
 10
282.861896122
 20
159.9759848449
  0
VERTEX
  8
0
 62
7
  6
CONTINUOUS
 10
282.7735522009
 20
165.9242922577
  0
VERTEX
  8
0
 62
7
  6
CONTINUOUS
 10
282.6847940809
 20
172.3081197114
  0
VERTEX
  8
0
 62
7
  6
CONTINUOUS
 10
282.5986952695
 20
178.878484795
  0
VERTEX
  8
0
 62
7
  6
CONTINUOUS
 10
282.5177567482
 20
185.3707399323
  0
VERTEX
  8
0
 62
7
  6
CONTINUOUS
 10
282.4379271705
 20
192.0772931786
  0
VERTEX
  8
0
 62
7
  6
CONTINUOUS
 10
282.3562297566
 20
199.2977416782
  0
VERTEX
  8
0
 62
7
  6
CONTINUOUS
 10
282.2759560331
 20
206.7719661569
  0
VERTEX
  8
0
 62
7
  6
CONTINUOUS
 10
282.1991692583
 20
214.3208140173
  0
VERTEX
  8
0
 62
7
  6
CONTINUOUS
 10
282.1256078258
 20
222.0062109214
  0
SEQEND
  0
POLYLINE
  8
0
 62
7
  6
CONTINUOUS
 66
1
 70
0
  0
VERTEX
  8
0
 62
7
  6
CONTINUOUS
 10
-25.6861578185
 20
223.2530092884
  0
VERTEX
  8
0
 62
7
  6
CONTINUOUS
 10
-25.9190027489
 20
223.2173168784
  0
VERTEX
  8
0
 62
7
  6
CONTINUOUS
 10
-26.3159989225
 20
223.0875475975
  0
SEQEND
  0
LINE
  8
0
 62
7
  6
CONTINUOUS
 10
-28.5789820986
 20
220.9154435303
 11
-27.4920805941
 21
221.0564426012
  0
LINE
  8
0
 62
7
  6
CONTINUOUS
 10
-27.4920179887
 20
221.056502898
 11
-27.4878624405
 21
221.0569402511
  0
LINE
  8
0
 62
7
  6
CONTINUOUS
 10
-25.9896498663
 20
223.2243648489
 11
-26.7826252846
 21
223.1488357722
  0
POLYLINE
  8
0
 62
7
  6
CONTINUOUS
 66
1
 70
0
  0
VERTEX
  8
0
 62
7
  6
CONTINUOUS
 10
364.2514712433
 20
224.0598573173
  0
VERTEX
  8
0
 62
7
  6
CONTINUOUS
 10
364.5898760486
 20
224.0217076855
  0
VERTEX
  8
0
 62
7
  6
CONTINUOUS
 10
364.9313404714
 20
223.9048636036
  0
VERTEX
  8
0
 62
7
  6
CONTINUOUS
 10
365.2389631667
 20
223.7176523631
  0
VERTEX
  8
0
 62
7
  6
CONTINUOUS
 10
365.5096962028
 20
223.466332294
  0
VERTEX
  8
0
 62
7
  6
CONTINUOUS
 10
365.7351663499
 20
223.1508572008
  0
VERTEX
  8
0
 62
7
  6
CONTINUOUS
 10
365.9028284446
 20
222.7840469482
  0
VERTEX
  8
0
 62
7
  6
CONTINUOUS
 10
366.0005662142
 20
222.3784105417
  0
VERTEX
  8
0
 62
7
  6
CONTINUOUS
 10
366.0209131087
 20
221.9640154454
  0
SEQEND
  0
POLYLINE
  8
0
 62
7
  6
CONTINUOUS
 66
1
 70
0
  0
VERTEX
  8
0
 62
7
  6
CONTINUOUS
 10
384.6876680687
 20
221.5710496988
  0
VERTEX
  8
0
 62
7
  6
CONTINUOUS
 10
384.4301737106
 20
221.608204297
  0
VERTEX
  8
0
 62
7
  6
CONTINUOUS
 10
384.0165982735
 20
221.6449043466
  0
VERTEX
  8
0
 62
7
  6
CONTINUOUS
 10
383.4460585153
 20
221.6983795091
  0
VERTEX
  8
0
 62
7
  6
CONTINUOUS
 10
381.5479623999
 20
221.7837753935
  0
SEQEND
  0
POLYLINE
  8
0
 62
7
  6
CONTINUOUS
 66
1
 70
0
  0
VERTEX
  8
0
 62
7
  6
CONTINUOUS
 10
383.1543879593
 20
223.6341648937
  0
VERTEX
  8
0
 62
7
  6
CONTINUOUS
 10
382.1609053914
 20
223.7783398551
  0
VERTEX
  8
0
 62
7
  6
CONTINUOUS
 10
380.6921888389
 20
223.8712912074
  0
VERTEX
  8
0
 62
7
  6
CONTINUOUS
 10
379.0560828072
 20
223.9231178732
  0
VERTEX
  8
0
 62
7
  6
CONTINUOUS
 10
377.1984171173
 20
223.9575213628
  0
VERTEX
  8
0
 62
7
  6
CONTINUOUS
 10
374.6693960318
 20
223.9883608191
  0
VERTEX
  8
0
 62
7
  6
CONTINUOUS
 10
371.6982035075
 20
224.0146211753
  0
SEQEND
  0
POLYLINE
  8
0
 62
7
  6
CONTINUOUS
 66
1
 70
0
  0
VERTEX
  8
0
 62
7
  6
CONTINUOUS
 10
281.5509315506
 20
224.1813893722
  0
VERTEX
  8
0
 62
7
  6
CONTINUOUS
 10
281.6666397191
 20
224.1418517912
  0
VERTEX
  8
0
 62
7
  6
CONTINUOUS
 10
281.7795799823
 20
224.0198015894
  0
VERTEX
  8
0
 62
7
  6
CONTINUOUS
 10
281.88090383
 20
223.8242452687
  0
VERTEX
  8
0
 62
7
  6
CONTINUOUS
 10
281.9695242198
 20
223.5620918665
  0
VERTEX
  8
0
 62
7
  6
CONTINUOUS
 10
282.0424718539
 20
223.2333767399
  0
VERTEX
  8
0
 62
7
  6
CONTINUOUS
 10
282.0954834294
 20
222.8519826509
  0
VERTEX
  8
0
 62
7
  6
CONTINUOUS
 10
282.1243607102
 20
222.4318163852
  0
VERTEX
  8
0
 62
7
  6
CONTINUOUS
 10
282.1267430756
 20
222.0057526881
  0
SEQEND
  0
LINE
  8
0
 62
7
  6
CONTINUOUS
 10
-26.7826252846
 20
223.1488357722
 11
-27.1148829018
 21
223.0887778916
  0
LINE
  8
0
 62
7
  6
CONTINUOUS
 10
384.6859273651
 20
221.5711886893
 11
385.0058324742
 21
221.5141682844
  0
LINE
  8
0
 62
7
  6
CONTINUOUS
 10
383.4698445236
 20
223.5594979947
 11
383.1543426815
 21
223.6341714645
  0
LINE
  8
0
 62
7
  6
CONTINUOUS
 10
383.3859219377
 20
223.579341656
 11
383.1543427418
 21
223.6341714557
  0
POLYLINE
  8
0
 62
7
  6
CONTINUOUS
 66
1
 70
0
  0
VERTEX
  8
0
 62
7
  6
CONTINUOUS
 10
383.154248005
 20
223.6341930857
  0
VERTEX
  8
0
 62
7
  6
CONTINUOUS
 10
383.4678777772
 20
223.5312744479
  0
VERTEX
  8
0
 62
7
  6
CONTINUOUS
 10
383.8147287683
 20
223.3415762336
  0
VERTEX
  8
0
 62
7
  6
CONTINUOUS
 10
384.1194288767
 20
223.0872730358
  0
SEQEND
  0
POLYLINE
  8
0
 62
7
  6
CONTINUOUS
 66
1
 70
0
  0
VERTEX
  8
0
 62
7
  6
CONTINUOUS
 10
318.4124981255
 20
87.5077488051
  0
VERTEX
  8
0
 62
7
  6
CONTINUOUS
 10
316.8527859701
 20
86.331219296
  0
VERTEX
  8
0
 62
7
  6
CONTINUOUS
 10
315.2893472861
 20
85.1866804861
  0
VERTEX
  8
0
 62
7
  6
CONTINUOUS
 10
313.730472838
 20
84.0805956213
  0
VERTEX
  8
0
 62
7
  6
CONTINUOUS
 10
312.1760475197
 20
83.0120613351
  0
VERTEX
  8
0
 62
7
  6
CONTINUOUS
 10
310.6250616399
 20
81.9793627673
  0
VERTEX
  8
0
 62
7
  6
CONTINUOUS
 10
309.0773028666
 20
80.9818675679
  0
SEQEND
  0
POLYLINE
  8
0
 62
7
  6
CONTINUOUS
 66
1
 70
0
  0
VERTEX
  8
0
 62
7
  6
CONTINUOUS
 10
335.1981419123
 20
80.9833648704
  0
VERTEX
  8
0
 62
7
  6
CONTINUOUS
 10
338.5708338832
 20
84.2506804932
  0
VERTEX
  8
0
 62
7
  6
CONTINUOUS
 10
341.8567739513
 20
87.6383955657
  0
VERTEX
  8
0
 62
7
  6
CONTINUOUS
 10
345.0125985576
 20
91.085696041
  0
VERTEX
  8
0
 62
7
  6
CONTINUOUS
 10
348.0989996374
 20
94.6562344774
  0
VERTEX
  8
0
 62
7
  6
CONTINUOUS
 10
351.2035742389
 20
98.4827957708
  0
VERTEX
  8
0
 62
7
  6
CONTINUOUS
 10
354.2125090001
 20
102.4626080939
  0
VERTEX
  8
0
 62
7
  6
CONTINUOUS
 10
357.0529836964
 20
106.5154328485
  0
VERTEX
  8
0
 62
7
  6
CONTINUOUS
 10
359.7826798018
 20
110.738966128
  0
VERTEX
  8
0
 62
7
  6
CONTINUOUS
 10
362.4503527091
 20
115.2491256428
  0
VERTEX
  8
0
 62
7
  6
CONTINUOUS
 10
364.9557875453
 20
119.9138088258
  0
VERTEX
  8
0
 62
7
  6
CONTINUOUS
 10
367.2230534634
 20
124.5858448522
  0
VERTEX
  8
0
 62
7
  6
CONTINUOUS
 10
369.3240812082
 20
129.3973029748
  0
VERTEX
  8
0
 62
7
  6
CONTINUOUS
 10
371.3066816542
 20
134.4803372903
  0
VERTEX
  8
0
 62
7
  6
CONTINUOUS
 10
373.1118359652
 20
139.7058182235
  0
VERTEX
  8
0
 62
7
  6
CONTINUOUS
 10
374.7080774921
 20
144.9494970378
  0
VERTEX
  8
0
 62
7
  6
CONTINUOUS
 10
376.1384529295
 20
150.3022330778
  0
VERTEX
  8
0
 62
7
  6
CONTINUOUS
 10
377.4323446315
 20
155.8532302673
  0
VERTEX
  8
0
 62
7
  6
CONTINUOUS
 10
378.5723142052
 20
161.492518812
  0
VERTEX
  8
0
 62
7
  6
CONTINUOUS
 10
379.5526378753
 20
167.0926335105
  0
VERTEX
  8
0
 62
7
  6
CONTINUOUS
 10
380.4146042708
 20
172.7791061434
  0
VERTEX
  8
0
 62
7
  6
CONTINUOUS
 10
381.1885025418
 20
178.6848559411
  0
VERTEX
  8
0
 62
7
  6
CONTINUOUS
 10
381.8671282793
 20
184.671911596
  0
VERTEX
  8
0
 62
7
  6
CONTINUOUS
 10
382.4530589347
 20
190.5994468106
  0
VERTEX
  8
0
 62
7
  6
CONTINUOUS
 10
382.9764607657
 20
196.598898116
  0
VERTEX
  8
0
 62
7
  6
CONTINUOUS
 10
383.4590230749
 20
202.8028685961
  0
VERTEX
  8
0
 62
7
  6
CONTINUOUS
 10
383.9012653674
 20
209.0780118413
  0
VERTEX
  8
0
 62
7
  6
CONTINUOUS
 10
384.3079993307
 20
215.3246336223
  0
VERTEX
  8
0
 62
7
  6
CONTINUOUS
 10
384.6876680687
 20
221.5710496988
  0
SEQEND
  0
POLYLINE
  8
0
 62
7
  6
CONTINUOUS
 66
1
 70
0
  0
VERTEX
  8
0
 62
7
  6
CONTINUOUS
 10
335.9758166725
 20
80.9819753242
  0
VERTEX
  8
0
 62
7
  6
CONTINUOUS
 10
342.4924697297
 20
87.6365075848
  0
VERTEX
  8
0
 62
7
  6
CONTINUOUS
 10
349.4722999358
 20
95.7159610391
  0
VERTEX
  8
0
 62
7
  6
CONTINUOUS
 10
355.7522378899
 20
104.0417602649
  0
VERTEX
  8
0
 62
7
  6
CONTINUOUS
 10
361.3113811919
 20
112.6409395254
  0
VERTEX
  8
0
 62
7
  6
CONTINUOUS
 10
365.9936396767
 20
121.2253221123
  0
VERTEX
  8
0
 62
7
  6
CONTINUOUS
 10
370.0502539911
 20
130.1753399978
  0
VERTEX
  8
0
 62
7
  6
CONTINUOUS
 10
373.5807131502
 20
139.7607037165
  0
VERTEX
  8
0
 62
7
  6
CONTINUOUS
 10
376.7270387221
 20
150.6381256996
  0
VERTEX
  8
0
 62
7
  6
CONTINUOUS
 10
379.4176258745
 20
163.0900263636
  0
VERTEX
  8
0
 62
7
  6
CONTINUOUS
 10
381.7284158556
 20
178.4556994739
  0
VERTEX
  8
0
 62
7
  6
CONTINUOUS
 10
383.6312255594
 20
198.4791524814
  0
VERTEX
  8
0
 62
7
  6
CONTINUOUS
 10
385.0058492498
 20
221.5141638853
  0
SEQEND
  0
LINE
  8
0
 62
7
  6
CONTINUOUS
 10
366.020710534
 20
221.9640111071
 11
366.0251363864
 21
220.6946771781
  0
POLYLINE
  8
0
 62
7
  6
CONTINUOUS
 66
1
 70
0
  0
VERTEX
  8
0
 62
7
  6
CONTINUOUS
 10
366.0251363864
 20
220.6946771781
  0
VERTEX
  8
0
 62
7
  6
CONTINUOUS
 10
365.9597972332
 20
210.5740004228
  0
VERTEX
  8
0
 62
7
  6
CONTINUOUS
 10
365.7037899747
 20
200.5732243749
  0
VERTEX
  8
0
 62
7
  6
CONTINUOUS
 10
365.2424596758
 20
190.7242541085
  0
VERTEX
  8
0
 62
7
  6
CONTINUOUS
 10
364.5264586927
 20
181.0164545952
  0
VERTEX
  8
0
 62
7
  6
CONTINUOUS
 10
363.4985703696
 20
171.4498448838
  0
VERTEX
  8
0
 62
7
  6
CONTINUOUS
 10
362.0842567531
 20
162.0353436004
  0
VERTEX
  8
0
 62
7
  6
CONTINUOUS
 10
360.1945730807
 20
152.7474215283
  0
VERTEX
  8
0
 62
7
  6
CONTINUOUS
 10
357.7691882998
 20
143.7134539507
  0
VERTEX
  8
0
 62
7
  6
CONTINUOUS
 10
354.7601428293
 20
135.022686073
  0
VERTEX
  8
0
 62
7
  6
CONTINUOUS
 10
351.1390270072
 20
126.7300212311
  0
VERTEX
  8
0
 62
7
  6
CONTINUOUS
 10
346.8991667764
 20
118.8849079512
  0
VERTEX
  8
0
 62
7
  6
CONTINUOUS
 10
342.0795039142
 20
111.5418053576
  0
VERTEX
  8
0
 62
7
  6
CONTINUOUS
 10
336.7609390967
 20
104.7613072676
  0
VERTEX
  8
0
 62
7
  6
CONTINUOUS
 10
330.9968362656
 20
98.509786917
  0
VERTEX
  8
0
 62
7
  6
CONTINUOUS
 10
324.8536519302
 20
92.7625334857
  0
VERTEX
  8
0
 62
7
  6
CONTINUOUS
 10
318.4124981255
 20
87.5077488051
  0
SEQEND
  0
POLYLINE
  8
0
 62
7
  6
CONTINUOUS
 66
1
 70
0
  0
VERTEX
  8
0
 62
7
  6
CONTINUOUS
 10
385.0058324742
 20
221.5141682844
  0
VERTEX
  8
0
 62
7
  6
CONTINUOUS
 10
385.003554629
 20
221.7494928976
  0
VERTEX
  8
0
 62
7
  6
CONTINUOUS
 10
384.9651962994
 20
222.0264677589
  0
VERTEX
  8
0
 62
7
  6
CONTINUOUS
 10
384.8849708341
 20
222.3048466418
  0
VERTEX
  8
0
 62
7
  6
CONTINUOUS
 10
384.7600060013
 20
222.5773068112
  0
VERTEX
  8
0
 62
7
  6
CONTINUOUS
 10
384.5898994773
 20
222.8371422906
  0
VERTEX
  8
0
 62
7
  6
CONTINUOUS
 10
384.3741605506
 20
223.0743216826
  0
VERTEX
  8
0
 62
7
  6
CONTINUOUS
 10
384.1120891541
 20
223.2805310577
  0
VERTEX
  8
0
 62
7
  6
CONTINUOUS
 10
383.8058167124
 20
223.4475530608
  0
VERTEX
  8
0
 62
7
  6
CONTINUOUS
 10
383.4698445236
 20
223.5594979947
  0
SEQEND
  0
POLYLINE
  8
0
 62
7
  6
CONTINUOUS
 66
1
 70
0
  0
VERTEX
  8
0
 62
7
  6
CONTINUOUS
 10
384.1194288767
 20
223.0872730358
  0
VERTEX
  8
0
 62
7
  6
CONTINUOUS
 10
384.3724381809
 20
222.7683162019
  0
VERTEX
  8
0
 62
7
  6
CONTINUOUS
 10
384.5594948178
 20
222.3977776459
  0
VERTEX
  8
0
 62
7
  6
CONTINUOUS
 10
384.6667709844
 20
221.9884703781
  0
VERTEX
  8
0
 62
7
  6
CONTINUOUS
 10
384.6859273651
 20
221.5711886893
  0
SEQEND
  0
ENDSEC
  0
EOF
