999
DXF file: K:\Client\125_Heirloom\001\00\Final_Data\Drawings\BASINS\lineal-362112_1.dxf
999
Pro/ENGINEER 2017110 by Parametric Technology Corporation
  0
SECTION
  2
HEADER
  9
$EXTMAX
 10
420.0
 20
297.0
 30
0.0
  9
$EXTMIN
 10
0.0
 20
0.0
 30
0.0
  9
$LIMMIN
 10
0.0
 20
0.0
  9
$LIMMAX
 10
420.0
 20
297.0
  9
$VIEWCTR
 10
210.0
 20
148.5
  9
$VIEWSIZE
 40
297.0
  9
$CLAYER
  8
0
  9
$LTSCALE
 40
23.1
  9
$CELTYPE
  6
BYLAYER
  9
$DIMSCALE
 40
1.0
  9
$DIMASZ
 40
3.0
  9
$DIMEXO
 40
1.0
  9
$DIMDLI
 40
15.96
  9
$DIMEXE
 40
1.0
  9
$DIMCEN
 40
3.78
  9
$DIMLFAC
 40
1.0
  9
$DIMBLK
  1
_FILLED
  9
$DIMALT
 70
0
  9
$DIMALTF
 40
0.0393700787
  9
$DIMTXT
 40
3.0
  9
$AUNITS
 70
0
  9
$PDMODE
 70
3
  9
$PDSIZE
 40
5.0
  9
$TILEMODE
 70
1
  0
ENDSEC
  0
SECTION
  2
TABLES
  0
TABLE
  2
LTYPE
 70
6
  0
LTYPE
  2
BYBLOCK
 70
0
  3

 72
65
 73
0
 40
0.0
  0
LTYPE
  2
BYLAYER
 70
0
  3

 72
65
 73
0
 40
0.0
  0
LTYPE
  2
CONTINUOUS
 70
64
  3
Solid line
 72
65
 73
0
 40
0.0
  0
LTYPE
  2
CENTER
 70
64
  3
____ _ ____ _ ____ _ ____ _ ____ _ ____ _ ____
 72
65
 73
4
 40
0.6
 49
0.375
 49
-0.075
 49
0.075
 49
-0.075
  0
LTYPE
  2
HIDDEN
 70
64
  3
- - - - - - - - - - - - - - - - - - - -
 72
65
 73
2
 40
0.2
 49
0.1
 49
-0.1
  0
LTYPE
  2
PHANTOM
 70
64
  3
_____ _ _ _____ _ _ _____ _ _ _____
 72
65
 73
6
 40
0.8
 49
0.45
 49
-0.05
 49
0.1
 49
-0.05
 49
0.1
 49
-0.05
  0
LTYPE
  2
DOT
 70
64
  3
. . . . . . . . . . . . . . . . . . . .
 72
65
 73
2
 40
0.2
 49
0.1
 49
-0.1
  0
LTYPE
  2
DASHED
 70
64
  3
- - - - - - - - - - - - - - - - - - - -
 72
65
 73
2
 40
0.2
 49
0.1
 49
-0.1
  0
ENDTAB
  0
TABLE
  2
LAYER
 70
36
  0
LAYER
  2
0
 70
0
 62
7
  6
CONTINUOUS
  0
LAYER
  2
DEFAULT_1
 70
0
 62
7
  6
CENTER
  0
LAYER
  2
DEFAULT_2
 70
0
 62
8
  6
HIDDEN
  0
LAYER
  2
DEFAULT_3
 70
0
 62
7
  6
PHANTOM
  0
LAYER
  2
0000_BOM
 70
0
 62
7
  6
CONTINUOUS
  0
LAYER
  2
0000_REV_TABLE
 70
0
 62
7
  6
CONTINUOUS
  0
LAYER
  2
0000_STEVENS_NOTE
 70
0
 62
7
  6
CONTINUOUS
  0
LAYER
  2
01_DATUM_PLANES
 70
0
 62
7
  6
CONTINUOUS
  0
LAYER
  2
01_DEF_PLANES
 70
0
 62
7
  6
CONTINUOUS
  0
LAYER
  2
02_DATUM_COS
 70
0
 62
7
  6
CONTINUOUS
  0
LAYER
  2
90_IMP_FEAT
 70
0
 62
7
  6
CONTINUOUS
  0
LAYER
  2
95_STL
 70
0
 62
7
  6
CONTINUOUS
  0
LAYER
  2
99_SOLID
 70
0
 62
7
  6
CONTINUOUS
  0
LAYER
  2
CAD-MASTER_ZINC-PL
 70
0
 62
7
  6
CONTINUOUS
  0
LAYER
  2
CURVE
 70
0
 62
7
  6
CONTINUOUS
  0
LAYER
  2
SKEL
 70
0
 62
7
  6
CONTINUOUS
  0
LAYER
  2
SKETCH
 70
0
 62
7
  6
CONTINUOUS
  0
LAYER
  2
SURFACE
 70
0
 62
7
  6
CONTINUOUS
  0
ENDTAB
  0
TABLE
  2
STYLE
 70
1
  0
STYLE
  2
STANDARD
 70
0
 40
0.0
 41
0.75
 50
0.0
 71
0
 42
0.2
  3
txt
  4

  0
STYLE
  2
TEXTSTYLE_1
 70
0
 40
0.0
 41
0.8
 50
0.0
 71
0
 42
0.2
  3
gdt
  4

  0
ENDTAB
  0
ENDSEC
  0
SECTION
  2
BLOCKS
  0
ENDSEC
  0
SECTION
  2
ENTITIES
  0
POLYLINE
  8
0
 62
7
  6
CONTINUOUS
 66
1
 70
0
  0
VERTEX
  8
0
 62
7
  6
CONTINUOUS
 10
-114.8102457039
 20
223.1439845886
  0
VERTEX
  8
0
 62
7
  6
CONTINUOUS
 10
-114.8184088125
 20
223.1100114653
  0
VERTEX
  8
0
 62
7
  6
CONTINUOUS
 10
-114.843577128
 20
222.9812156822
  0
VERTEX
  8
0
 62
7
  6
CONTINUOUS
 10
-114.8627509579
 20
222.8553464656
  0
VERTEX
  8
0
 62
7
  6
CONTINUOUS
 10
-114.8758808493
 20
222.7327745252
  0
VERTEX
  8
0
 62
7
  6
CONTINUOUS
 10
-114.8828162427
 20
222.6158902645
  0
VERTEX
  8
0
 62
7
  6
CONTINUOUS
 10
-114.8836293133
 20
222.575209705
  0
SEQEND
  0
POLYLINE
  8
0
 62
7
  6
CONTINUOUS
 66
1
 70
0
  0
VERTEX
  8
0
 62
7
  6
CONTINUOUS
 10
-114.5247125699
 20
212.316844393
  0
VERTEX
  8
0
 62
7
  6
CONTINUOUS
 10
-113.1632128402
 20
193.9258158039
  0
VERTEX
  8
0
 62
7
  6
CONTINUOUS
 10
-110.8169893543
 20
177.133246822
  0
VERTEX
  8
0
 62
7
  6
CONTINUOUS
 10
-108.100203222
 20
161.8416574111
  0
VERTEX
  8
0
 62
7
  6
CONTINUOUS
 10
-105.01544898
 20
148.1509481343
  0
VERTEX
  8
0
 62
7
  6
CONTINUOUS
 10
-101.6375208688
 20
137.052679033
  0
VERTEX
  8
0
 62
7
  6
CONTINUOUS
 10
-97.411703602
 20
126.335701391
  0
VERTEX
  8
0
 62
7
  6
CONTINUOUS
 10
-91.1762782147
 20
113.2314392704
  0
VERTEX
  8
0
 62
7
  6
CONTINUOUS
 10
-83.8855117097
 20
100.0830657345
  0
VERTEX
  8
0
 62
7
  6
CONTINUOUS
 10
-76.3752945915
 20
88.4577819031
  0
VERTEX
  8
0
 62
7
  6
CONTINUOUS
 10
-68.9492608486
 20
78.4752784465
  0
SEQEND
  0
POLYLINE
  8
0
 62
9
  6
CONTINUOUS
 66
1
 70
0
  0
VERTEX
  8
0
 62
9
  6
CONTINUOUS
 10
-114.5233766739
 20
212.3193943848
  0
VERTEX
  8
0
 62
9
  6
CONTINUOUS
 10
-113.9438972945
 20
202.7583086734
  0
VERTEX
  8
0
 62
9
  6
CONTINUOUS
 10
-112.9871408535
 20
193.0855224923
  0
VERTEX
  8
0
 62
9
  6
CONTINUOUS
 10
-111.7205104532
 20
183.5779073603
  0
VERTEX
  8
0
 62
9
  6
CONTINUOUS
 10
-110.2411846348
 20
174.2107431523
  0
VERTEX
  8
0
 62
9
  6
CONTINUOUS
 10
-108.5659489957
 20
164.8017128443
  0
VERTEX
  8
0
 62
9
  6
CONTINUOUS
 10
-106.6647807192
 20
155.4977842822
  0
VERTEX
  8
0
 62
9
  6
CONTINUOUS
 10
-104.3837614273
 20
146.2739245021
  0
VERTEX
  8
0
 62
9
  6
CONTINUOUS
 10
-101.5375655247
 20
137.1205798666
  0
VERTEX
  8
0
 62
9
  6
CONTINUOUS
 10
-98.1359125061
 20
128.2756942443
  0
VERTEX
  8
0
 62
9
  6
CONTINUOUS
 10
-94.249172088
 20
119.6335085925
  0
VERTEX
  8
0
 62
9
  6
CONTINUOUS
 10
-89.9574992385
 20
111.0870160193
  0
VERTEX
  8
0
 62
9
  6
CONTINUOUS
 10
-85.2995221399
 20
102.6693203295
  0
VERTEX
  8
0
 62
9
  6
CONTINUOUS
 10
-80.2491634451
 20
94.4118309168
  0
VERTEX
  8
0
 62
9
  6
CONTINUOUS
 10
-74.8045420889
 20
86.3295819025
  0
VERTEX
  8
0
 62
9
  6
CONTINUOUS
 10
-68.9433865939
 20
78.4753191157
  0
SEQEND
  0
LINE
  8
0
 62
7
  6
CONTINUOUS
 10
-114.6650722299
 20
215.8136283428
 11
-114.5233766739
 21
212.3193943848
  0
LINE
  8
0
 62
7
  6
CONTINUOUS
 10
-114.5247187183
 20
212.3169992987
 11
-114.5247125699
 21
212.316844393
  0
LINE
  8
0
 62
7
  6
CONTINUOUS
 10
-114.7487096529
 20
218.0539844238
 11
-114.6616003735
 21
215.7250908586
  0
LINE
  8
0
 62
7
  6
CONTINUOUS
 10
-114.7539871438
 20
218.2036313686
 11
-114.7078420035
 21
216.9309732728
  0
LINE
  8
0
 62
7
  6
CONTINUOUS
 10
-114.8006216827
 20
219.5796926006
 11
-114.7487096529
 21
218.0539844238
  0
LINE
  8
0
 62
7
  6
CONTINUOUS
 10
-114.8464154545
 20
221.0443273354
 11
-114.7946184684
 21
219.3966838697
  0
LINE
  8
0
 62
7
  6
CONTINUOUS
 10
-114.8851480539
 20
222.3976840927
 11
-114.839910536
 21
220.8281241309
  0
LINE
  8
0
 62
7
  6
CONTINUOUS
 10
-114.8851480539
 20
222.3976840927
 11
-114.8851592662
 21
222.3982252274
  0
POLYLINE
  8
0
 62
7
  6
CONTINUOUS
 66
1
 70
0
  0
VERTEX
  8
0
 62
7
  6
CONTINUOUS
 10
-114.3145988488
 20
224.2372778946
  0
VERTEX
  8
0
 62
7
  6
CONTINUOUS
 10
-114.3911158579
 20
224.1267356384
  0
VERTEX
  8
0
 62
7
  6
CONTINUOUS
 10
-114.4640102608
 20
224.0105304558
  0
VERTEX
  8
0
 62
7
  6
CONTINUOUS
 10
-114.532448082
 20
223.8893774363
  0
VERTEX
  8
0
 62
7
  6
CONTINUOUS
 10
-114.5957013152
 20
223.7641033721
  0
VERTEX
  8
0
 62
7
  6
CONTINUOUS
 10
-114.6289231052
 20
223.6898114732
  0
SEQEND
  0
POLYLINE
  8
0
 62
7
  6
CONTINUOUS
 66
1
 70
0
  0
VERTEX
  8
0
 62
7
  6
CONTINUOUS
 10
-114.0731251152
 20
224.5293152369
  0
VERTEX
  8
0
 62
7
  6
CONTINUOUS
 10
-114.1548063814
 20
224.4387265275
  0
VERTEX
  8
0
 62
7
  6
CONTINUOUS
 10
-114.2354047663
 20
224.3415408252
  0
VERTEX
  8
0
 62
7
  6
CONTINUOUS
 10
-114.3145988488
 20
224.2372778946
  0
SEQEND
  0
POLYLINE
  8
0
 62
7
  6
CONTINUOUS
 66
1
 70
0
  0
VERTEX
  8
0
 62
7
  6
CONTINUOUS
 10
-112.456272046
 20
225.420684617
  0
VERTEX
  8
0
 62
7
  6
CONTINUOUS
 10
-113.0160427322
 20
225.2545314683
  0
VERTEX
  8
0
 62
7
  6
CONTINUOUS
 10
-113.5273310271
 20
224.9868195792
  0
VERTEX
  8
0
 62
7
  6
CONTINUOUS
 10
-113.9771503843
 20
224.6268803672
  0
VERTEX
  8
0
 62
7
  6
CONTINUOUS
 10
-114.3502650337
 20
224.1870342943
  0
VERTEX
  8
0
 62
7
  6
CONTINUOUS
 10
-114.6326094345
 20
223.6832337809
  0
VERTEX
  8
0
 62
7
  6
CONTINUOUS
 10
-114.8129087753
 20
223.1359003213
  0
VERTEX
  8
0
 62
7
  6
CONTINUOUS
 10
-114.8852955464
 20
222.5619993805
  0
VERTEX
  8
0
 62
7
  6
CONTINUOUS
 10
-114.8854285371
 20
222.3932877737
  0
SEQEND
  0
LINE
  8
0
 62
7
  6
CONTINUOUS
 10
-68.9434379175
 20
78.4752784465
 11
437.4942220026
 21
78.4752784465
  0
POLYLINE
  8
0
 62
9
  6
CONTINUOUS
 66
1
 70
0
  0
VERTEX
  8
0
 62
9
  6
CONTINUOUS
 10
169.2839179282
 20
225.1987648867
  0
VERTEX
  8
0
 62
9
  6
CONTINUOUS
 10
169.2797673191
 20
225.4057382785
  0
VERTEX
  8
0
 62
9
  6
CONTINUOUS
 10
169.2753918548
 20
225.4752784465
  0
SEQEND
  0
LINE
  8
0
 62
9
  6
CONTINUOUS
 10
169.2904408262
 20
224.4652064205
 11
169.2839179282
 21
225.1987648867
  0
LINE
  8
0
 62
9
  6
CONTINUOUS
 10
169.2753894148
 20
78.4753717979
 11
169.2753952347
 21
222.1900195252
  0
POLYLINE
  8
0
 62
9
  6
CONTINUOUS
 66
1
 70
0
  0
VERTEX
  8
0
 62
9
  6
CONTINUOUS
 10
169.2947848604
 20
222.1896626406
  0
VERTEX
  8
0
 62
9
  6
CONTINUOUS
 10
169.2949527281
 20
222.8029452286
  0
VERTEX
  8
0
 62
9
  6
CONTINUOUS
 10
169.2904408262
 20
224.4652064205
  0
SEQEND
  0
LINE
  8
0
 62
9
  6
CONTINUOUS
 10
199.2754382653
 20
222.1900192187
 11
199.2753946703
 21
78.4753717987
  0
LINE
  8
0
 62
9
  6
CONTINUOUS
 10
199.257666581
 20
223.971815122
 11
199.255034581
 21
222.1896617849
  0
POLYLINE
  8
0
 62
9
  6
CONTINUOUS
 66
1
 70
0
  0
VERTEX
  8
0
 62
9
  6
CONTINUOUS
 10
199.27539218
 20
225.4752788301
  0
VERTEX
  8
0
 62
9
  6
CONTINUOUS
 10
199.2718582308
 20
225.4301694352
  0
VERTEX
  8
0
 62
9
  6
CONTINUOUS
 10
199.2683611912
 20
225.2924311421
  0
VERTEX
  8
0
 62
9
  6
CONTINUOUS
 10
199.2650895279
 20
225.0668790787
  0
VERTEX
  8
0
 62
9
  6
CONTINUOUS
 10
199.2621559379
 20
224.7622784395
  0
VERTEX
  8
0
 62
9
  6
CONTINUOUS
 10
199.257666581
 20
223.971815122
  0
SEQEND
  0
POLYLINE
  8
0
 62
9
  6
CONTINUOUS
 66
1
 70
0
  0
VERTEX
  8
0
 62
9
  6
CONTINUOUS
 10
481.9923653865
 20
222.2617106256
  0
VERTEX
  8
0
 62
9
  6
CONTINUOUS
 10
480.5758174602
 20
222.2417838197
  0
VERTEX
  8
0
 62
9
  6
CONTINUOUS
 10
479.5515237994
 20
222.2228264148
  0
VERTEX
  8
0
 62
9
  6
CONTINUOUS
 10
478.3328790278
 20
222.2336358224
  0
VERTEX
  8
0
 62
9
  6
CONTINUOUS
 10
476.9798920897
 20
222.2504548644
  0
SEQEND
  0
POLYLINE
  8
0
 62
9
  6
CONTINUOUS
 66
1
 70
0
  0
VERTEX
  8
0
 62
9
  6
CONTINUOUS
 10
476.9798920897
 20
222.2504548644
  0
VERTEX
  8
0
 62
9
  6
CONTINUOUS
 10
473.652397326
 20
222.2279648063
  0
VERTEX
  8
0
 62
9
  6
CONTINUOUS
 10
471.6550005123
 20
222.2568362683
  0
VERTEX
  8
0
 62
9
  6
CONTINUOUS
 10
469.5333365571
 20
222.2709579128
  0
VERTEX
  8
0
 62
9
  6
CONTINUOUS
 10
467.26028568
 20
222.270296709
  0
VERTEX
  8
0
 62
9
  6
CONTINUOUS
 10
464.7952693186
 20
222.2770556309
  0
VERTEX
  8
0
 62
9
  6
CONTINUOUS
 10
462.2160062952
 20
222.2765214952
  0
VERTEX
  8
0
 62
9
  6
CONTINUOUS
 10
450.9671408933
 20
222.2704438529
  0
SEQEND
  0
POLYLINE
  8
0
 62
9
  6
CONTINUOUS
 66
1
 70
0
  0
VERTEX
  8
0
 62
9
  6
CONTINUOUS
 10
390.1564283285
 20
222.1736981669
  0
VERTEX
  8
0
 62
9
  6
CONTINUOUS
 10
385.4046076607
 20
222.1441831861
  0
VERTEX
  8
0
 62
9
  6
CONTINUOUS
 10
380.5303865632
 20
222.1400979964
  0
VERTEX
  8
0
 62
9
  6
CONTINUOUS
 10
375.6857657689
 20
222.1410608705
  0
VERTEX
  8
0
 62
9
  6
CONTINUOUS
 10
370.6931912797
 20
222.137322833
  0
VERTEX
  8
0
 62
9
  6
CONTINUOUS
 10
365.3425129186
 20
222.1369416044
  0
VERTEX
  8
0
 62
9
  6
CONTINUOUS
 10
359.8494993458
 20
222.153402399
  0
VERTEX
  8
0
 62
9
  6
CONTINUOUS
 10
354.4543635511
 20
222.1688101585
  0
VERTEX
  8
0
 62
9
  6
CONTINUOUS
 10
348.9198311866
 20
222.1679921248
  0
VERTEX
  8
0
 62
9
  6
CONTINUOUS
 10
342.9852551668
 20
222.1565202856
  0
VERTEX
  8
0
 62
9
  6
CONTINUOUS
 10
336.9109141223
 20
222.1807140308
  0
VERTEX
  8
0
 62
9
  6
CONTINUOUS
 10
331.0126684025
 20
222.1944582865
  0
VERTEX
  8
0
 62
9
  6
CONTINUOUS
 10
324.9745780984
 20
222.1995044517
  0
VERTEX
  8
0
 62
9
  6
CONTINUOUS
 10
318.4655671453
 20
222.2359015878
  0
VERTEX
  8
0
 62
9
  6
CONTINUOUS
 10
311.8197747623
 20
222.2110682859
  0
VERTEX
  8
0
 62
9
  6
CONTINUOUS
 10
305.316172782
 20
222.1925062909
  0
VERTEX
  8
0
 62
9
  6
CONTINUOUS
 10
298.6049872204
 20
222.2046259501
  0
VERTEX
  8
0
 62
9
  6
CONTINUOUS
 10
291.3405481165
 20
222.2040478359
  0
VERTEX
  8
0
 62
9
  6
CONTINUOUS
 10
283.890263983
 20
222.2075232588
  0
VERTEX
  8
0
 62
9
  6
CONTINUOUS
 10
276.6518592883
 20
222.2161594061
  0
VERTEX
  8
0
 62
9
  6
CONTINUOUS
 10
269.1909008
 20
222.2279987297
  0
VERTEX
  8
0
 62
9
  6
CONTINUOUS
 10
261.0566195584
 20
222.2338009145
  0
VERTEX
  8
0
 62
9
  6
CONTINUOUS
 10
252.6980882713
 20
222.2506167506
  0
VERTEX
  8
0
 62
9
  6
CONTINUOUS
 10
244.5838397592
 20
222.2872509143
  0
SEQEND
  0
POLYLINE
  8
0
 62
9
  6
CONTINUOUS
 66
1
 70
0
  0
VERTEX
  8
0
 62
9
  6
CONTINUOUS
 10
124.8545443831
 20
222.2868765603
  0
VERTEX
  8
0
 62
9
  6
CONTINUOUS
 10
116.8443618141
 20
222.2519158802
  0
VERTEX
  8
0
 62
9
  6
CONTINUOUS
 10
108.6094252261
 20
222.2369193872
  0
VERTEX
  8
0
 62
9
  6
CONTINUOUS
 10
100.5826238716
 20
222.2293940228
  0
VERTEX
  8
0
 62
9
  6
CONTINUOUS
 10
93.1814877029
 20
222.2140890276
  0
VERTEX
  8
0
 62
9
  6
CONTINUOUS
 10
85.9910163529
 20
222.2089656656
  0
VERTEX
  8
0
 62
9
  6
CONTINUOUS
 10
78.6036375
 20
222.207724142
  0
VERTEX
  8
0
 62
9
  6
CONTINUOUS
 10
71.3893630317
 20
222.2042491318
  0
VERTEX
  8
0
 62
9
  6
CONTINUOUS
 10
64.6959862876
 20
222.1912183791
  0
VERTEX
  8
0
 62
9
  6
CONTINUOUS
 10
58.2004929998
 20
222.2111082217
  0
VERTEX
  8
0
 62
9
  6
CONTINUOUS
 10
51.5704096506
 20
222.2356653452
  0
VERTEX
  8
0
 62
9
  6
CONTINUOUS
 10
45.0752037455
 20
222.2006164276
  0
VERTEX
  8
0
 62
9
  6
CONTINUOUS
 10
39.0438165499
 20
222.1998696095
  0
VERTEX
  8
0
 62
9
  6
CONTINUOUS
 10
33.1445657191
 20
222.1826585029
  0
VERTEX
  8
0
 62
9
  6
CONTINUOUS
 10
27.0663446234
 20
222.1570692948
  0
VERTEX
  8
0
 62
9
  6
CONTINUOUS
 10
21.1273744983
 20
222.1691027989
  0
VERTEX
  8
0
 62
9
  6
CONTINUOUS
 10
15.5924156886
 20
222.1696021837
  0
VERTEX
  8
0
 62
9
  6
CONTINUOUS
 10
4.6836440284
 20
222.1405197853
  0
SEQEND
  0
POLYLINE
  8
0
 62
9
  6
CONTINUOUS
 66
1
 70
0
  0
VERTEX
  8
0
 62
9
  6
CONTINUOUS
 10
244.5838397592
 20
222.2872509143
  0
VERTEX
  8
0
 62
9
  6
CONTINUOUS
 10
227.1401713072
 20
222.2270969932
  0
VERTEX
  8
0
 62
9
  6
CONTINUOUS
 10
217.7675244563
 20
222.2240930745
  0
VERTEX
  8
0
 62
9
  6
CONTINUOUS
 10
208.5212023904
 20
222.2124354631
  0
VERTEX
  8
0
 62
9
  6
CONTINUOUS
 10
199.2754382653
 20
222.1900192187
  0
SEQEND
  0
POLYLINE
  8
0
 62
9
  6
CONTINUOUS
 66
1
 70
0
  0
VERTEX
  8
0
 62
9
  6
CONTINUOUS
 10
-53.5923859069
 20
222.3011589082
  0
VERTEX
  8
0
 62
9
  6
CONTINUOUS
 10
-60.9198775308
 20
222.2790780705
  0
VERTEX
  8
0
 62
9
  6
CONTINUOUS
 10
-67.9288573744
 20
222.2657322369
  0
SEQEND
  0
LINE
  8
0
 62
9
  6
CONTINUOUS
 10
447.9173465692
 20
222.2718055352
 11
441.4535363826
 21
222.2596696677
  0
POLYLINE
  8
0
 62
9
  6
CONTINUOUS
 66
1
 70
0
  0
VERTEX
  8
0
 62
9
  6
CONTINUOUS
 10
-92.1337501646
 20
222.2765051786
  0
VERTEX
  8
0
 62
9
  6
CONTINUOUS
 10
-94.7652504918
 20
222.2720945034
  0
VERTEX
  8
0
 62
9
  6
CONTINUOUS
 10
-97.28542585
 20
222.2727554172
  0
VERTEX
  8
0
 62
9
  6
CONTINUOUS
 10
-99.6091590446
 20
222.284510973
  0
VERTEX
  8
0
 62
9
  6
CONTINUOUS
 10
-101.812184372
 20
222.2626055226
  0
VERTEX
  8
0
 62
9
  6
CONTINUOUS
 10
-103.9517413633
 20
222.2280103869
  0
VERTEX
  8
0
 62
9
  6
CONTINUOUS
 10
-105.8974389219
 20
222.2437387373
  0
VERTEX
  8
0
 62
9
  6
CONTINUOUS
 10
-107.5569938032
 20
222.2540784821
  0
VERTEX
  8
0
 62
9
  6
CONTINUOUS
 10
-109.0326170788
 20
222.234374765
  0
VERTEX
  8
0
 62
9
  6
CONTINUOUS
 10
-110.3878132237
 20
222.2194451216
  0
VERTEX
  8
0
 62
9
  6
CONTINUOUS
 10
-112.4462250776
 20
222.2530047247
  0
SEQEND
  0
LINE
  8
0
 62
9
  6
CONTINUOUS
 10
-67.9288573744
 20
222.2657322369
 11
-71.3249451838
 21
222.261610661
  0
LINE
  8
0
 62
9
  6
CONTINUOUS
 10
189.2679996685
 20
222.1811417764
 11
199.255034581
 21
222.1896617849
  0
POLYLINE
  8
0
 62
9
  6
CONTINUOUS
 66
1
 70
0
  0
VERTEX
  8
0
 62
9
  6
CONTINUOUS
 10
4.6836440284
 20
222.1405197853
  0
VERTEX
  8
0
 62
9
  6
CONTINUOUS
 10
-0.6931733007
 20
222.1398089538
  0
VERTEX
  8
0
 62
9
  6
CONTINUOUS
 10
-5.7207445634
 20
222.1419356808
  0
VERTEX
  8
0
 62
9
  6
CONTINUOUS
 10
-10.6063329416
 20
222.1380375774
  0
VERTEX
  8
0
 62
9
  6
CONTINUOUS
 10
-15.5295312656
 20
222.1390040972
  0
VERTEX
  8
0
 62
9
  6
CONTINUOUS
 10
-20.320240281
 20
222.1674103473
  0
VERTEX
  8
0
 62
9
  6
CONTINUOUS
 10
-29.2369271505
 20
222.224356578
  0
SEQEND
  0
LINE
  8
0
 62
7
  6
CONTINUOUS
 10
-111.8879125485
 20
225.4752784465
 11
480.4389006445
 21
225.4752784465
  0
LINE
  8
0
 62
9
  6
CONTINUOUS
 10
179.2808665693
 20
222.1811330961
 11
189.2679996685
 21
222.1811417764
  0
LINE
  8
0
 62
9
  6
CONTINUOUS
 10
450.9671408933
 20
222.2704438529
 11
447.9173465692
 21
222.2718055352
  0
LINE
  8
0
 62
9
  6
CONTINUOUS
 10
169.2947848604
 20
222.1896626406
 11
179.2808665693
 21
222.1811330961
  0
POLYLINE
  8
0
 62
9
  6
CONTINUOUS
 66
1
 70
0
  0
VERTEX
  8
0
 62
9
  6
CONTINUOUS
 10
-71.3249451838
 20
222.261610661
  0
VERTEX
  8
0
 62
9
  6
CONTINUOUS
 10
-77.7575246547
 20
222.26878336
  0
VERTEX
  8
0
 62
9
  6
CONTINUOUS
 10
-80.8059156435
 20
222.2684275224
  0
VERTEX
  8
0
 62
9
  6
CONTINUOUS
 10
-83.8212704749
 20
222.2711999307
  0
VERTEX
  8
0
 62
9
  6
CONTINUOUS
 10
-92.1337501646
 20
222.2765051786
  0
SEQEND
  0
LINE
  8
0
 62
9
  6
CONTINUOUS
 10
441.4535363826
 20
222.2596696677
 11
430.9730207374
 21
222.2754759833
  0
POLYLINE
  8
0
 62
9
  6
CONTINUOUS
 66
1
 70
0
  0
VERTEX
  8
0
 62
9
  6
CONTINUOUS
 10
169.2753952347
 20
222.1900195252
  0
VERTEX
  8
0
 62
9
  6
CONTINUOUS
 10
160.2235446234
 20
222.2132634481
  0
VERTEX
  8
0
 62
9
  6
CONTINUOUS
 10
151.1686759641
 20
222.2231839176
  0
VERTEX
  8
0
 62
9
  6
CONTINUOUS
 10
141.9956915236
 20
222.2253452276
  0
VERTEX
  8
0
 62
9
  6
CONTINUOUS
 10
124.8545443831
 20
222.2868765603
  0
SEQEND
  0
POLYLINE
  8
0
 62
9
  6
CONTINUOUS
 66
1
 70
0
  0
VERTEX
  8
0
 62
9
  6
CONTINUOUS
 10
-112.4462250776
 20
222.2530047247
  0
VERTEX
  8
0
 62
9
  6
CONTINUOUS
 10
-113.1666951282
 20
222.2552204619
  0
VERTEX
  8
0
 62
9
  6
CONTINUOUS
 10
-113.7412810315
 20
222.2473282824
  0
VERTEX
  8
0
 62
9
  6
CONTINUOUS
 10
-114.1562804353
 20
222.2869043485
  0
VERTEX
  8
0
 62
9
  6
CONTINUOUS
 10
-114.4366849249
 20
222.3341368763
  0
VERTEX
  8
0
 62
9
  6
CONTINUOUS
 10
-114.6437856844
 20
222.3314619358
  0
VERTEX
  8
0
 62
9
  6
CONTINUOUS
 10
-114.8022499658
 20
222.3476969781
  0
VERTEX
  8
0
 62
9
  6
CONTINUOUS
 10
-114.8802331385
 20
222.3843759979
  0
VERTEX
  8
0
 62
9
  6
CONTINUOUS
 10
-114.8851480539
 20
222.3976840927
  0
SEQEND
  0
POLYLINE
  8
0
 62
9
  6
CONTINUOUS
 66
1
 70
0
  0
VERTEX
  8
0
 62
9
  6
CONTINUOUS
 10
430.9730207374
 20
222.2754759833
  0
VERTEX
  8
0
 62
9
  6
CONTINUOUS
 10
423.5775358071
 20
222.2968410488
  0
VERTEX
  8
0
 62
9
  6
CONTINUOUS
 10
419.7254875573
 20
222.3066957688
  0
VERTEX
  8
0
 62
9
  6
CONTINUOUS
 10
415.7857380309
 20
222.3123369625
  0
VERTEX
  8
0
 62
9
  6
CONTINUOUS
 10
411.7883233879
 20
222.3122589965
  0
VERTEX
  8
0
 62
9
  6
CONTINUOUS
 10
407.6920382308
 20
222.2912995405
  0
VERTEX
  8
0
 62
9
  6
CONTINUOUS
 10
403.4332796889
 20
222.2651560401
  0
VERTEX
  8
0
 62
9
  6
CONTINUOUS
 10
399.0718774335
 20
222.2338476355
  0
VERTEX
  8
0
 62
9
  6
CONTINUOUS
 10
390.1564283285
 20
222.1736981669
  0
SEQEND
  0
POLYLINE
  8
0
 62
9
  6
CONTINUOUS
 66
1
 70
0
  0
VERTEX
  8
0
 62
9
  6
CONTINUOUS
 10
-37.8294103212
 20
222.2840926854
  0
VERTEX
  8
0
 62
9
  6
CONTINUOUS
 10
-41.8900847404
 20
222.3086185274
  0
VERTEX
  8
0
 62
9
  6
CONTINUOUS
 10
-45.8495487748
 20
222.3117651847
  0
VERTEX
  8
0
 62
9
  6
CONTINUOUS
 10
-49.7644029605
 20
222.309191756
  0
VERTEX
  8
0
 62
9
  6
CONTINUOUS
 10
-53.5923859069
 20
222.3011589082
  0
SEQEND
  0
LINE
  8
0
 62
9
  6
CONTINUOUS
 10
-29.2369271505
 20
222.224356578
 11
-37.8294103212
 21
222.2840926854
  0
LINE
  8
0
 62
7
  6
CONTINUOUS
 10
-111.8865506808
 20
225.4752784465
 11
-112.456272046
 21
225.420684617
  0
POLYLINE
  8
0
 62
7
  6
CONTINUOUS
 66
1
 70
0
  0
VERTEX
  8
0
 62
7
  6
CONTINUOUS
 10
437.5000449085
 20
78.4752784465
  0
VERTEX
  8
0
 62
7
  6
CONTINUOUS
 10
445.0277548997
 20
88.6044401133
  0
VERTEX
  8
0
 62
7
  6
CONTINUOUS
 10
452.5101767541
 20
100.2067987753
  0
VERTEX
  8
0
 62
7
  6
CONTINUOUS
 10
459.7440384594
 20
113.2644614175
  0
VERTEX
  8
0
 62
7
  6
CONTINUOUS
 10
465.9607720027
 20
126.3322408621
  0
VERTEX
  8
0
 62
7
  6
CONTINUOUS
 10
470.2131029166
 20
137.1223215951
  0
VERTEX
  8
0
 62
7
  6
CONTINUOUS
 10
473.5711340513
 20
148.169520859
  0
VERTEX
  8
0
 62
7
  6
CONTINUOUS
 10
476.6233343301
 20
161.7005014244
  0
VERTEX
  8
0
 62
7
  6
CONTINUOUS
 10
479.3246935914
 20
176.8671964112
  0
VERTEX
  8
0
 62
7
  6
CONTINUOUS
 10
481.6937432665
 20
193.7465704579
  0
VERTEX
  8
0
 62
7
  6
CONTINUOUS
 10
483.0747949968
 20
212.319863199
  0
SEQEND
  0
POLYLINE
  8
0
 62
9
  6
CONTINUOUS
 66
1
 70
0
  0
VERTEX
  8
0
 62
9
  6
CONTINUOUS
 10
437.4941706725
 20
78.4753191208
  0
VERTEX
  8
0
 62
9
  6
CONTINUOUS
 10
440.4359580105
 20
82.3046655357
  0
VERTEX
  8
0
 62
9
  6
CONTINUOUS
 10
443.2724453197
 20
86.2121080179
  0
VERTEX
  8
0
 62
9
  6
CONTINUOUS
 10
446.0114882131
 20
90.177509053
  0
VERTEX
  8
0
 62
9
  6
CONTINUOUS
 10
448.6575737095
 20
94.1905205508
  0
VERTEX
  8
0
 62
9
  6
CONTINUOUS
 10
451.2100211815
 20
98.2494791435
  0
VERTEX
  8
0
 62
9
  6
CONTINUOUS
 10
453.6710409771
 20
102.3615355539
  0
VERTEX
  8
0
 62
9
  6
CONTINUOUS
 10
456.0440102455
 20
106.5306049789
  0
VERTEX
  8
0
 62
9
  6
CONTINUOUS
 10
458.3304943687
 20
110.7502363696
  0
VERTEX
  8
0
 62
9
  6
CONTINUOUS
 10
460.5333251441
 20
115.01575772
  0
VERTEX
  8
0
 62
9
  6
CONTINUOUS
 10
462.652241967
 20
119.3253397606
  0
VERTEX
  8
0
 62
9
  6
CONTINUOUS
 10
464.6874881274
 20
123.694531487
  0
VERTEX
  8
0
 62
9
  6
CONTINUOUS
 10
466.6201614375
 20
128.1175330898
  0
VERTEX
  8
0
 62
9
  6
CONTINUOUS
 10
468.4332091262
 20
132.6079961861
  0
VERTEX
  8
0
 62
9
  6
CONTINUOUS
 10
470.104703657
 20
137.1650428497
  0
VERTEX
  8
0
 62
9
  6
CONTINUOUS
 10
471.6149837297
 20
141.7630786953
  0
VERTEX
  8
0
 62
9
  6
CONTINUOUS
 10
472.9719639814
 20
146.4097806
  0
VERTEX
  8
0
 62
9
  6
CONTINUOUS
 10
474.1811468953
 20
151.0671233924
  0
VERTEX
  8
0
 62
9
  6
CONTINUOUS
 10
475.2703465057
 20
155.7451237647
  0
VERTEX
  8
0
 62
9
  6
CONTINUOUS
 10
476.2640615555
 20
160.4425739073
  0
VERTEX
  8
0
 62
9
  6
CONTINUOUS
 10
477.1815899195
 20
165.1454124643
  0
VERTEX
  8
0
 62
9
  6
CONTINUOUS
 10
478.0417635493
 20
169.8607717166
  0
VERTEX
  8
0
 62
9
  6
CONTINUOUS
 10
478.8517462661
 20
174.571112671
  0
VERTEX
  8
0
 62
9
  6
CONTINUOUS
 10
479.616457909
 20
179.2813867977
  0
VERTEX
  8
0
 62
9
  6
CONTINUOUS
 10
480.3334618655
 20
184.0018810608
  0
VERTEX
  8
0
 62
9
  6
CONTINUOUS
 10
480.9993759217
 20
188.7783115332
  0
VERTEX
  8
0
 62
9
  6
CONTINUOUS
 10
481.59538801
 20
193.5763569899
  0
VERTEX
  8
0
 62
9
  6
CONTINUOUS
 10
482.1055646226
 20
198.360211771
  0
VERTEX
  8
0
 62
9
  6
CONTINUOUS
 10
482.526235464
 20
203.1589899958
  0
VERTEX
  8
0
 62
9
  6
CONTINUOUS
 10
482.8546707683
 20
207.9709435963
  0
VERTEX
  8
0
 62
9
  6
CONTINUOUS
 10
483.0741544268
 20
212.3192725117
  0
SEQEND
  0
POLYLINE
  8
0
 62
7
  6
CONTINUOUS
 66
1
 70
0
  0
VERTEX
  8
0
 62
7
  6
CONTINUOUS
 10
483.436212621
 20
222.393287775
  0
VERTEX
  8
0
 62
7
  6
CONTINUOUS
 10
483.4360796295
 20
222.5619994099
  0
VERTEX
  8
0
 62
7
  6
CONTINUOUS
 10
483.3636928483
 20
223.1359003696
  0
SEQEND
  0
LINE
  8
0
 62
7
  6
CONTINUOUS
 10
483.4359004741
 20
222.3966675813
 11
483.4358891293
 21
222.3961133646
  0
LINE
  8
0
 62
7
  6
CONTINUOUS
 10
483.390694505
 20
220.8281203202
 11
483.4359321382
 21
222.3976840919
  0
LINE
  8
0
 62
7
  6
CONTINUOUS
 10
483.3454024312
 20
219.3966801661
 11
483.397199832
 21
221.0443371433
  0
LINE
  8
0
 62
7
  6
CONTINUOUS
 10
483.2994936134
 20
218.0539808971
 11
483.3514060273
 21
219.5797005595
  0
LINE
  8
0
 62
7
  6
CONTINUOUS
 10
483.212384341
 20
215.7250878479
 11
483.3047714432
 21
218.2036374626
  0
LINE
  8
0
 62
7
  6
CONTINUOUS
 10
483.2158564166
 20
215.8136309206
 11
483.0741530324
 21
212.3192399207
  0
LINE
  8
0
 62
7
  6
CONTINUOUS
 10
483.0741544268
 20
212.3192725117
 11
483.0835194801
 21
212.5420941336
  0
POLYLINE
  8
0
 62
9
  6
CONTINUOUS
 66
1
 70
0
  0
VERTEX
  8
0
 62
9
  6
CONTINUOUS
 10
483.4358891293
 20
222.3961133646
  0
VERTEX
  8
0
 62
9
  6
CONTINUOUS
 10
483.4340164499
 20
222.3878050834
  0
VERTEX
  8
0
 62
9
  6
CONTINUOUS
 10
483.3744141289
 20
222.352159638
  0
VERTEX
  8
0
 62
9
  6
CONTINUOUS
 10
483.2414093554
 20
222.338310644
  0
VERTEX
  8
0
 62
9
  6
CONTINUOUS
 10
483.0602758407
 20
222.3393011627
  0
VERTEX
  8
0
 62
9
  6
CONTINUOUS
 10
482.8190390241
 20
222.2941132026
  0
VERTEX
  8
0
 62
9
  6
CONTINUOUS
 10
482.4730677063
 20
222.2632048096
  0
VERTEX
  8
0
 62
9
  6
CONTINUOUS
 10
481.9923653865
 20
222.2617106256
  0
SEQEND
  0
POLYLINE
  8
0
 62
7
  6
CONTINUOUS
 66
1
 70
0
  0
VERTEX
  8
0
 62
7
  6
CONTINUOUS
 10
483.3636506644
 20
223.1360181041
  0
VERTEX
  8
0
 62
7
  6
CONTINUOUS
 10
483.1833362107
 20
223.6833286684
  0
VERTEX
  8
0
 62
7
  6
CONTINUOUS
 10
482.900984353
 20
224.1871051548
  0
VERTEX
  8
0
 62
7
  6
CONTINUOUS
 10
482.5278694216
 20
224.6269285104
  0
VERTEX
  8
0
 62
7
  6
CONTINUOUS
 10
482.0780562419
 20
224.9868479317
  0
VERTEX
  8
0
 62
7
  6
CONTINUOUS
 10
481.5667793524
 20
225.2545444799
  0
VERTEX
  8
0
 62
7
  6
CONTINUOUS
 10
481.0070242437
 20
225.4206877999
  0
VERTEX
  8
0
 62
7
  6
CONTINUOUS
 10
480.4373193426
 20
225.4752784465
  0
SEQEND
  0
ENDSEC
  0
EOF
