999
DXF file: K:\Client\125_Heirloom\001\00\Final_Data\Drawings\BASINS\lineal-362112_2.dxf
999
Pro/ENGINEER 2017110 by Parametric Technology Corporation
  0
SECTION
  2
HEADER
  9
$EXTMAX
 10
420.0
 20
297.0
 30
0.0
  9
$EXTMIN
 10
0.0
 20
0.0
 30
0.0
  9
$LIMMIN
 10
0.0
 20
0.0
  9
$LIMMAX
 10
420.0
 20
297.0
  9
$VIEWCTR
 10
210.0
 20
148.5
  9
$VIEWSIZE
 40
297.0
  9
$CLAYER
  8
0
  9
$LTSCALE
 40
23.1
  9
$CELTYPE
  6
BYLAYER
  9
$DIMSCALE
 40
1.0
  9
$DIMASZ
 40
3.0
  9
$DIMEXO
 40
1.0
  9
$DIMDLI
 40
15.96
  9
$DIMEXE
 40
1.0
  9
$DIMCEN
 40
3.78
  9
$DIMLFAC
 40
1.0
  9
$DIMBLK
  1
_FILLED
  9
$DIMALT
 70
0
  9
$DIMALTF
 40
0.0393700787
  9
$DIMTXT
 40
3.0
  9
$AUNITS
 70
0
  9
$PDMODE
 70
3
  9
$PDSIZE
 40
5.0
  9
$TILEMODE
 70
1
  0
ENDSEC
  0
SECTION
  2
TABLES
  0
TABLE
  2
LTYPE
 70
6
  0
LTYPE
  2
BYBLOCK
 70
0
  3

 72
65
 73
0
 40
0.0
  0
LTYPE
  2
BYLAYER
 70
0
  3

 72
65
 73
0
 40
0.0
  0
LTYPE
  2
CONTINUOUS
 70
64
  3
Solid line
 72
65
 73
0
 40
0.0
  0
LTYPE
  2
CENTER
 70
64
  3
____ _ ____ _ ____ _ ____ _ ____ _ ____ _ ____
 72
65
 73
4
 40
0.6
 49
0.375
 49
-0.075
 49
0.075
 49
-0.075
  0
LTYPE
  2
HIDDEN
 70
64
  3
- - - - - - - - - - - - - - - - - - - -
 72
65
 73
2
 40
0.2
 49
0.1
 49
-0.1
  0
LTYPE
  2
PHANTOM
 70
64
  3
_____ _ _ _____ _ _ _____ _ _ _____
 72
65
 73
6
 40
0.8
 49
0.45
 49
-0.05
 49
0.1
 49
-0.05
 49
0.1
 49
-0.05
  0
LTYPE
  2
DOT
 70
64
  3
. . . . . . . . . . . . . . . . . . . .
 72
65
 73
2
 40
0.2
 49
0.1
 49
-0.1
  0
LTYPE
  2
DASHED
 70
64
  3
- - - - - - - - - - - - - - - - - - - -
 72
65
 73
2
 40
0.2
 49
0.1
 49
-0.1
  0
ENDTAB
  0
TABLE
  2
LAYER
 70
36
  0
LAYER
  2
0
 70
0
 62
7
  6
CONTINUOUS
  0
LAYER
  2
DEFAULT_1
 70
0
 62
7
  6
CENTER
  0
LAYER
  2
DEFAULT_2
 70
0
 62
8
  6
HIDDEN
  0
LAYER
  2
DEFAULT_3
 70
0
 62
7
  6
PHANTOM
  0
LAYER
  2
0000_BOM
 70
0
 62
7
  6
CONTINUOUS
  0
LAYER
  2
0000_REV_TABLE
 70
0
 62
7
  6
CONTINUOUS
  0
LAYER
  2
0000_STEVENS_NOTE
 70
0
 62
7
  6
CONTINUOUS
  0
LAYER
  2
01_DATUM_PLANES
 70
0
 62
7
  6
CONTINUOUS
  0
LAYER
  2
01_DEF_PLANES
 70
0
 62
7
  6
CONTINUOUS
  0
LAYER
  2
02_DATUM_COS
 70
0
 62
7
  6
CONTINUOUS
  0
LAYER
  2
90_IMP_FEAT
 70
0
 62
7
  6
CONTINUOUS
  0
LAYER
  2
95_STL
 70
0
 62
7
  6
CONTINUOUS
  0
LAYER
  2
99_SOLID
 70
0
 62
7
  6
CONTINUOUS
  0
LAYER
  2
CAD-MASTER_ZINC-PL
 70
0
 62
7
  6
CONTINUOUS
  0
LAYER
  2
CURVE
 70
0
 62
7
  6
CONTINUOUS
  0
LAYER
  2
SKEL
 70
0
 62
7
  6
CONTINUOUS
  0
LAYER
  2
SKETCH
 70
0
 62
7
  6
CONTINUOUS
  0
LAYER
  2
SURFACE
 70
0
 62
7
  6
CONTINUOUS
  0
ENDTAB
  0
TABLE
  2
STYLE
 70
1
  0
STYLE
  2
STANDARD
 70
0
 40
0.0
 41
0.75
 50
0.0
 71
0
 42
0.2
  3
txt
  4

  0
STYLE
  2
TEXTSTYLE_1
 70
0
 40
0.0
 41
0.8
 50
0.0
 71
0
 42
0.2
  3
gdt
  4

  0
ENDTAB
  0
ENDSEC
  0
SECTION
  2
BLOCKS
  0
ENDSEC
  0
SECTION
  2
ENTITIES
  0
LINE
  8
0
 62
7
  6
CONTINUOUS
 10
-20.5524348943
 20
222.8291966309
 11
-20.5524524834
 21
222.8307101104
  0
POLYLINE
  8
0
 62
7
  6
CONTINUOUS
 66
1
 70
0
  0
VERTEX
  8
0
 62
7
  6
CONTINUOUS
 10
-20.4780363105
 20
224.7076127601
  0
VERTEX
  8
0
 62
7
  6
CONTINUOUS
 10
-20.7504332697
 20
224.1750061447
  0
VERTEX
  8
0
 62
7
  6
CONTINUOUS
 10
-20.9114794481
 20
223.6004166746
  0
VERTEX
  8
0
 62
7
  6
CONTINUOUS
 10
-20.9555454571
 20
223.0026779118
  0
VERTEX
  8
0
 62
7
  6
CONTINUOUS
 10
-20.9447665826
 20
222.815928119
  0
SEQEND
  0
LINE
  8
0
 62
7
  6
CONTINUOUS
 10
-20.0920497449
 20
214.1455986082
 11
-19.9262680214
 21
212.6283772183
  0
LINE
  8
0
 62
7
  6
CONTINUOUS
 10
-20.2530923268
 20
215.6644646293
 11
-20.090780008
 21
214.1338051892
  0
LINE
  8
0
 62
7
  6
CONTINUOUS
 10
-20.4104315578
 20
217.1956496874
 11
-20.2513093918
 21
215.6473899429
  0
LINE
  8
0
 62
7
  6
CONTINUOUS
 10
-20.5643017344
 20
218.7429728982
 11
-20.4080522845
 21
217.1721240296
  0
LINE
  8
0
 62
7
  6
CONTINUOUS
 10
-20.7151770092
 20
220.3132721515
 11
-20.5613082439
 21
218.7123670698
  0
LINE
  8
0
 62
7
  6
CONTINUOUS
 10
-20.8582139527
 20
221.8559246192
 11
-20.7115384108
 21
220.274738983
  0
LINE
  8
0
 62
7
  6
CONTINUOUS
 10
-20.9450241283
 20
222.8202990366
 11
-20.8582139527
 21
221.8559246192
  0
LINE
  8
0
 62
7
  6
CONTINUOUS
 10
-20.308875641
 20
220.0122751317
 11
-20.1814794374
 21
218.6019994516
  0
POLYLINE
  8
0
 62
7
  6
CONTINUOUS
 66
1
 70
0
  0
VERTEX
  8
0
 62
7
  6
CONTINUOUS
 10
-20.5524348943
 20
222.8291966309
  0
VERTEX
  8
0
 62
7
  6
CONTINUOUS
 10
-20.4692096882
 20
221.8458143231
  0
VERTEX
  8
0
 62
7
  6
CONTINUOUS
 10
-20.308875641
 20
220.0122751317
  0
SEQEND
  0
LINE
  8
0
 62
7
  6
CONTINUOUS
 10
-4.2217432145
 20
125.0995597652
 11
-3.7478135577
 21
123.6192858306
  0
LINE
  8
0
 62
7
  6
CONTINUOUS
 10
-4.677984241
 20
126.5741809066
 11
-4.2095730598
 21
125.0609063721
  0
LINE
  8
0
 62
7
  6
CONTINUOUS
 10
-5.1214190593
 20
128.0574046745
 11
-4.6648818911
 21
126.5311218922
  0
LINE
  8
0
 62
7
  6
CONTINUOUS
 10
-5.5566939463
 20
129.5645965764
 11
-5.1156425224
 21
128.0377516712
  0
LINE
  8
0
 62
7
  6
CONTINUOUS
 10
-7.7041632102
 20
137.5798795169
 11
-7.1064602683
 21
135.4997529755
  0
LINE
  8
0
 62
7
  6
CONTINUOUS
 10
-5.9846680522
 20
131.0993426706
 11
-5.5520274409
 21
129.5481569737
  0
LINE
  8
0
 62
7
  6
CONTINUOUS
 10
-8.9291218629
 20
142.8923084876
 11
-7.2158214041
 21
135.9077922522
  0
POLYLINE
  8
0
 62
7
  6
CONTINUOUS
 66
1
 70
0
  0
VERTEX
  8
0
 62
7
  6
CONTINUOUS
 10
-10.1418367991
 20
149.365828969
  0
VERTEX
  8
0
 62
7
  6
CONTINUOUS
 10
-9.9450830009
 20
148.348920601
  0
VERTEX
  8
0
 62
7
  6
CONTINUOUS
 10
-9.7321334595
 20
147.2654348638
  0
VERTEX
  8
0
 62
7
  6
CONTINUOUS
 10
-9.5046318212
 20
146.1279479082
  0
VERTEX
  8
0
 62
7
  6
CONTINUOUS
 10
-9.2653910829
 20
144.9543817267
  0
VERTEX
  8
0
 62
7
  6
CONTINUOUS
 10
-9.0121140536
 20
143.7373825556
  0
VERTEX
  8
0
 62
7
  6
CONTINUOUS
 10
-8.7436721561
 20
142.4760236466
  0
VERTEX
  8
0
 62
7
  6
CONTINUOUS
 10
-8.4589180964
 20
141.1698412324
  0
VERTEX
  8
0
 62
7
  6
CONTINUOUS
 10
-8.1561321209
 20
139.8163990352
  0
VERTEX
  8
0
 62
7
  6
CONTINUOUS
 10
-7.8353813383
 20
138.4217155976
  0
VERTEX
  8
0
 62
7
  6
CONTINUOUS
 10
-7.4958156812
 20
136.9878296291
  0
VERTEX
  8
0
 62
7
  6
CONTINUOUS
 10
-7.1384017584
 20
135.524372729
  0
VERTEX
  8
0
 62
7
  6
CONTINUOUS
 10
-6.7633161955
 20
134.0371561437
  0
VERTEX
  8
0
 62
7
  6
CONTINUOUS
 10
-6.3726086579
 20
132.5386359412
  0
VERTEX
  8
0
 62
7
  6
CONTINUOUS
 10
-5.9691127619
 20
131.0426041208
  0
SEQEND
  0
LINE
  8
0
 62
7
  6
CONTINUOUS
 10
-10.4830967414
 20
151.1644606651
 11
-10.1418367991
 21
149.365828969
  0
LINE
  8
0
 62
7
  6
CONTINUOUS
 10
-10.9392861551
 20
153.6320968319
 11
-10.4830967414
 21
151.1644606651
  0
POLYLINE
  8
0
 62
7
  6
CONTINUOUS
 66
1
 70
0
  0
VERTEX
  8
0
 62
7
  6
CONTINUOUS
 10
-12.209127909
 20
159.7706678055
  0
VERTEX
  8
0
 62
7
  6
CONTINUOUS
 10
-10.6924089132
 20
151.390882679
  0
VERTEX
  8
0
 62
7
  6
CONTINUOUS
 10
-8.9291218629
 20
142.8923084876
  0
SEQEND
  0
LINE
  8
0
 62
7
  6
CONTINUOUS
 10
-20.9450241283
 20
222.8202990366
 11
-20.945014467
 21
222.8202456849
  0
POLYLINE
  8
0
 62
7
  6
CONTINUOUS
 66
1
 70
0
  0
VERTEX
  8
0
 62
7
  6
CONTINUOUS
 10
-14.1913327199
 20
172.0643269659
  0
VERTEX
  8
0
 62
7
  6
CONTINUOUS
 10
-11.0963043329
 20
153.4125357925
  0
VERTEX
  8
0
 62
7
  6
CONTINUOUS
 10
-7.7041632102
 20
137.5798795169
  0
SEQEND
  0
LINE
  8
0
 62
7
  6
CONTINUOUS
 10
-13.5147020316
 20
167.7235041365
 11
-12.209127909
 21
159.7706678055
  0
LINE
  8
0
 62
7
  6
CONTINUOUS
 10
-14.87442346
 20
176.4922808115
 11
-13.5147020316
 21
167.7235041365
  0
LINE
  8
0
 62
7
  6
CONTINUOUS
 10
-16.4279502903
 20
186.5998185608
 11
-14.7191557818
 21
175.4829662461
  0
LINE
  8
0
 62
7
  6
CONTINUOUS
 10
-16.808138153
 20
189.1224818925
 11
-16.4266804833
 21
186.5914497358
  0
LINE
  8
0
 62
7
  6
CONTINUOUS
 10
-17.2125377465
 20
191.8492649237
 11
-16.8067295578
 21
189.1130683749
  0
LINE
  8
0
 62
7
  6
CONTINUOUS
 10
-17.4227638585
 20
193.2888709952
 11
-17.2086239208
 21
191.8226196452
  0
LINE
  8
0
 62
7
  6
CONTINUOUS
 10
-17.6347140103
 20
194.7584460983
 11
-17.417873647
 21
193.2551881505
  0
LINE
  8
0
 62
7
  6
CONTINUOUS
 10
-17.8451206759
 20
196.2376442567
 11
-17.629091394
 21
194.7192063682
  0
LINE
  8
0
 62
7
  6
CONTINUOUS
 10
-18.053376453
 20
197.7240544141
 11
-17.8390610275
 21
196.1947385935
  0
LINE
  8
0
 62
7
  6
CONTINUOUS
 10
-18.2577294797
 20
199.2066845815
 11
-18.0471784194
 21
197.6794717786
  0
LINE
  8
0
 62
7
  6
CONTINUOUS
 10
-18.4586587411
 20
200.6903146954
 11
-18.2517339429
 21
199.1628215786
  0
LINE
  8
0
 62
7
  6
CONTINUOUS
 10
-18.6561540685
 20
202.1763564717
 11
-18.4531243989
 21
200.6490821823
  0
LINE
  8
0
 62
7
  6
CONTINUOUS
 10
-18.8499097046
 20
203.6639646551
 11
-18.6512991722
 21
202.1394723954
  0
LINE
  8
0
 62
7
  6
CONTINUOUS
 10
-19.0396688576
 20
205.1524580781
 11
-18.8458748921
 21
203.6326655274
  0
LINE
  8
0
 62
7
  6
CONTINUOUS
 10
-19.2253744052
 20
206.6425593006
 11
-19.0365266122
 21
205.1275382707
  0
LINE
  8
0
 62
7
  6
CONTINUOUS
 10
-19.4069130623
 20
208.1344412151
 11
-19.22314581
 21
206.6244680667
  0
LINE
  8
0
 62
7
  6
CONTINUOUS
 10
-19.5842642515
 20
209.6289382303
 11
-19.4055624762
 21
208.1232050755
  0
LINE
  8
0
 62
7
  6
CONTINUOUS
 10
-19.7573826648
 20
211.1266161448
 11
-19.5837247881
 21
209.6243331649
  0
LINE
  8
0
 62
7
  6
CONTINUOUS
 10
-19.9270189141
 20
212.6351500033
 11
-19.7575290446
 21
211.1278998152
  0
LINE
  8
0
 62
7
  6
CONTINUOUS
 10
18.5950556809
 20
80.4074672794
 11
19.5891756604
 21
79.0820849534
  0
LINE
  8
0
 62
7
  6
CONTINUOUS
 10
17.2420329163
 20
82.2761617887
 11
18.5950556809
 21
80.4074672794
  0
POLYLINE
  8
0
 62
7
  6
CONTINUOUS
 66
1
 70
0
  0
VERTEX
  8
0
 62
7
  6
CONTINUOUS
 10
12.1204744916
 20
90.0415726998
  0
VERTEX
  8
0
 62
7
  6
CONTINUOUS
 10
12.7425578407
 20
89.0414682052
  0
VERTEX
  8
0
 62
7
  6
CONTINUOUS
 10
13.5089704718
 20
87.8298793765
  0
VERTEX
  8
0
 62
7
  6
CONTINUOUS
 10
14.4273433024
 20
86.4094328907
  0
VERTEX
  8
0
 62
7
  6
CONTINUOUS
 10
15.4839337102
 20
84.818682783
  0
VERTEX
  8
0
 62
7
  6
CONTINUOUS
 10
16.6705033254
 20
83.088403742
  0
VERTEX
  8
0
 62
7
  6
CONTINUOUS
 10
17.9798201525
 20
81.2478107515
  0
VERTEX
  8
0
 62
7
  6
CONTINUOUS
 10
19.3975412654
 20
79.3344916081
  0
VERTEX
  8
0
 62
7
  6
CONTINUOUS
 10
19.5891756556
 20
79.0820849534
  0
SEQEND
  0
LINE
  8
0
 62
7
  6
CONTINUOUS
 10
11.3055300861
 20
91.3715024921
 11
12.1204744916
 21
90.0415726998
  0
POLYLINE
  8
0
 62
7
  6
CONTINUOUS
 66
1
 70
0
  0
VERTEX
  8
0
 62
7
  6
CONTINUOUS
 10
9.6638234486
 20
94.0997619813
  0
VERTEX
  8
0
 62
7
  6
CONTINUOUS
 10
10.2349453582
 20
93.1411485954
  0
VERTEX
  8
0
 62
7
  6
CONTINUOUS
 10
10.6955532973
 20
92.3761224566
  0
VERTEX
  8
0
 62
7
  6
CONTINUOUS
 10
11.3055300861
 20
91.3715024921
  0
SEQEND
  0
LINE
  8
0
 62
7
  6
CONTINUOUS
 10
8.9771385677
 20
95.2692838951
 11
9.6663608802
 21
94.0954760032
  0
LINE
  8
0
 62
7
  6
CONTINUOUS
 10
8.1746166708
 20
96.6626972529
 11
9.1692929569
 21
94.9400227293
  0
LINE
  8
0
 62
7
  6
CONTINUOUS
 10
7.940928752
 20
97.0743556681
 11
8.6017740073
 21
95.9172423893
  0
LINE
  8
0
 62
7
  6
CONTINUOUS
 10
7.2070922748
 20
98.3858611898
 11
8.1746166708
 21
96.6626972529
  0
POLYLINE
  8
0
 62
7
  6
CONTINUOUS
 66
1
 70
0
  0
VERTEX
  8
0
 62
7
  6
CONTINUOUS
 10
3.0909125449
 20
106.3930994971
  0
VERTEX
  8
0
 62
7
  6
CONTINUOUS
 10
4.1071690675
 20
104.2981379576
  0
VERTEX
  8
0
 62
7
  6
CONTINUOUS
 10
5.1654268625
 20
102.2048920816
  0
VERTEX
  8
0
 62
7
  6
CONTINUOUS
 10
6.2236192812
 20
100.1921029977
  0
VERTEX
  8
0
 62
7
  6
CONTINUOUS
 10
7.2379210613
 20
98.3301691055
  0
SEQEND
  0
POLYLINE
  8
0
 62
7
  6
CONTINUOUS
 66
1
 70
0
  0
VERTEX
  8
0
 62
7
  6
CONTINUOUS
 10
2.98079152
 20
106.6255225251
  0
VERTEX
  8
0
 62
7
  6
CONTINUOUS
 10
3.8470355242
 20
104.8260860191
  0
VERTEX
  8
0
 62
7
  6
CONTINUOUS
 10
4.7076263214
 20
103.1000222365
  0
VERTEX
  8
0
 62
7
  6
CONTINUOUS
 10
5.5599721705
 20
101.4455167773
  0
VERTEX
  8
0
 62
7
  6
CONTINUOUS
 10
6.4030992715
 20
99.8580540154
  0
SEQEND
  0
LINE
  8
0
 62
7
  6
CONTINUOUS
 10
2.1322407441
 20
108.4548293817
 11
3.0909125449
 21
106.3930994971
  0
LINE
  8
0
 62
7
  6
CONTINUOUS
 10
1.2887787441
 20
110.3454015943
 11
2.1393791895
 21
108.4391463916
  0
LINE
  8
0
 62
7
  6
CONTINUOUS
 10
0.5256572237
 20
112.124201006
 11
1.3155827239
 21
110.2841402077
  0
LINE
  8
0
 62
7
  6
CONTINUOUS
 10
-0.1425853324
 20
113.7400957941
 11
0.5530869719
 21
112.0590680384
  0
LINE
  8
0
 62
7
  6
CONTINUOUS
 10
-0.7434512028
 20
115.2432976546
 11
-0.1242716537
 21
113.6950456281
  0
LINE
  8
0
 62
7
  6
CONTINUOUS
 10
-1.2939759724
 20
116.6653364754
 11
-0.7389790225
 21
115.231925291
  0
LINE
  8
0
 62
7
  6
CONTINUOUS
 10
-1.8136303277
 20
118.0498667452
 11
-1.2947061114
 21
116.6672523586
  0
LINE
  8
0
 62
7
  6
CONTINUOUS
 10
-2.3170866602
 20
119.4332990462
 11
-1.8106071934
 21
118.0416876141
  0
LINE
  8
0
 62
7
  6
CONTINUOUS
 10
-2.8043688915
 20
120.814624647
 11
-2.3133395025
 21
119.4228420055
  0
LINE
  8
0
 62
7
  6
CONTINUOUS
 10
-3.2830399205
 20
122.2150911498
 11
-2.8020859432
 21
120.8080512527
  0
LINE
  8
0
 62
7
  6
CONTINUOUS
 10
-3.7554286445
 20
123.6426750448
 11
-3.2806229602
 21
122.2079059854
  0
POLYLINE
  8
0
 62
7
  6
CONTINUOUS
 66
1
 70
0
  0
VERTEX
  8
0
 62
7
  6
CONTINUOUS
 10
-19.1247846966
 20
225.8452954237
  0
VERTEX
  8
0
 62
7
  6
CONTINUOUS
 10
-19.6494399635
 20
225.5588322702
  0
VERTEX
  8
0
 62
7
  6
CONTINUOUS
 10
-20.1060008601
 20
225.1749439061
  0
VERTEX
  8
0
 62
7
  6
CONTINUOUS
 10
-20.4780363105
 20
224.7076127601
  0
SEQEND
  0
LINE
  8
0
 62
7
  6
CONTINUOUS
 10
-18.5461858238
 20
226.0235779945
 11
-19.1247846966
 21
225.8452954237
  0
LINE
  8
0
 62
7
  6
CONTINUOUS
 10
19.5948400381
 20
79.0820849534
 11
336.7915455988
 21
79.0820849534
  0
POLYLINE
  8
0
 62
7
  6
CONTINUOUS
 66
1
 70
0
  0
VERTEX
  8
0
 62
7
  6
CONTINUOUS
 10
-20.5534757971
 20
222.8757272448
  0
VERTEX
  8
0
 62
7
  6
CONTINUOUS
 10
-20.5736419649
 20
222.8940574211
  0
VERTEX
  8
0
 62
7
  6
CONTINUOUS
 10
-20.676990404
 20
222.8652402437
  0
VERTEX
  8
0
 62
7
  6
CONTINUOUS
 10
-20.8212757487
 20
222.8339035
  0
VERTEX
  8
0
 62
7
  6
CONTINUOUS
 10
-20.9259557946
 20
222.8308995814
  0
VERTEX
  8
0
 62
7
  6
CONTINUOUS
 10
-20.9450241283
 20
222.8202990366
  0
SEQEND
  0
POLYLINE
  8
0
 62
7
  6
CONTINUOUS
 66
1
 70
0
  0
VERTEX
  8
0
 62
7
  6
CONTINUOUS
 10
168.2202097823
 20
225.1810960362
  0
VERTEX
  8
0
 62
7
  6
CONTINUOUS
 10
168.2146337446
 20
225.5536448752
  0
VERTEX
  8
0
 62
7
  6
CONTINUOUS
 10
168.2081499032
 20
225.8379990436
  0
VERTEX
  8
0
 62
7
  6
CONTINUOUS
 10
168.2008294018
 20
226.0207101227
  0
VERTEX
  8
0
 62
7
  6
CONTINUOUS
 10
168.1932306
 20
226.0820849532
  0
SEQEND
  0
LINE
  8
0
 62
7
  6
CONTINUOUS
 10
168.228158507
 20
224.222269445
 11
168.2202097823
 21
225.1810960362
  0
LINE
  8
0
 62
7
  6
CONTINUOUS
 10
168.2309901045
 20
223.0510870786
 11
168.228158507
 21
224.222269445
  0
LINE
  8
0
 62
7
  6
CONTINUOUS
 10
168.1932301993
 20
79.0821256277
 11
168.193220141
 21
223.0512857929
  0
LINE
  8
0
 62
7
  6
CONTINUOUS
 10
188.1932300714
 20
79.0821256226
 11
188.1940123132
 21
223.6464989089
  0
POLYLINE
  8
0
 62
7
  6
CONTINUOUS
 66
1
 70
0
  0
VERTEX
  8
0
 62
7
  6
CONTINUOUS
 10
188.1940123132
 20
223.6464989089
  0
VERTEX
  8
0
 62
7
  6
CONTINUOUS
 10
188.1996026462
 20
224.7344965874
  0
VERTEX
  8
0
 62
7
  6
CONTINUOUS
 10
188.2041576792
 20
225.1811613586
  0
VERTEX
  8
0
 62
7
  6
CONTINUOUS
 10
188.209754371
 20
225.553715631
  0
VERTEX
  8
0
 62
7
  6
CONTINUOUS
 10
188.2162619586
 20
225.8380535126
  0
VERTEX
  8
0
 62
7
  6
CONTINUOUS
 10
188.2236086223
 20
226.0207311199
  0
VERTEX
  8
0
 62
7
  6
CONTINUOUS
 10
188.2312341325
 20
226.0820849534
  0
SEQEND
  0
POLYLINE
  8
0
 62
7
  6
CONTINUOUS
 66
1
 70
0
  0
VERTEX
  8
0
 62
7
  6
CONTINUOUS
 10
-19.4630266759
 20
222.7633267924
  0
VERTEX
  8
0
 62
7
  6
CONTINUOUS
 10
-19.865710318
 20
222.8012647934
  0
VERTEX
  8
0
 62
7
  6
CONTINUOUS
 10
-19.9627476606
 20
222.8063109585
  0
VERTEX
  8
0
 62
7
  6
CONTINUOUS
 10
-20.07358671
 20
222.8427080946
  0
VERTEX
  8
0
 62
7
  6
CONTINUOUS
 10
-20.2132220673
 20
222.8178747927
  0
VERTEX
  8
0
 62
7
  6
CONTINUOUS
 10
-20.3493795785
 20
222.7993127977
  0
VERTEX
  8
0
 62
7
  6
CONTINUOUS
 10
-20.4479604853
 20
222.811432457
  0
VERTEX
  8
0
 62
7
  6
CONTINUOUS
 10
-20.5006677901
 20
222.8108543428
  0
VERTEX
  8
0
 62
7
  6
CONTINUOUS
 10
-20.5268138065
 20
222.8143297657
  0
VERTEX
  8
0
 62
7
  6
CONTINUOUS
 10
-20.545609587
 20
222.822965913
  0
VERTEX
  8
0
 62
7
  6
CONTINUOUS
 10
-20.5524348943
 20
222.8291966309
  0
SEQEND
  0
POLYLINE
  8
0
 62
7
  6
CONTINUOUS
 66
1
 70
0
  0
VERTEX
  8
0
 62
7
  6
CONTINUOUS
 10
375.0906240599
 20
222.77640869
  0
VERTEX
  8
0
 62
7
  6
CONTINUOUS
 10
373.6792489872
 20
222.7473262882
  0
VERTEX
  8
0
 62
7
  6
CONTINUOUS
 10
372.7281512895
 20
222.7466154587
  0
VERTEX
  8
0
 62
7
  6
CONTINUOUS
 10
371.6583252372
 20
222.7487421869
  0
VERTEX
  8
0
 62
7
  6
CONTINUOUS
 10
370.4284972064
 20
222.7448440866
  0
VERTEX
  8
0
 62
7
  6
CONTINUOUS
 10
368.9799164814
 20
222.7458106094
  0
VERTEX
  8
0
 62
7
  6
CONTINUOUS
 10
365.6170060572
 20
222.8036925134
  0
SEQEND
  0
LINE
  8
0
 62
7
  6
CONTINUOUS
 10
350.0294801626
 20
222.9079654099
 11
344.6476448577
 21
222.8858845728
  0
POLYLINE
  8
0
 62
7
  6
CONTINUOUS
 66
1
 70
0
  0
VERTEX
  8
0
 62
7
  6
CONTINUOUS
 10
168.2309901045
 20
223.0510870786
  0
VERTEX
  8
0
 62
7
  6
CONTINUOUS
 10
171.5516819627
 20
223.0621035324
  0
VERTEX
  8
0
 62
7
  6
CONTINUOUS
 10
174.8724519582
 20
223.0687133935
  0
VERTEX
  8
0
 62
7
  6
CONTINUOUS
 10
178.1932671607
 20
223.0709166541
  0
VERTEX
  8
0
 62
7
  6
CONTINUOUS
 10
181.514074135
 20
223.068713306
  0
VERTEX
  8
0
 62
7
  6
CONTINUOUS
 10
184.8348194464
 20
223.062103423
  0
VERTEX
  8
0
 62
7
  6
CONTINUOUS
 10
188.1554701662
 20
223.0510870786
  0
SEQEND
  0
POLYLINE
  8
0
 62
7
  6
CONTINUOUS
 66
1
 70
0
  0
VERTEX
  8
0
 62
7
  6
CONTINUOUS
 10
100.9139567505
 20
222.8485903265
  0
VERTEX
  8
0
 62
7
  6
CONTINUOUS
 10
94.8808720478
 20
222.8296329217
  0
VERTEX
  8
0
 62
7
  6
CONTINUOUS
 10
89.0180520511
 20
222.8404423293
  0
VERTEX
  8
0
 62
7
  6
CONTINUOUS
 10
83.5472167057
 20
222.8572613712
  0
VERTEX
  8
0
 62
7
  6
CONTINUOUS
 10
78.2257406151
 20
222.8463327887
  0
VERTEX
  8
0
 62
7
  6
CONTINUOUS
 10
72.8521687305
 20
222.8347713132
  0
VERTEX
  8
0
 62
7
  6
CONTINUOUS
 10
67.6503095507
 20
222.8636427752
  0
VERTEX
  8
0
 62
7
  6
CONTINUOUS
 10
62.7781519063
 20
222.8777644196
  0
VERTEX
  8
0
 62
7
  6
CONTINUOUS
 10
58.071354381
 20
222.8771032159
  0
VERTEX
  8
0
 62
7
  6
CONTINUOUS
 10
53.3899895454
 20
222.8838621378
  0
VERTEX
  8
0
 62
7
  6
CONTINUOUS
 10
32.8191809681
 20
222.8772503597
  0
SEQEND
  0
POLYLINE
  8
0
 62
7
  6
CONTINUOUS
 66
1
 70
0
  0
VERTEX
  8
0
 62
7
  6
CONTINUOUS
 10
-12.1663600435
 20
222.7509896929
  0
VERTEX
  8
0
 62
7
  6
CONTINUOUS
 10
-13.6600771658
 20
222.7469045032
  0
VERTEX
  8
0
 62
7
  6
CONTINUOUS
 10
-14.9361549271
 20
222.7478673773
  0
VERTEX
  8
0
 62
7
  6
CONTINUOUS
 10
-16.0518452144
 20
222.7441293399
  0
VERTEX
  8
0
 62
7
  6
CONTINUOUS
 10
-17.0499044811
 20
222.7437481113
  0
VERTEX
  8
0
 62
7
  6
CONTINUOUS
 10
-17.8890163359
 20
222.7602089058
  0
VERTEX
  8
0
 62
7
  6
CONTINUOUS
 10
-18.5485816431
 20
222.7756166653
  0
VERTEX
  8
0
 62
7
  6
CONTINUOUS
 10
-19.0682902203
 20
222.7747986316
  0
VERTEX
  8
0
 62
7
  6
CONTINUOUS
 10
-19.4630266759
 20
222.7633267924
  0
SEQEND
  0
POLYLINE
  8
0
 62
7
  6
CONTINUOUS
 66
1
 70
0
  0
VERTEX
  8
0
 62
7
  6
CONTINUOUS
 10
344.6476448577
 20
222.8858845728
  0
VERTEX
  8
0
 62
7
  6
CONTINUOUS
 10
338.7587111201
 20
222.8725387424
  0
VERTEX
  8
0
 62
7
  6
CONTINUOUS
 10
335.60518252
 20
222.868417167
  0
SEQEND
  0
POLYLINE
  8
0
 62
7
  6
CONTINUOUS
 66
1
 70
0
  0
VERTEX
  8
0
 62
7
  6
CONTINUOUS
 10
29.207371135
 20
222.878612042
  0
VERTEX
  8
0
 62
7
  6
CONTINUOUS
 10
22.3220620505
 20
222.8664761746
  0
VERTEX
  8
0
 62
7
  6
CONTINUOUS
 10
19.0393680511
 20
222.8707208797
  0
VERTEX
  8
0
 62
7
  6
CONTINUOUS
 10
12.9362801348
 20
222.8822824902
  0
SEQEND
  0
POLYLINE
  8
0
 62
7
  6
CONTINUOUS
 66
1
 70
0
  0
VERTEX
  8
0
 62
7
  6
CONTINUOUS
 10
310.0258561889
 20
222.8833116858
  0
VERTEX
  8
0
 62
7
  6
CONTINUOUS
 10
305.6312392254
 20
222.8789010136
  0
VERTEX
  8
0
 62
7
  6
CONTINUOUS
 10
301.0657402596
 20
222.8795619229
  0
VERTEX
  8
0
 62
7
  6
CONTINUOUS
 10
296.5059535661
 20
222.8913174745
  0
VERTEX
  8
0
 62
7
  6
CONTINUOUS
 10
291.7674842611
 20
222.869412026
  0
VERTEX
  8
0
 62
7
  6
CONTINUOUS
 10
286.6114157763
 20
222.83481689
  0
VERTEX
  8
0
 62
7
  6
CONTINUOUS
 10
281.2489061731
 20
222.8505452415
  0
VERTEX
  8
0
 62
7
  6
CONTINUOUS
 10
275.9612289399
 20
222.8608849898
  0
VERTEX
  8
0
 62
7
  6
CONTINUOUS
 10
270.5030708016
 20
222.8411812709
  0
VERTEX
  8
0
 62
7
  6
CONTINUOUS
 10
264.5896366015
 20
222.8262516276
  0
VERTEX
  8
0
 62
7
  6
CONTINUOUS
 10
258.4869904614
 20
222.8452776875
  0
VERTEX
  8
0
 62
7
  6
CONTINUOUS
 10
252.5195541128
 20
222.8598112332
  0
VERTEX
  8
0
 62
7
  6
CONTINUOUS
 10
246.3520916855
 20
222.8620269728
  0
VERTEX
  8
0
 62
7
  6
CONTINUOUS
 10
239.6189312956
 20
222.8541347962
  0
VERTEX
  8
0
 62
7
  6
CONTINUOUS
 10
232.6717789914
 20
222.8937108615
  0
VERTEX
  8
0
 62
7
  6
CONTINUOUS
 10
225.9326640499
 20
222.9409433945
  0
VERTEX
  8
0
 62
7
  6
CONTINUOUS
 10
219.0035891182
 20
222.9382684507
  0
VERTEX
  8
0
 62
7
  6
CONTINUOUS
 10
211.4096128778
 20
222.9545034833
  0
VERTEX
  8
0
 62
7
  6
CONTINUOUS
 10
203.5901549913
 20
222.9911825135
  0
VERTEX
  8
0
 62
7
  6
CONTINUOUS
 10
195.8778394193
 20
223.0435688057
  0
VERTEX
  8
0
 62
7
  6
CONTINUOUS
 10
188.1932401377
 20
223.0512859635
  0
SEQEND
  0
POLYLINE
  8
0
 62
7
  6
CONTINUOUS
 66
1
 70
0
  0
VERTEX
  8
0
 62
7
  6
CONTINUOUS
 10
168.193220141
 20
223.0512857929
  0
VERTEX
  8
0
 62
7
  6
CONTINUOUS
 10
160.9866388808
 20
223.0458764881
  0
VERTEX
  8
0
 62
7
  6
CONTINUOUS
 10
153.7503269384
 20
222.9946115902
  0
VERTEX
  8
0
 62
7
  6
CONTINUOUS
 10
146.4309192816
 20
222.9589661449
  0
VERTEX
  8
0
 62
7
  6
CONTINUOUS
 10
139.2852610039
 20
222.9451171509
  0
VERTEX
  8
0
 62
7
  6
CONTINUOUS
 10
132.6502668261
 20
222.9461076695
  0
VERTEX
  8
0
 62
7
  6
CONTINUOUS
 10
126.1501847008
 20
222.9009197095
  0
VERTEX
  8
0
 62
7
  6
CONTINUOUS
 10
119.4806774051
 20
222.8700113164
  0
VERTEX
  8
0
 62
7
  6
CONTINUOUS
 10
112.9606133093
 20
222.8685171324
  0
VERTEX
  8
0
 62
7
  6
CONTINUOUS
 10
100.9139567505
 20
222.8485903265
  0
SEQEND
  0
LINE
  8
0
 62
7
  6
CONTINUOUS
 10
32.8191809681
 20
222.8772503597
 11
29.207371135
 21
222.878612042
  0
POLYLINE
  8
0
 62
7
  6
CONTINUOUS
 66
1
 70
0
  0
VERTEX
  8
0
 62
7
  6
CONTINUOUS
 10
335.60518252
 20
222.868417167
  0
VERTEX
  8
0
 62
7
  6
CONTINUOUS
 10
328.9858629359
 20
222.8755898684
  0
VERTEX
  8
0
 62
7
  6
CONTINUOUS
 10
325.5054742427
 20
222.8752340306
  0
VERTEX
  8
0
 62
7
  6
CONTINUOUS
 10
321.8154988857
 20
222.8780064389
  0
VERTEX
  8
0
 62
7
  6
CONTINUOUS
 10
310.0258561889
 20
222.8833116858
  0
SEQEND
  0
POLYLINE
  8
0
 62
7
  6
CONTINUOUS
 66
1
 70
0
  0
VERTEX
  8
0
 62
7
  6
CONTINUOUS
 10
4.7326568888
 20
222.9135022757
  0
VERTEX
  8
0
 62
7
  6
CONTINUOUS
 10
2.225408943
 20
222.9191434694
  0
VERTEX
  8
0
 62
7
  6
CONTINUOUS
 10
-0.1585048103
 20
222.9190655034
  0
VERTEX
  8
0
 62
7
  6
CONTINUOUS
 10
-2.4473984731
 20
222.8981060473
  0
VERTEX
  8
0
 62
7
  6
CONTINUOUS
 10
-4.6667043433
 20
222.871962547
  0
VERTEX
  8
0
 62
7
  6
CONTINUOUS
 10
-8.703210478
 20
222.8116531192
  0
SEQEND
  0
POLYLINE
  8
0
 62
7
  6
CONTINUOUS
 66
1
 70
0
  0
VERTEX
  8
0
 62
7
  6
CONTINUOUS
 10
12.9362801348
 20
222.8822824902
  0
VERTEX
  8
0
 62
7
  6
CONTINUOUS
 10
10.0837727816
 20
222.8917538981
  0
VERTEX
  8
0
 62
7
  6
CONTINUOUS
 10
4.7326568888
 20
222.9135022757
  0
SEQEND
  0
LINE
  8
0
 62
7
  6
CONTINUOUS
 10
-8.703210478
 20
222.8116531192
 11
-12.1663600435
 21
222.7509896929
  0
LINE
  8
0
 62
7
  6
CONTINUOUS
 10
-17.9529215521
 20
226.0820849534
 11
374.3389248356
 21
226.0820849534
  0
POLYLINE
  8
0
 62
7
  6
CONTINUOUS
 66
1
 70
0
  0
VERTEX
  8
0
 62
7
  6
CONTINUOUS
 10
365.6170060572
 20
222.8036925134
  0
VERTEX
  8
0
 62
7
  6
CONTINUOUS
 10
361.694429901
 20
222.8621853418
  0
VERTEX
  8
0
 62
7
  6
CONTINUOUS
 10
359.534959693
 20
222.8908992033
  0
VERTEX
  8
0
 62
7
  6
CONTINUOUS
 10
357.3147579401
 20
222.9154250414
  0
VERTEX
  8
0
 62
7
  6
CONTINUOUS
 10
355.0045760233
 20
222.9185716931
  0
VERTEX
  8
0
 62
7
  6
CONTINUOUS
 10
352.5704284233
 20
222.9159982593
  0
VERTEX
  8
0
 62
7
  6
CONTINUOUS
 10
350.0294801626
 20
222.9079654099
  0
SEQEND
  0
LINE
  8
0
 62
7
  6
CONTINUOUS
 10
-17.95659296
 20
226.0820849534
 11
-18.5461858238
 21
226.0235779945
  0
POLYLINE
  8
0
 62
7
  6
CONTINUOUS
 66
1
 70
0
  0
VERTEX
  8
0
 62
7
  6
CONTINUOUS
 10
-17.561723835
 20
226.0820849534
  0
VERTEX
  8
0
 62
7
  6
CONTINUOUS
 10
-18.0783747886
 20
226.0372618913
  0
VERTEX
  8
0
 62
7
  6
CONTINUOUS
 10
-18.6672080413
 20
225.8709735209
  0
VERTEX
  8
0
 62
7
  6
CONTINUOUS
 10
-19.2032615726
 20
225.5931288566
  0
VERTEX
  8
0
 62
7
  6
CONTINUOUS
 10
-19.6718070373
 20
225.2145780947
  0
VERTEX
  8
0
 62
7
  6
CONTINUOUS
 10
-20.0558454053
 20
224.7492156919
  0
VERTEX
  8
0
 62
7
  6
CONTINUOUS
 10
-20.3393384877
 20
224.2155810751
  0
VERTEX
  8
0
 62
7
  6
CONTINUOUS
 10
-20.5098681303
 20
223.6374162387
  0
VERTEX
  8
0
 62
7
  6
CONTINUOUS
 10
-20.5613309428
 20
223.0341383602
  0
VERTEX
  8
0
 62
7
  6
CONTINUOUS
 10
-20.5513594523
 20
222.8330478901
  0
SEQEND
  0
POLYLINE
  8
0
 62
7
  6
CONTINUOUS
 66
1
 70
0
  0
VERTEX
  8
0
 62
7
  6
CONTINUOUS
 10
376.938618115
 20
222.8258932676
  0
VERTEX
  8
0
 62
7
  6
CONTINUOUS
 10
376.9343070269
 20
222.8208955354
  0
VERTEX
  8
0
 62
7
  6
CONTINUOUS
 10
376.917038634
 20
222.8157721713
  0
VERTEX
  8
0
 62
7
  6
CONTINUOUS
 10
376.8935744534
 20
222.8145306463
  0
VERTEX
  8
0
 62
7
  6
CONTINUOUS
 10
376.848550344
 20
222.8110556389
  0
VERTEX
  8
0
 62
7
  6
CONTINUOUS
 10
376.7614214052
 20
222.7980248861
  0
VERTEX
  8
0
 62
7
  6
CONTINUOUS
 10
376.6331711827
 20
222.8179147288
  0
VERTEX
  8
0
 62
7
  6
CONTINUOUS
 10
376.4886346874
 20
222.8424718539
  0
VERTEX
  8
0
 62
7
  6
CONTINUOUS
 10
376.3723284904
 20
222.8074229326
  0
VERTEX
  8
0
 62
7
  6
CONTINUOUS
 10
376.2789208146
 20
222.8066761109
  0
VERTEX
  8
0
 62
7
  6
CONTINUOUS
 10
376.1533405257
 20
222.7894650076
  0
VERTEX
  8
0
 62
7
  6
CONTINUOUS
 10
375.9258202579
 20
222.7638757998
  0
VERTEX
  8
0
 62
7
  6
CONTINUOUS
 10
375.5698104521
 20
222.7759093037
  0
VERTEX
  8
0
 62
7
  6
CONTINUOUS
 10
375.0906240599
 20
222.77640869
  0
SEQEND
  0
POLYLINE
  8
0
 62
7
  6
CONTINUOUS
 66
1
 70
0
  0
VERTEX
  8
0
 62
7
  6
CONTINUOUS
 10
375.5107488699
 20
225.8452663809
  0
VERTEX
  8
0
 62
7
  6
CONTINUOUS
 10
374.9321188979
 20
226.023570991
  0
VERTEX
  8
0
 62
7
  6
CONTINUOUS
 10
374.3424936498
 20
226.0820849534
  0
SEQEND
  0
POLYLINE
  8
0
 62
7
  6
CONTINUOUS
 66
1
 70
0
  0
VERTEX
  8
0
 62
7
  6
CONTINUOUS
 10
375.7993344667
 20
225.7049636769
  0
VERTEX
  8
0
 62
7
  6
CONTINUOUS
 10
375.6795356712
 20
225.767984829
  0
VERTEX
  8
0
 62
7
  6
CONTINUOUS
 10
375.5649667879
 20
225.8219535793
  0
VERTEX
  8
0
 62
7
  6
CONTINUOUS
 10
375.5133984613
 20
225.8438195821
  0
SEQEND
  0
POLYLINE
  8
0
 62
7
  6
CONTINUOUS
 66
1
 70
0
  0
VERTEX
  8
0
 62
7
  6
CONTINUOUS
 10
377.3315575511
 20
222.8211210396
  0
VERTEX
  8
0
 62
7
  6
CONTINUOUS
 10
377.3147927011
 20
222.8299904249
  0
VERTEX
  8
0
 62
7
  6
CONTINUOUS
 10
377.2162686874
 20
222.8321516425
  0
VERTEX
  8
0
 62
7
  6
CONTINUOUS
 10
377.0755674412
 20
222.864850132
  0
VERTEX
  8
0
 62
7
  6
CONTINUOUS
 10
376.9681572344
 20
222.893683068
  0
VERTEX
  8
0
 62
7
  6
CONTINUOUS
 10
376.9404324229
 20
222.8729753931
  0
SEQEND
  0
LINE
  8
0
 62
7
  6
CONTINUOUS
 10
377.331524986
 20
222.8210133942
 11
377.3315575511
 21
222.8211210396
  0
POLYLINE
  8
0
 62
7
  6
CONTINUOUS
 66
1
 70
0
  0
VERTEX
  8
0
 62
7
  6
CONTINUOUS
 10
337.0146031113
 20
79.368431981
  0
VERTEX
  8
0
 62
7
  6
CONTINUOUS
 10
338.4316470336
 20
81.2822965341
  0
VERTEX
  8
0
 62
7
  6
CONTINUOUS
 10
339.7400989355
 20
83.1230157762
  0
SEQEND
  0
POLYLINE
  8
0
 62
7
  6
CONTINUOUS
 66
1
 70
0
  0
VERTEX
  8
0
 62
7
  6
CONTINUOUS
 10
336.797284611
 20
79.0820849534
  0
VERTEX
  8
0
 62
7
  6
CONTINUOUS
 10
337.7563894409
 20
80.3601062125
  0
VERTEX
  8
0
 62
7
  6
CONTINUOUS
 10
339.1114465976
 20
82.2297082291
  0
VERTEX
  8
0
 62
7
  6
CONTINUOUS
 10
340.3187490527
 20
83.9599729941
  0
VERTEX
  8
0
 62
7
  6
CONTINUOUS
 10
341.3737551869
 20
85.5223406985
  0
VERTEX
  8
0
 62
7
  6
CONTINUOUS
 10
342.2922459395
 20
86.9206619659
  0
VERTEX
  8
0
 62
7
  6
CONTINUOUS
 10
343.0852236528
 20
88.1559639949
  0
SEQEND
  0
LINE
  8
0
 62
7
  6
CONTINUOUS
 10
336.7972846151
 20
79.0820849534
 11
337.0146031113
 21
79.368431981
  0
LINE
  8
0
 62
7
  6
CONTINUOUS
 10
366.9928028563
 20
151.8244340086
 11
367.3234538094
 21
153.6195586784
  0
POLYLINE
  8
0
 62
7
  6
CONTINUOUS
 66
1
 70
0
  0
VERTEX
  8
0
 62
7
  6
CONTINUOUS
 10
363.7469893212
 20
136.362985473
  0
VERTEX
  8
0
 62
7
  6
CONTINUOUS
 10
365.5383087578
 20
143.8943714598
  0
VERTEX
  8
0
 62
7
  6
CONTINUOUS
 10
367.0846798513
 20
151.4211095436
  0
SEQEND
  0
LINE
  8
0
 62
7
  6
CONTINUOUS
 10
363.3136885136
 20
134.8156267971
 11
363.7469893212
 21
136.362985473
  0
POLYLINE
  8
0
 62
7
  6
CONTINUOUS
 66
1
 70
0
  0
VERTEX
  8
0
 62
7
  6
CONTINUOUS
 10
361.7968261898
 20
129.5970032535
  0
VERTEX
  8
0
 62
7
  6
CONTINUOUS
 10
364.0906234947
 20
137.5798795725
  0
VERTEX
  8
0
 62
7
  6
CONTINUOUS
 10
367.4827646103
 20
153.4125358286
  0
SEQEND
  0
POLYLINE
  8
0
 62
7
  6
CONTINUOUS
 66
1
 70
0
  0
VERTEX
  8
0
 62
7
  6
CONTINUOUS
 10
359.2714760237
 20
121.0474674923
  0
VERTEX
  8
0
 62
7
  6
CONTINUOUS
 10
359.7562484152
 20
122.4737629926
  0
VERTEX
  8
0
 62
7
  6
CONTINUOUS
 10
360.2323654869
 20
123.9215376715
  0
VERTEX
  8
0
 62
7
  6
CONTINUOUS
 10
360.7013380286
 20
125.3965140125
  0
VERTEX
  8
0
 62
7
  6
CONTINUOUS
 10
361.1594978244
 20
126.8878542056
  0
VERTEX
  8
0
 62
7
  6
CONTINUOUS
 10
361.6040494773
 20
128.3859162629
  0
VERTEX
  8
0
 62
7
  6
CONTINUOUS
 10
362.0352186297
 20
129.8902085193
  0
VERTEX
  8
0
 62
7
  6
CONTINUOUS
 10
362.4524607754
 20
131.3972096002
  0
SEQEND
  0
POLYLINE
  8
0
 62
7
  6
CONTINUOUS
 66
1
 70
0
  0
VERTEX
  8
0
 62
7
  6
CONTINUOUS
 10
359.1517866572
 20
120.7023424397
  0
VERTEX
  8
0
 62
7
  6
CONTINUOUS
 10
359.6257039439
 20
122.0850766432
  0
VERTEX
  8
0
 62
7
  6
CONTINUOUS
 10
360.0899623906
 20
123.4834361056
  0
VERTEX
  8
0
 62
7
  6
CONTINUOUS
 10
360.5483176666
 20
124.9096905029
  0
VERTEX
  8
0
 62
7
  6
CONTINUOUS
 10
360.9998796823
 20
126.3624126217
  0
VERTEX
  8
0
 62
7
  6
CONTINUOUS
 10
361.4463435157
 20
127.8485050311
  0
VERTEX
  8
0
 62
7
  6
CONTINUOUS
 10
361.8836372056
 20
129.3553901555
  0
VERTEX
  8
0
 62
7
  6
CONTINUOUS
 10
362.3091258238
 20
130.873622993
  0
VERTEX
  8
0
 62
7
  6
CONTINUOUS
 10
362.7216673075
 20
132.3978046221
  0
VERTEX
  8
0
 62
7
  6
CONTINUOUS
 10
363.1194014113
 20
133.9188339722
  0
VERTEX
  8
0
 62
7
  6
CONTINUOUS
 10
363.5029598305
 20
135.4361816468
  0
VERTEX
  8
0
 62
7
  6
CONTINUOUS
 10
363.8731221141
 20
136.949769503
  0
VERTEX
  8
0
 62
7
  6
CONTINUOUS
 10
364.2280323878
 20
138.4482602613
  0
VERTEX
  8
0
 62
7
  6
CONTINUOUS
 10
364.5666122536
 20
139.922447618
  0
VERTEX
  8
0
 62
7
  6
CONTINUOUS
 10
364.8881871716
 20
141.3641301291
  0
VERTEX
  8
0
 62
7
  6
CONTINUOUS
 10
365.1920157639
 20
142.7642085654
  0
VERTEX
  8
0
 62
7
  6
CONTINUOUS
 10
365.4777669066
 20
144.115092835
  0
VERTEX
  8
0
 62
7
  6
CONTINUOUS
 10
365.7438751268
 20
145.4030364385
  0
VERTEX
  8
0
 62
7
  6
CONTINUOUS
 10
365.9934458546
 20
146.6371261543
  0
VERTEX
  8
0
 62
7
  6
CONTINUOUS
 10
366.2299416671
 20
147.829728959
  0
VERTEX
  8
0
 62
7
  6
CONTINUOUS
 10
366.4499062561
 20
148.9588720028
  0
VERTEX
  8
0
 62
7
  6
CONTINUOUS
 10
366.6520005545
 20
150.0127985058
  0
VERTEX
  8
0
 62
7
  6
CONTINUOUS
 10
366.9928028563
 20
151.8244340086
  0
SEQEND
  0
LINE
  8
0
 62
7
  6
CONTINUOUS
 10
358.6659997987
 20
119.3286287753
 11
359.2714760237
 21
121.0474674923
  0
LINE
  8
0
 62
7
  6
CONTINUOUS
 10
358.1634061889
 20
117.9507171937
 11
358.7800164773
 21
119.647239675
  0
LINE
  8
0
 62
7
  6
CONTINUOUS
 10
357.6451884897
 20
116.5729449599
 11
358.275036258
 21
118.2531121831
  0
LINE
  8
0
 62
7
  6
CONTINUOUS
 10
357.0890380489
 20
115.1394649159
 11
357.7556970894
 21
116.8632437762
  0
POLYLINE
  8
0
 62
7
  6
CONTINUOUS
 66
1
 70
0
  0
VERTEX
  8
0
 62
7
  6
CONTINUOUS
 10
354.3330419244
 20
108.6283439808
  0
VERTEX
  8
0
 62
7
  6
CONTINUOUS
 10
355.1822591947
 20
110.5392338946
  0
VERTEX
  8
0
 62
7
  6
CONTINUOUS
 10
355.9420049065
 20
112.3175579763
  0
VERTEX
  8
0
 62
7
  6
CONTINUOUS
 10
356.6060533937
 20
113.9300155511
  0
SEQEND
  0
POLYLINE
  8
0
 62
7
  6
CONTINUOUS
 66
1
 70
0
  0
VERTEX
  8
0
 62
7
  6
CONTINUOUS
 10
354.2062874464
 20
108.3496224792
  0
VERTEX
  8
0
 62
7
  6
CONTINUOUS
 10
355.0247472065
 20
110.1788949689
  0
VERTEX
  8
0
 62
7
  6
CONTINUOUS
 10
355.7900206442
 20
111.956312289
  0
VERTEX
  8
0
 62
7
  6
CONTINUOUS
 10
356.4711949189
 20
113.5979378515
  0
VERTEX
  8
0
 62
7
  6
CONTINUOUS
 10
357.2039198735
 20
115.4319059369
  0
SEQEND
  0
LINE
  8
0
 62
7
  6
CONTINUOUS
 10
353.3577312263
 20
106.524209305
 11
354.3330419244
 21
108.6283439808
  0
POLYLINE
  8
0
 62
7
  6
CONTINUOUS
 66
1
 70
0
  0
VERTEX
  8
0
 62
7
  6
CONTINUOUS
 10
349.1414248251
 20
98.3173218081
  0
VERTEX
  8
0
 62
7
  6
CONTINUOUS
 10
349.9422448099
 20
99.7818145371
  0
VERTEX
  8
0
 62
7
  6
CONTINUOUS
 10
350.7830004199
 20
101.3624791539
  0
VERTEX
  8
0
 62
7
  6
CONTINUOUS
 10
351.6333509823
 20
103.0103969386
  0
VERTEX
  8
0
 62
7
  6
CONTINUOUS
 10
352.492516763
 20
104.7304754983
  0
SEQEND
  0
POLYLINE
  8
0
 62
7
  6
CONTINUOUS
 66
1
 70
0
  0
VERTEX
  8
0
 62
7
  6
CONTINUOUS
 10
348.2437150852
 20
96.7186778981
  0
VERTEX
  8
0
 62
7
  6
CONTINUOUS
 10
349.1922765992
 20
98.4092001314
  0
VERTEX
  8
0
 62
7
  6
CONTINUOUS
 10
350.2190949344
 20
100.2972260192
  0
VERTEX
  8
0
 62
7
  6
CONTINUOUS
 10
351.2883552531
 20
102.3355659362
  0
VERTEX
  8
0
 62
7
  6
CONTINUOUS
 10
352.3557372492
 20
104.4527153074
  0
VERTEX
  8
0
 62
7
  6
CONTINUOUS
 10
353.3783451357
 20
106.5677498897
  0
SEQEND
  0
LINE
  8
0
 62
7
  6
CONTINUOUS
 10
347.4328746479
 20
95.3097537062
 11
348.4123509476
 21
97.0157354477
  0
LINE
  8
0
 62
7
  6
CONTINUOUS
 10
347.1932398462
 20
94.8991340354
 11
347.7565753482
 21
95.8684920468
  0
LINE
  8
0
 62
7
  6
CONTINUOUS
 10
346.6998015157
 20
94.0611998444
 11
347.4328746479
 21
95.3097537062
  0
LINE
  8
0
 62
7
  6
CONTINUOUS
 10
346.1652007394
 20
93.1639836438
 11
346.7401588786
 21
94.1293653811
  0
LINE
  8
0
 62
7
  6
CONTINUOUS
 10
345.379830043
 20
91.8628674735
 11
346.256641695
 21
93.316719035
  0
LINE
  8
0
 62
7
  6
CONTINUOUS
 10
344.7312732174
 20
90.798552545
 11
345.5459378695
 21
92.1366294626
  0
LINE
  8
0
 62
7
  6
CONTINUOUS
 10
344.2800238937
 20
90.0643046097
 11
344.7481914395
 21
90.8261919071
  0
LINE
  8
0
 62
7
  6
CONTINUOUS
 10
343.660529439
 20
89.0680093094
 11
344.311310214
 21
90.1149915273
  0
POLYLINE
  8
0
 62
7
  6
CONTINUOUS
 66
1
 70
0
  0
VERTEX
  8
0
 62
7
  6
CONTINUOUS
 10
339.7400989355
 20
83.1230157762
  0
VERTEX
  8
0
 62
7
  6
CONTINUOUS
 10
340.9254272559
 20
84.8526623265
  0
VERTEX
  8
0
 62
7
  6
CONTINUOUS
 10
341.9801110813
 20
86.4415148243
  0
VERTEX
  8
0
 62
7
  6
CONTINUOUS
 10
342.8962603056
 20
87.8592722063
  0
VERTEX
  8
0
 62
7
  6
CONTINUOUS
 10
343.7560887573
 20
89.220753227
  0
SEQEND
  0
POLYLINE
  8
0
 62
7
  6
CONTINUOUS
 66
1
 70
0
  0
VERTEX
  8
0
 62
7
  6
CONTINUOUS
 10
377.3397132953
 20
222.9728241743
  0
VERTEX
  8
0
 62
7
  6
CONTINUOUS
 10
377.3413482544
 20
223.0126863261
  0
VERTEX
  8
0
 62
7
  6
CONTINUOUS
 10
377.3425482202
 20
223.0583172334
  0
VERTEX
  8
0
 62
7
  6
CONTINUOUS
 10
377.3429787735
 20
223.1108647054
  0
VERTEX
  8
0
 62
7
  6
CONTINUOUS
 10
377.3416330488
 20
223.1862467022
  0
VERTEX
  8
0
 62
7
  6
CONTINUOUS
 10
377.3377768454
 20
223.2662558473
  0
VERTEX
  8
0
 62
7
  6
CONTINUOUS
 10
377.3325172256
 20
223.3357576169
  0
VERTEX
  8
0
 62
7
  6
CONTINUOUS
 10
377.3260088531
 20
223.4014370942
  0
VERTEX
  8
0
 62
7
  6
CONTINUOUS
 10
377.3184905123
 20
223.4639676193
  0
VERTEX
  8
0
 62
7
  6
CONTINUOUS
 10
377.3097217108
 20
223.5262846442
  0
VERTEX
  8
0
 62
7
  6
CONTINUOUS
 10
377.2990324562
 20
223.5922484987
  0
SEQEND
  0
POLYLINE
  8
0
 62
7
  6
CONTINUOUS
 66
1
 70
0
  0
VERTEX
  8
0
 62
7
  6
CONTINUOUS
 10
376.9382899596
 20
222.8321555027
  0
VERTEX
  8
0
 62
7
  6
CONTINUOUS
 10
376.9480273112
 20
223.0176791574
  0
VERTEX
  8
0
 62
7
  6
CONTINUOUS
 10
376.9012464413
 20
223.6136659704
  0
VERTEX
  8
0
 62
7
  6
CONTINUOUS
 10
376.7381807782
 20
224.1861226051
  0
VERTEX
  8
0
 62
7
  6
CONTINUOUS
 10
376.4645138328
 20
224.7163349626
  0
VERTEX
  8
0
 62
7
  6
CONTINUOUS
 10
376.0919772755
 20
225.1812376436
  0
VERTEX
  8
0
 62
7
  6
CONTINUOUS
 10
375.6356488617
 20
225.562864513
  0
VERTEX
  8
0
 62
7
  6
CONTINUOUS
 10
375.1119356629
 20
225.8473928468
  0
VERTEX
  8
0
 62
7
  6
CONTINUOUS
 10
374.5349581036
 20
226.0242482263
  0
VERTEX
  8
0
 62
7
  6
CONTINUOUS
 10
373.9487204308
 20
226.0820849534
  0
SEQEND
  0
POLYLINE
  8
0
 62
7
  6
CONTINUOUS
 66
1
 70
0
  0
VERTEX
  8
0
 62
7
  6
CONTINUOUS
 10
377.3306320077
 20
222.8157261664
  0
VERTEX
  8
0
 62
7
  6
CONTINUOUS
 10
377.3414207668
 20
223.0023618758
  0
VERTEX
  8
0
 62
7
  6
CONTINUOUS
 10
377.2974117525
 20
223.6001460418
  0
SEQEND
  0
LINE
  8
0
 62
7
  6
CONTINUOUS
 10
376.7757293318
 20
220.9223806526
 11
376.9386381135
 21
222.8261294321
  0
LINE
  8
0
 62
7
  6
CONTINUOUS
 10
377.2030153676
 20
221.4008748895
 11
377.3315575511
 21
222.8211210396
  0
LINE
  8
0
 62
7
  6
CONTINUOUS
 10
376.551119421
 20
218.4178246011
 11
376.7757293318
 21
220.9223806526
  0
LINE
  8
0
 62
7
  6
CONTINUOUS
 10
377.0500718669
 20
219.7703184753
 11
377.2030153676
 21
221.4008748895
  0
LINE
  8
0
 62
7
  6
CONTINUOUS
 10
376.8933795961
 20
218.1598397722
 11
377.1052950756
 21
220.3520429001
  0
LINE
  8
0
 62
7
  6
CONTINUOUS
 10
376.7333250598
 20
216.5711105915
 11
376.9558811955
 21
218.7953601626
  0
LINE
  8
0
 62
7
  6
CONTINUOUS
 10
376.5694688601
 20
214.9977377559
 11
376.8034944954
 21
217.260997124
  0
LINE
  8
0
 62
7
  6
CONTINUOUS
 10
376.4014916775
 20
213.4351585408
 11
376.6476641265
 21
215.7422224492
  0
LINE
  8
0
 62
7
  6
CONTINUOUS
 10
376.2291659393
 20
211.8800534794
 11
376.4880977194
 21
214.2347392884
  0
LINE
  8
0
 62
7
  6
CONTINUOUS
 10
376.0520391245
 20
210.3273967907
 11
376.324592944
 21
212.7354947508
  0
LINE
  8
0
 62
7
  6
CONTINUOUS
 10
375.9847218682
 20
209.7485557391
 11
376.1567550947
 21
211.2399647811
  0
LINE
  8
0
 62
7
  6
CONTINUOUS
 10
375.808487952
 20
208.2603318417
 11
376.0520391245
 21
210.3273967907
  0
LINE
  8
0
 62
7
  6
CONTINUOUS
 10
375.6281014115
 20
206.7747683868
 11
375.8703089677
 21
208.7780555504
  0
LINE
  8
0
 62
7
  6
CONTINUOUS
 10
375.4435855256
 20
205.2910700592
 11
375.6839988766
 21
207.2312431049
  0
LINE
  8
0
 62
7
  6
CONTINUOUS
 10
375.2550477036
 20
203.809037341
 11
375.4932204708
 21
205.686813778
  0
LINE
  8
0
 62
7
  6
CONTINUOUS
 10
375.0625381145
 20
202.3279172154
 11
375.298029348
 21
204.1440479056
  0
LINE
  8
0
 62
7
  6
CONTINUOUS
 10
374.866316977
 20
200.8484463803
 11
375.0986906567
 21
202.6037356548
  0
LINE
  8
0
 62
7
  6
CONTINUOUS
 10
374.6666979693
 20
199.3715573778
 11
374.8954494487
 21
201.0662915433
  0
POLYLINE
  8
0
 62
7
  6
CONTINUOUS
 66
1
 70
0
  0
VERTEX
  8
0
 62
7
  6
CONTINUOUS
 10
374.2567995843
 20
196.4164087797
  0
VERTEX
  8
0
 62
7
  6
CONTINUOUS
 10
374.4636723573
 20
197.8957097468
  0
VERTEX
  8
0
 62
7
  6
CONTINUOUS
 10
374.6885430679
 20
199.5318835828
  0
SEQEND
  0
POLYLINE
  8
0
 62
7
  6
CONTINUOUS
 66
1
 70
0
  0
VERTEX
  8
0
 62
7
  6
CONTINUOUS
 10
374.0476626501
 20
194.9435012671
  0
VERTEX
  8
0
 62
7
  6
CONTINUOUS
 10
374.2647660927
 20
196.4729484494
  0
VERTEX
  8
0
 62
7
  6
CONTINUOUS
 10
374.4781479443
 20
198.0001175558
  0
SEQEND
  0
LINE
  8
0
 62
7
  6
CONTINUOUS
 10
373.8308141605
 20
193.4376954598
 11
374.0481058526
 21
194.9466003664
  0
LINE
  8
0
 62
7
  6
CONTINUOUS
 10
373.4024223002
 20
190.5174453563
 11
373.8367499625
 21
193.4786455788
  0
LINE
  8
0
 62
7
  6
CONTINUOUS
 10
373.0010525923
 20
187.8338620055
 11
373.4223761509
 21
190.6520563703
  0
LINE
  8
0
 62
7
  6
CONTINUOUS
 10
372.6223379417
 20
185.3377341029
 11
373.2224525162
 21
189.3087377258
  0
LINE
  8
0
 62
7
  6
CONTINUOUS
 10
370.4929337625
 20
171.5165967007
 11
372.6586899907
 21
185.5760342641
  0
LINE
  8
0
 62
7
  6
CONTINUOUS
 10
367.4827646103
 20
153.4125358286
 11
370.5777929904
 21
172.0643269648
  0
POLYLINE
  8
0
 62
7
  6
CONTINUOUS
 66
1
 70
0
  0
VERTEX
  8
0
 62
7
  6
CONTINUOUS
 10
367.0846798513
 20
151.4211095436
  0
VERTEX
  8
0
 62
7
  6
CONTINUOUS
 10
368.4587571033
 20
158.9746731219
  0
VERTEX
  8
0
 62
7
  6
CONTINUOUS
 10
369.6885645447
 20
166.3873456139
  0
VERTEX
  8
0
 62
7
  6
CONTINUOUS
 10
370.4928647817
 20
171.528295373
  0
SEQEND
  0
POLYLINE
  8
0
 62
7
  6
CONTINUOUS
 66
1
 70
0
  0
VERTEX
  8
0
 62
7
  6
CONTINUOUS
 10
376.8640294852
 20
224.7074500478
  0
VERTEX
  8
0
 62
7
  6
CONTINUOUS
 10
376.4919983684
 20
225.1748339842
  0
VERTEX
  8
0
 62
7
  6
CONTINUOUS
 10
376.0354266858
 20
225.5587681454
  0
VERTEX
  8
0
 62
7
  6
CONTINUOUS
 10
375.5107488699
 20
225.8452663809
  0
SEQEND
  0
POLYLINE
  8
0
 62
7
  6
CONTINUOUS
 66
1
 70
0
  0
VERTEX
  8
0
 62
7
  6
CONTINUOUS
 10
376.8237385632
 20
224.7690650965
  0
VERTEX
  8
0
 62
7
  6
CONTINUOUS
 10
376.7747994432
 20
224.8388737663
  0
VERTEX
  8
0
 62
7
  6
CONTINUOUS
 10
376.7231594061
 20
224.9082351725
  0
VERTEX
  8
0
 62
7
  6
CONTINUOUS
 10
376.6687944186
 20
224.9770039833
  0
VERTEX
  8
0
 62
7
  6
CONTINUOUS
 10
376.611633935
 20
225.045091
  0
VERTEX
  8
0
 62
7
  6
CONTINUOUS
 10
376.551705023
 20
225.1122890545
  0
VERTEX
  8
0
 62
7
  6
CONTINUOUS
 10
376.4886950487
 20
225.1787612753
  0
VERTEX
  8
0
 62
7
  6
CONTINUOUS
 10
376.4223961098
 20
225.2445145887
  0
VERTEX
  8
0
 62
7
  6
CONTINUOUS
 10
376.3524364894
 20
225.3096630193
  0
VERTEX
  8
0
 62
7
  6
CONTINUOUS
 10
376.2784988353
 20
225.3741966429
  0
VERTEX
  8
0
 62
7
  6
CONTINUOUS
 10
376.200051633
 20
225.4382125677
  0
VERTEX
  8
0
 62
7
  6
CONTINUOUS
 10
376.1183679653
 20
225.500376295
  0
VERTEX
  8
0
 62
7
  6
CONTINUOUS
 10
376.0275140446
 20
225.5645388605
  0
VERTEX
  8
0
 62
7
  6
CONTINUOUS
 10
375.917554965
 20
225.6357229288
  0
VERTEX
  8
0
 62
7
  6
CONTINUOUS
 10
375.7993344667
 20
225.7049636769
  0
SEQEND
  0
POLYLINE
  8
0
 62
7
  6
CONTINUOUS
 66
1
 70
0
  0
VERTEX
  8
0
 62
7
  6
CONTINUOUS
 10
377.2974117525
 20
223.6001460418
  0
VERTEX
  8
0
 62
7
  6
CONTINUOUS
 10
377.1364050487
 20
224.1747878221
  0
VERTEX
  8
0
 62
7
  6
CONTINUOUS
 10
376.8640294852
 20
224.7074500478
  0
SEQEND
  0
POLYLINE
  8
0
 62
7
  6
CONTINUOUS
 66
1
 70
0
  0
VERTEX
  8
0
 62
7
  6
CONTINUOUS
 10
377.2990324562
 20
223.5922484987
  0
VERTEX
  8
0
 62
7
  6
CONTINUOUS
 10
377.2865980754
 20
223.6596139973
  0
VERTEX
  8
0
 62
7
  6
CONTINUOUS
 10
377.2724955326
 20
223.7274601937
  0
VERTEX
  8
0
 62
7
  6
CONTINUOUS
 10
377.2566771469
 20
223.7957058185
  0
VERTEX
  8
0
 62
7
  6
CONTINUOUS
 10
377.2391992869
 20
223.8638898712
  0
VERTEX
  8
0
 62
7
  6
CONTINUOUS
 10
377.2199545579
 20
223.9322459793
  0
VERTEX
  8
0
 62
7
  6
CONTINUOUS
 10
377.1988586759
 20
224.0008432307
  0
VERTEX
  8
0
 62
7
  6
CONTINUOUS
 10
377.1758369898
 20
224.0696858347
  0
VERTEX
  8
0
 62
7
  6
CONTINUOUS
 10
377.1508121926
 20
224.1388019973
  0
VERTEX
  8
0
 62
7
  6
CONTINUOUS
 10
377.1237286281
 20
224.2081616546
  0
VERTEX
  8
0
 62
7
  6
CONTINUOUS
 10
377.0945306121
 20
224.2777245769
  0
VERTEX
  8
0
 62
7
  6
CONTINUOUS
 10
377.0631266688
 20
224.3475185237
  0
VERTEX
  8
0
 62
7
  6
CONTINUOUS
 10
377.0294156494
 20
224.4175631658
  0
VERTEX
  8
0
 62
7
  6
CONTINUOUS
 10
376.9933261689
 20
224.4877946584
  0
VERTEX
  8
0
 62
7
  6
CONTINUOUS
 10
376.9547612968
 20
224.5581851662
  0
VERTEX
  8
0
 62
7
  6
CONTINUOUS
 10
376.9136761494
 20
224.6286011359
  0
VERTEX
  8
0
 62
7
  6
CONTINUOUS
 10
376.8700167542
 20
224.6989338008
  0
VERTEX
  8
0
 62
7
  6
CONTINUOUS
 10
376.8237385632
 20
224.7690650965
  0
SEQEND
  0
ENDSEC
  0
EOF
