999
DXF file: K:\Client\125_Heirloom\001\00\Final_Data\Drawings\BASINS\lineal-362112_3.dxf
999
Pro/ENGINEER 2017110 by Parametric Technology Corporation
  0
SECTION
  2
HEADER
  9
$EXTMAX
 10
420.0
 20
297.0
 30
0.0
  9
$EXTMIN
 10
0.0
 20
0.0
 30
0.0
  9
$LIMMIN
 10
0.0
 20
0.0
  9
$LIMMAX
 10
420.0
 20
297.0
  9
$VIEWCTR
 10
210.0
 20
148.5
  9
$VIEWSIZE
 40
297.0
  9
$CLAYER
  8
0
  9
$LTSCALE
 40
23.1
  9
$CELTYPE
  6
BYLAYER
  9
$DIMSCALE
 40
1.0
  9
$DIMASZ
 40
3.0
  9
$DIMEXO
 40
1.0
  9
$DIMDLI
 40
15.96
  9
$DIMEXE
 40
1.0
  9
$DIMCEN
 40
3.78
  9
$DIMLFAC
 40
1.0
  9
$DIMBLK
  1
_FILLED
  9
$DIMALT
 70
0
  9
$DIMALTF
 40
0.0393700787
  9
$DIMTXT
 40
3.0
  9
$AUNITS
 70
0
  9
$PDMODE
 70
3
  9
$PDSIZE
 40
5.0
  9
$TILEMODE
 70
1
  0
ENDSEC
  0
SECTION
  2
TABLES
  0
TABLE
  2
LTYPE
 70
6
  0
LTYPE
  2
BYBLOCK
 70
0
  3

 72
65
 73
0
 40
0.0
  0
LTYPE
  2
BYLAYER
 70
0
  3

 72
65
 73
0
 40
0.0
  0
LTYPE
  2
CONTINUOUS
 70
64
  3
Solid line
 72
65
 73
0
 40
0.0
  0
LTYPE
  2
CENTER
 70
64
  3
____ _ ____ _ ____ _ ____ _ ____ _ ____ _ ____
 72
65
 73
4
 40
0.6
 49
0.375
 49
-0.075
 49
0.075
 49
-0.075
  0
LTYPE
  2
HIDDEN
 70
64
  3
- - - - - - - - - - - - - - - - - - - -
 72
65
 73
2
 40
0.2
 49
0.1
 49
-0.1
  0
LTYPE
  2
PHANTOM
 70
64
  3
_____ _ _ _____ _ _ _____ _ _ _____
 72
65
 73
6
 40
0.8
 49
0.45
 49
-0.05
 49
0.1
 49
-0.05
 49
0.1
 49
-0.05
  0
LTYPE
  2
DOT
 70
64
  3
. . . . . . . . . . . . . . . . . . . .
 72
65
 73
2
 40
0.2
 49
0.1
 49
-0.1
  0
LTYPE
  2
DASHED
 70
64
  3
- - - - - - - - - - - - - - - - - - - -
 72
65
 73
2
 40
0.2
 49
0.1
 49
-0.1
  0
ENDTAB
  0
TABLE
  2
LAYER
 70
36
  0
LAYER
  2
0
 70
0
 62
7
  6
CONTINUOUS
  0
LAYER
  2
DEFAULT_1
 70
0
 62
7
  6
CENTER
  0
LAYER
  2
DEFAULT_2
 70
0
 62
8
  6
HIDDEN
  0
LAYER
  2
DEFAULT_3
 70
0
 62
7
  6
PHANTOM
  0
LAYER
  2
0000_BOM
 70
0
 62
7
  6
CONTINUOUS
  0
LAYER
  2
0000_REV_TABLE
 70
0
 62
7
  6
CONTINUOUS
  0
LAYER
  2
0000_STEVENS_NOTE
 70
0
 62
7
  6
CONTINUOUS
  0
LAYER
  2
01_DATUM_PLANES
 70
0
 62
7
  6
CONTINUOUS
  0
LAYER
  2
01_DEF_PLANES
 70
0
 62
7
  6
CONTINUOUS
  0
LAYER
  2
02_DATUM_COS
 70
0
 62
7
  6
CONTINUOUS
  0
LAYER
  2
90_IMP_FEAT
 70
0
 62
7
  6
CONTINUOUS
  0
LAYER
  2
95_STL
 70
0
 62
7
  6
CONTINUOUS
  0
LAYER
  2
99_SOLID
 70
0
 62
7
  6
CONTINUOUS
  0
LAYER
  2
CAD-MASTER_ZINC-PL
 70
0
 62
7
  6
CONTINUOUS
  0
LAYER
  2
CURVE
 70
0
 62
7
  6
CONTINUOUS
  0
LAYER
  2
SKEL
 70
0
 62
7
  6
CONTINUOUS
  0
LAYER
  2
SKETCH
 70
0
 62
7
  6
CONTINUOUS
  0
LAYER
  2
SURFACE
 70
0
 62
7
  6
CONTINUOUS
  0
ENDTAB
  0
TABLE
  2
STYLE
 70
1
  0
STYLE
  2
STANDARD
 70
0
 40
0.0
 41
0.75
 50
0.0
 71
0
 42
0.2
  3
txt
  4

  0
STYLE
  2
TEXTSTYLE_1
 70
0
 40
0.0
 41
0.8
 50
0.0
 71
0
 42
0.2
  3
gdt
  4

  0
ENDTAB
  0
ENDSEC
  0
SECTION
  2
BLOCKS
  0
ENDSEC
  0
SECTION
  2
ENTITIES
  0
POLYLINE
  8
0
 62
7
  6
CONTINUOUS
 66
1
 70
0
  0
VERTEX
  8
0
 62
7
  6
CONTINUOUS
 10
-113.0258315272
 20
161.6606242054
  0
VERTEX
  8
0
 62
7
  6
CONTINUOUS
 10
-112.9911100746
 20
158.3399322673
  0
VERTEX
  8
0
 62
7
  6
CONTINUOUS
 10
-112.9702772378
 20
155.0191621739
  0
VERTEX
  8
0
 62
7
  6
CONTINUOUS
 10
-112.9633330421
 20
151.6983468595
  0
VERTEX
  8
0
 62
7
  6
CONTINUOUS
 10
-112.970277513
 20
148.3775397711
  0
VERTEX
  8
0
 62
7
  6
CONTINUOUS
 10
-112.9911104187
 20
145.0567943553
  0
VERTEX
  8
0
 62
7
  6
CONTINUOUS
 10
-113.0258315272
 20
141.7361435445
  0
SEQEND
  0
POLYLINE
  8
0
 62
7
  6
CONTINUOUS
 66
1
 70
0
  0
VERTEX
  8
0
 62
7
  6
CONTINUOUS
 10
-105.4276647826
 20
141.6983788473
  0
VERTEX
  8
0
 62
7
  6
CONTINUOUS
 10
-105.4012847367
 20
137.9917761543
  0
VERTEX
  8
0
 62
7
  6
CONTINUOUS
 10
-105.3633531194
 20
134.2854575186
  0
VERTEX
  8
0
 62
7
  6
CONTINUOUS
 10
-105.3142353303
 20
130.5800628012
  0
VERTEX
  8
0
 62
7
  6
CONTINUOUS
 10
-105.2514285779
 20
126.87587397
  0
VERTEX
  8
0
 62
7
  6
CONTINUOUS
 10
-105.1733294314
 20
123.1736385286
  0
VERTEX
  8
0
 62
7
  6
CONTINUOUS
 10
-105.0772158999
 20
119.473209063
  0
VERTEX
  8
0
 62
7
  6
CONTINUOUS
 10
-104.9584935432
 20
115.7312257744
  0
VERTEX
  8
0
 62
7
  6
CONTINUOUS
 10
-104.8197561961
 20
112.0802959863
  0
VERTEX
  8
0
 62
7
  6
CONTINUOUS
 10
-104.6663876601
 20
108.695126018
  0
VERTEX
  8
0
 62
7
  6
CONTINUOUS
 10
-104.4898654006
 20
105.3991069225
  0
VERTEX
  8
0
 62
7
  6
CONTINUOUS
 10
-104.2824908445
 20
102.0608342153
  0
VERTEX
  8
0
 62
7
  6
CONTINUOUS
 10
-104.0430180121
 20
98.7259086248
  0
VERTEX
  8
0
 62
7
  6
CONTINUOUS
 10
-103.7684209738
 20
95.3954651506
  0
VERTEX
  8
0
 62
7
  6
CONTINUOUS
 10
-103.4564006442
 20
92.0714031513
  0
VERTEX
  8
0
 62
7
  6
CONTINUOUS
 10
-103.0998138059
 20
88.7219354784
  0
VERTEX
  8
0
 62
7
  6
CONTINUOUS
 10
-102.7108722173
 20
85.4481527547
  0
VERTEX
  8
0
 62
7
  6
CONTINUOUS
 10
-102.3064834938
 20
82.3816244161
  0
VERTEX
  8
0
 62
7
  6
CONTINUOUS
 10
-101.8709397
 20
79.3904826952
  0
VERTEX
  8
0
 62
7
  6
CONTINUOUS
 10
-101.3918271626
 20
76.3785161224
  0
VERTEX
  8
0
 62
7
  6
CONTINUOUS
 10
-100.8711205878
 20
73.3782295205
  0
VERTEX
  8
0
 62
7
  6
CONTINUOUS
 10
-100.3074060682
 20
70.3901250292
  0
VERTEX
  8
0
 62
7
  6
CONTINUOUS
 10
-99.6980245502
 20
67.4146428588
  0
VERTEX
  8
0
 62
7
  6
CONTINUOUS
 10
-99.0349414851
 20
64.431004487
  0
VERTEX
  8
0
 62
7
  6
CONTINUOUS
 10
-98.3322075818
 20
61.5044041855
  0
VERTEX
  8
0
 62
7
  6
CONTINUOUS
 10
-97.6101669077
 20
58.7191367834
  0
VERTEX
  8
0
 62
7
  6
CONTINUOUS
 10
-96.8466270575
 20
55.9897310303
  0
VERTEX
  8
0
 62
7
  6
CONTINUOUS
 10
-96.0237638552
 20
53.2542343878
  0
VERTEX
  8
0
 62
7
  6
CONTINUOUS
 10
-95.1440560119
 20
50.5338367859
  0
VERTEX
  8
0
 62
7
  6
CONTINUOUS
 10
-94.2046354591
 20
47.8280913068
  0
VERTEX
  8
0
 62
7
  6
CONTINUOUS
 10
-93.2045826387
 20
45.1386032142
  0
VERTEX
  8
0
 62
7
  6
CONTINUOUS
 10
-92.1356964506
 20
42.4519478023
  0
VERTEX
  8
0
 62
7
  6
CONTINUOUS
 10
-91.0176014877
 20
39.8117537788
  0
VERTEX
  8
0
 62
7
  6
CONTINUOUS
 10
-89.8745206947
 20
37.2704439631
  0
VERTEX
  8
0
 62
7
  6
CONTINUOUS
 10
-88.6884537856
 20
34.7819571185
  0
VERTEX
  8
0
 62
7
  6
CONTINUOUS
 10
-87.4469152368
 20
32.3154491463
  0
VERTEX
  8
0
 62
7
  6
CONTINUOUS
 10
-86.1548320262
 20
29.8819982855
  0
VERTEX
  8
0
 62
7
  6
CONTINUOUS
 10
-84.8131817991
 20
27.4829001688
  0
VERTEX
  8
0
 62
7
  6
CONTINUOUS
 10
-83.4214228168
 20
25.1165085952
  0
VERTEX
  8
0
 62
7
  6
CONTINUOUS
 10
-81.9801980718
 20
22.783010782
  0
VERTEX
  8
0
 62
7
  6
CONTINUOUS
 10
-80.4867286519
 20
20.4785188409
  0
VERTEX
  8
0
 62
7
  6
CONTINUOUS
 10
-78.9375021244
 20
18.1979971529
  0
VERTEX
  8
0
 62
7
  6
CONTINUOUS
 10
-77.3348424253
 20
15.9458894148
  0
VERTEX
  8
0
 62
7
  6
CONTINUOUS
 10
-75.6797391433
 20
13.7243950891
  0
VERTEX
  8
0
 62
7
  6
CONTINUOUS
 10
-73.9729811178
 20
11.5347444791
  0
VERTEX
  8
0
 62
7
  6
CONTINUOUS
 10
-72.2143643764
 20
9.3768844304
  0
VERTEX
  8
0
 62
7
  6
CONTINUOUS
 10
-70.4078199408
 20
7.2569226945
  0
VERTEX
  8
0
 62
7
  6
CONTINUOUS
 10
-68.5633554233
 20
5.1869252486
  0
VERTEX
  8
0
 62
7
  6
CONTINUOUS
 10
-66.6622617198
 20
3.1493952452
  0
VERTEX
  8
0
 62
7
  6
CONTINUOUS
 10
-64.6800797811
 20
1.1220646068
  0
VERTEX
  8
0
 62
7
  6
CONTINUOUS
 10
-62.6422379045
 20
-0.8658240757
  0
VERTEX
  8
0
 62
7
  6
CONTINUOUS
 10
-60.5692734579
 20
-2.7912222258
  0
VERTEX
  8
0
 62
7
  6
CONTINUOUS
 10
-58.4539391576
 20
-4.6617897986
  0
VERTEX
  8
0
 62
7
  6
CONTINUOUS
 10
-56.2958308655
 20
-6.4773353224
  0
VERTEX
  8
0
 62
7
  6
CONTINUOUS
 10
-54.0947555887
 20
-8.2380500224
  0
VERTEX
  8
0
 62
7
  6
CONTINUOUS
 10
-51.865179316
 20
-9.9341077533
  0
VERTEX
  8
0
 62
7
  6
CONTINUOUS
 10
-49.5629820286
 20
-11.5957777661
  0
VERTEX
  8
0
 62
7
  6
CONTINUOUS
 10
-47.1286115207
 20
-13.2621184618
  0
VERTEX
  8
0
 62
7
  6
CONTINUOUS
 10
-44.6188948426
 20
-14.8907765372
  0
VERTEX
  8
0
 62
7
  6
CONTINUOUS
 10
-42.0765679899
 20
-16.4512061591
  0
VERTEX
  8
0
 62
7
  6
CONTINUOUS
 10
-39.4888873219
 20
-17.9541419718
  0
VERTEX
  8
0
 62
7
  6
CONTINUOUS
 10
-36.853941063
 20
-19.4015351035
  0
VERTEX
  8
0
 62
7
  6
CONTINUOUS
 10
-34.1817803054
 20
-20.7888939696
  0
VERTEX
  8
0
 62
7
  6
CONTINUOUS
 10
-31.5066064209
 20
-22.1016562663
  0
VERTEX
  8
0
 62
7
  6
CONTINUOUS
 10
-28.7542881167
 20
-23.3723473364
  0
VERTEX
  8
0
 62
7
  6
CONTINUOUS
 10
-25.8270308532
 20
-24.6413801036
  0
VERTEX
  8
0
 62
7
  6
CONTINUOUS
 10
-22.8239845845
 20
-25.8610741089
  0
VERTEX
  8
0
 62
7
  6
CONTINUOUS
 10
-19.8224825179
 20
-26.9961520432
  0
VERTEX
  8
0
 62
7
  6
CONTINUOUS
 10
-16.7966498185
 20
-28.0599431644
  0
VERTEX
  8
0
 62
7
  6
CONTINUOUS
 10
-13.7463797217
 20
-29.0535533439
  0
VERTEX
  8
0
 62
7
  6
CONTINUOUS
 10
-10.6715537727
 20
-29.9781446463
  0
VERTEX
  8
0
 62
7
  6
CONTINUOUS
 10
-7.6088708427
 20
-30.8267391293
  0
VERTEX
  8
0
 62
7
  6
CONTINUOUS
 10
-4.448326423
 20
-31.6257301527
  0
VERTEX
  8
0
 62
7
  6
CONTINUOUS
 10
-1.0393725654
 20
-32.407756295
  0
VERTEX
  8
0
 62
7
  6
CONTINUOUS
 10
2.4677319103
 20
-33.134472492
  0
VERTEX
  8
0
 62
7
  6
CONTINUOUS
 10
5.9593345915
 20
-33.7788513172
  0
VERTEX
  8
0
 62
7
  6
CONTINUOUS
 10
9.4668234062
 20
-34.3541983352
  0
VERTEX
  8
0
 62
7
  6
CONTINUOUS
 10
12.9831949441
 20
-34.8632833377
  0
VERTEX
  8
0
 62
7
  6
CONTINUOUS
 10
16.5084985433
 20
-35.3129905534
  0
VERTEX
  8
0
 62
7
  6
CONTINUOUS
 10
20.003042754
 20
-35.7061364999
  0
VERTEX
  8
0
 62
7
  6
CONTINUOUS
 10
23.5784406887
 20
-36.0586423451
  0
VERTEX
  8
0
 62
7
  6
CONTINUOUS
 10
27.3841430324
 20
-36.3877655565
  0
VERTEX
  8
0
 62
7
  6
CONTINUOUS
 10
31.2714126329
 20
-36.6853221355
  0
VERTEX
  8
0
 62
7
  6
CONTINUOUS
 10
35.127483461
 20
-36.9479997775
  0
VERTEX
  8
0
 62
7
  6
CONTINUOUS
 10
38.9889166473
 20
-37.186229423
  0
VERTEX
  8
0
 62
7
  6
CONTINUOUS
 10
42.8555273453
 20
-37.407436654
  0
VERTEX
  8
0
 62
7
  6
CONTINUOUS
 10
46.7254930823
 20
-37.6162208215
  0
VERTEX
  8
0
 62
7
  6
CONTINUOUS
 10
50.5484395474
 20
-37.8157765862
  0
VERTEX
  8
0
 62
7
  6
CONTINUOUS
 10
54.4723522036
 20
-38.0138075316
  0
VERTEX
  8
0
 62
7
  6
CONTINUOUS
 10
58.6966993101
 20
-38.2229325393
  0
VERTEX
  8
0
 62
7
  6
CONTINUOUS
 10
63.0196947563
 20
-38.4268476114
  0
VERTEX
  8
0
 62
7
  6
CONTINUOUS
 10
67.2898395564
 20
-38.6139215276
  0
VERTEX
  8
0
 62
7
  6
CONTINUOUS
 10
71.5584338883
 20
-38.7785393879
  0
VERTEX
  8
0
 62
7
  6
CONTINUOUS
 10
75.8249618504
 20
-38.9126946454
  0
VERTEX
  8
0
 62
7
  6
CONTINUOUS
 10
80.0922342145
 20
-39.0137129329
  0
VERTEX
  8
0
 62
7
  6
CONTINUOUS
 10
84.2933394938
 20
-39.0769238073
  0
VERTEX
  8
0
 62
7
  6
CONTINUOUS
 10
88.6323945048
 20
-39.1074055004
  0
VERTEX
  8
0
 62
7
  6
CONTINUOUS
 10
93.3820252015
 20
-39.1050007938
  0
VERTEX
  8
0
 62
7
  6
CONTINUOUS
 10
98.2722756006
 20
-39.0768594177
  0
VERTEX
  8
0
 62
7
  6
CONTINUOUS
 10
103.0995662841
 20
-39.0290739268
  0
VERTEX
  8
0
 62
7
  6
CONTINUOUS
 10
107.9313932464
 20
-38.9740500356
  0
VERTEX
  8
0
 62
7
  6
CONTINUOUS
 10
112.7678942932
 20
-38.9240051056
  0
VERTEX
  8
0
 62
7
  6
CONTINUOUS
 10
117.6072627038
 20
-38.886069226
  0
VERTEX
  8
0
 62
7
  6
CONTINUOUS
 10
122.3689985064
 20
-38.8687953187
  0
VERTEX
  8
0
 62
7
  6
CONTINUOUS
 10
127.2919859318
 20
-38.875958464
  0
VERTEX
  8
0
 62
7
  6
CONTINUOUS
 10
132.6957865245
 20
-38.9155345845
  0
VERTEX
  8
0
 62
7
  6
CONTINUOUS
 10
138.2564175738
 20
-38.9857448144
  0
VERTEX
  8
0
 62
7
  6
CONTINUOUS
 10
143.7344637734
 20
-39.08651054
  0
VERTEX
  8
0
 62
7
  6
CONTINUOUS
 10
149.2065527377
 20
-39.2038527787
  0
VERTEX
  8
0
 62
7
  6
CONTINUOUS
 10
154.6708109545
 20
-39.3263110868
  0
VERTEX
  8
0
 62
7
  6
CONTINUOUS
 10
160.1293103928
 20
-39.4368854462
  0
VERTEX
  8
0
 62
7
  6
CONTINUOUS
 10
165.5819028634
 20
-39.5149338236
  0
VERTEX
  8
0
 62
7
  6
CONTINUOUS
 10
171.0327785681
 20
-39.5608558504
  0
SEQEND
  0
POLYLINE
  8
0
 62
7
  6
CONTINUOUS
 66
1
 70
0
  0
VERTEX
  8
0
 62
7
  6
CONTINUOUS
 10
-105.4269384421
 20
141.7161355719
  0
VERTEX
  8
0
 62
7
  6
CONTINUOUS
 10
-105.4444877203
 20
145.0435228325
  0
VERTEX
  8
0
 62
7
  6
CONTINUOUS
 10
-105.4534782242
 20
148.3709521915
  0
VERTEX
  8
0
 62
7
  6
CONTINUOUS
 10
-105.4560083664
 20
151.6983863766
  0
VERTEX
  8
0
 62
7
  6
CONTINUOUS
 10
-105.4534782114
 20
155.0258204213
  0
VERTEX
  8
0
 62
7
  6
CONTINUOUS
 10
-105.4444877037
 20
158.3532485276
  0
VERTEX
  8
0
 62
7
  6
CONTINUOUS
 10
-105.4269384421
 20
161.6806321764
  0
SEQEND
  0
POLYLINE
  8
0
 62
7
  6
CONTINUOUS
 66
1
 70
0
  0
VERTEX
  8
0
 62
7
  6
CONTINUOUS
 10
-108.05621583
 20
161.698383875
  0
VERTEX
  8
0
 62
7
  6
CONTINUOUS
 10
-108.0702783598
 20
158.384120838
  0
VERTEX
  8
0
 62
7
  6
CONTINUOUS
 10
-108.0787152582
 20
155.0545530206
  0
VERTEX
  8
0
 62
7
  6
CONTINUOUS
 10
-108.0815259443
 20
151.7024835522
  0
VERTEX
  8
0
 62
7
  6
CONTINUOUS
 10
-108.0787121605
 20
148.3495030444
  0
VERTEX
  8
0
 62
7
  6
CONTINUOUS
 10
-108.0702756493
 20
145.0172021088
  0
VERTEX
  8
0
 62
7
  6
CONTINUOUS
 10
-108.05621583
 20
141.698383875
  0
SEQEND
  0
POLYLINE
  8
0
 62
7
  6
CONTINUOUS
 66
1
 70
0
  0
VERTEX
  8
0
 62
7
  6
CONTINUOUS
 10
-113.0264728455
 20
141.6982757988
  0
VERTEX
  8
0
 62
7
  6
CONTINUOUS
 10
-113.1157619287
 20
124.7129867025
  0
VERTEX
  8
0
 62
7
  6
CONTINUOUS
 10
-112.8107431781
 20
107.9325258884
  0
VERTEX
  8
0
 62
7
  6
CONTINUOUS
 10
-112.1574306239
 20
92.7396526118
  0
VERTEX
  8
0
 62
7
  6
CONTINUOUS
 10
-110.8914248752
 20
78.8702861401
  0
VERTEX
  8
0
 62
7
  6
CONTINUOUS
 10
-108.8381870103
 20
66.2609467249
  0
VERTEX
  8
0
 62
7
  6
CONTINUOUS
 10
-106.0073470859
 20
54.611443343
  0
VERTEX
  8
0
 62
7
  6
CONTINUOUS
 10
-102.3456403699
 20
43.6548938086
  0
VERTEX
  8
0
 62
7
  6
CONTINUOUS
 10
-97.7998684208
 20
33.258802582
  0
VERTEX
  8
0
 62
7
  6
CONTINUOUS
 10
-92.2526551768
 20
22.9493192701
  0
VERTEX
  8
0
 62
7
  6
CONTINUOUS
 10
-85.8918340674
 20
13.150136789
  0
VERTEX
  8
0
 62
7
  6
CONTINUOUS
 10
-78.8691439314
 20
4.16437532
  0
VERTEX
  8
0
 62
7
  6
CONTINUOUS
 10
-71.0776621651
 20
-4.2511829352
  0
VERTEX
  8
0
 62
7
  6
CONTINUOUS
 10
-62.364586378
 20
-12.1711697591
  0
VERTEX
  8
0
 62
7
  6
CONTINUOUS
 10
-52.9111055133
 20
-19.3988589464
  0
VERTEX
  8
0
 62
7
  6
CONTINUOUS
 10
-42.6180543671
 20
-25.9952146214
  0
VERTEX
  8
0
 62
7
  6
CONTINUOUS
 10
-31.9395562354
 20
-31.7602781322
  0
VERTEX
  8
0
 62
7
  6
CONTINUOUS
 10
-21.4880336165
 20
-36.377615844
  0
VERTEX
  8
0
 62
7
  6
CONTINUOUS
 10
-10.7163151967
 20
-40.0322475507
  0
VERTEX
  8
0
 62
7
  6
CONTINUOUS
 10
0.6253674427
 20
-42.769520746
  0
VERTEX
  8
0
 62
7
  6
CONTINUOUS
 10
12.8161478024
 20
-44.7093395135
  0
VERTEX
  8
0
 62
7
  6
CONTINUOUS
 10
26.2915255098
 20
-45.916089351
  0
VERTEX
  8
0
 62
7
  6
CONTINUOUS
 10
41.0142679331
 20
-46.4019978075
  0
VERTEX
  8
0
 62
7
  6
CONTINUOUS
 10
56.9546436947
 20
-46.6881209644
  0
VERTEX
  8
0
 62
7
  6
CONTINUOUS
 10
74.7033070753
 20
-46.9839334043
  0
VERTEX
  8
0
 62
7
  6
CONTINUOUS
 10
94.3161491219
 20
-47.0533290863
  0
VERTEX
  8
0
 62
7
  6
CONTINUOUS
 10
116.649146043
 20
-47.0357950731
  0
VERTEX
  8
0
 62
7
  6
CONTINUOUS
 10
142.674746005
 20
-47.3182838504
  0
VERTEX
  8
0
 62
7
  6
CONTINUOUS
 10
171.0327841554
 20
-47.3976405023
  0
SEQEND
  0
POLYLINE
  8
0
 62
7
  6
CONTINUOUS
 66
1
 70
0
  0
VERTEX
  8
0
 62
7
  6
CONTINUOUS
 10
-108.0564012631
 20
161.698383875
  0
VERTEX
  8
0
 62
7
  6
CONTINUOUS
 10
-107.9169691346
 20
176.9053873481
  0
VERTEX
  8
0
 62
7
  6
CONTINUOUS
 10
-107.4085739506
 20
191.3674920224
  0
VERTEX
  8
0
 62
7
  6
CONTINUOUS
 10
-106.5839658447
 20
205.0469259413
  0
VERTEX
  8
0
 62
7
  6
CONTINUOUS
 10
-105.2848944164
 20
218.0570049741
  0
VERTEX
  8
0
 62
7
  6
CONTINUOUS
 10
-103.3929961449
 20
230.509035696
  0
VERTEX
  8
0
 62
7
  6
CONTINUOUS
 10
-100.841360525
 20
242.3712740328
  0
VERTEX
  8
0
 62
7
  6
CONTINUOUS
 10
-97.5303479625
 20
253.6478670418
  0
VERTEX
  8
0
 62
7
  6
CONTINUOUS
 10
-93.4397822038
 20
264.3424479034
  0
VERTEX
  8
0
 62
7
  6
CONTINUOUS
 10
-88.5106544097
 20
274.4462014729
  0
VERTEX
  8
0
 62
7
  6
CONTINUOUS
 10
-82.7598227421
 20
284.0006197835
  0
VERTEX
  8
0
 62
7
  6
CONTINUOUS
 10
-76.1978019725
 20
293.0694778654
  0
VERTEX
  8
0
 62
7
  6
CONTINUOUS
 10
-68.7846134322
 20
301.5771115834
  0
VERTEX
  8
0
 62
7
  6
CONTINUOUS
 10
-60.4840062782
 20
309.5070616738
  0
VERTEX
  8
0
 62
7
  6
CONTINUOUS
 10
-51.2953118047
 20
316.7454885519
  0
VERTEX
  8
0
 62
7
  6
CONTINUOUS
 10
-41.2115142287
 20
323.1814924261
  0
VERTEX
  8
0
 62
7
  6
CONTINUOUS
 10
-30.2154039387
 20
328.7897946537
  0
VERTEX
  8
0
 62
7
  6
CONTINUOUS
 10
-18.260545049
 20
333.5308656661
  0
VERTEX
  8
0
 62
7
  6
CONTINUOUS
 10
-5.427600599
 20
337.3365584487
  0
VERTEX
  8
0
 62
7
  6
CONTINUOUS
 10
8.2278496157
 20
340.0272865578
  0
VERTEX
  8
0
 62
7
  6
CONTINUOUS
 10
22.6769917493
 20
341.8978387111
  0
VERTEX
  8
0
 62
7
  6
CONTINUOUS
 10
37.8489250067
 20
343.1074310755
  0
VERTEX
  8
0
 62
7
  6
CONTINUOUS
 10
53.8143304403
 20
343.8831948599
  0
VERTEX
  8
0
 62
7
  6
CONTINUOUS
 10
70.5576373083
 20
344.5558476146
  0
VERTEX
  8
0
 62
7
  6
CONTINUOUS
 10
88.2667001982
 20
344.9738464827
  0
VERTEX
  8
0
 62
7
  6
CONTINUOUS
 10
107.1077531591
 20
344.9749237446
  0
VERTEX
  8
0
 62
7
  6
CONTINUOUS
 10
127.1300870651
 20
344.9219715382
  0
VERTEX
  8
0
 62
7
  6
CONTINUOUS
 10
148.4514919181
 20
345.1623931238
  0
VERTEX
  8
0
 62
7
  6
CONTINUOUS
 10
171.0327043842
 20
345.5803874145
  0
SEQEND
  0
POLYLINE
  8
0
 62
7
  6
CONTINUOUS
 66
1
 70
0
  0
VERTEX
  8
0
 62
7
  6
CONTINUOUS
 10
-110.0262275584
 20
141.698383875
  0
VERTEX
  8
0
 62
7
  6
CONTINUOUS
 10
-109.991290812
 20
145.0346866143
  0
VERTEX
  8
0
 62
7
  6
CONTINUOUS
 10
-109.9703300477
 20
148.3688252096
  0
VERTEX
  8
0
 62
7
  6
CONTINUOUS
 10
-109.9633464689
 20
151.6998843029
  0
VERTEX
  8
0
 62
7
  6
CONTINUOUS
 10
-109.9703364655
 20
155.0306099677
  0
VERTEX
  8
0
 62
7
  6
CONTINUOUS
 10
-109.9912964276
 20
158.3637482777
  0
VERTEX
  8
0
 62
7
  6
CONTINUOUS
 10
-110.0262275584
 20
161.698383875
  0
SEQEND
  0
POLYLINE
  8
0
 62
7
  6
CONTINUOUS
 66
1
 70
0
  0
VERTEX
  8
0
 62
7
  6
CONTINUOUS
 10
-110.0264599258
 20
141.698383875
  0
VERTEX
  8
0
 62
7
  6
CONTINUOUS
 10
-110.1151032533
 20
134.2108017785
  0
VERTEX
  8
0
 62
7
  6
CONTINUOUS
 10
-110.1258080739
 20
126.7332883071
  0
VERTEX
  8
0
 62
7
  6
CONTINUOUS
 10
-110.0546013296
 20
119.179444936
  0
VERTEX
  8
0
 62
7
  6
CONTINUOUS
 10
-109.9134021947
 20
111.8084672396
  0
VERTEX
  8
0
 62
7
  6
CONTINUOUS
 10
-109.7272912076
 20
104.9644693352
  0
VERTEX
  8
0
 62
7
  6
CONTINUOUS
 10
-109.4528112178
 20
98.3062970695
  0
VERTEX
  8
0
 62
7
  6
CONTINUOUS
 10
-109.0629760047
 20
91.5087324313
  0
VERTEX
  8
0
 62
7
  6
CONTINUOUS
 10
-108.533453316
 20
84.868081112
  0
VERTEX
  8
0
 62
7
  6
CONTINUOUS
 10
-107.8417564986
 20
78.6609801942
  0
VERTEX
  8
0
 62
7
  6
CONTINUOUS
 10
-106.9553625335
 20
72.6212174931
  0
VERTEX
  8
0
 62
7
  6
CONTINUOUS
 10
-105.8233119628
 20
66.507840986
  0
VERTEX
  8
0
 62
7
  6
CONTINUOUS
 10
-104.4784274498
 20
60.5217072692
  0
VERTEX
  8
0
 62
7
  6
CONTINUOUS
 10
-102.9532077637
 20
54.8351913908
  0
VERTEX
  8
0
 62
7
  6
CONTINUOUS
 10
-101.1976651288
 20
49.2927859721
  0
VERTEX
  8
0
 62
7
  6
CONTINUOUS
 10
-99.1510443218
 20
43.7518968157
  0
VERTEX
  8
0
 62
7
  6
CONTINUOUS
 10
-96.8781464548
 20
38.3461594264
  0
VERTEX
  8
0
 62
7
  6
CONTINUOUS
 10
-94.4283747771
 20
33.1943887771
  0
VERTEX
  8
0
 62
7
  6
CONTINUOUS
 10
-91.7871676544
 20
28.1984522665
  0
VERTEX
  8
0
 62
7
  6
CONTINUOUS
 10
-88.9591431329
 20
23.2836204943
  0
VERTEX
  8
0
 62
7
  6
CONTINUOUS
 10
-85.936165421
 20
18.49849883
  0
VERTEX
  8
0
 62
7
  6
CONTINUOUS
 10
-82.7072914926
 20
13.8694082581
  0
VERTEX
  8
0
 62
7
  6
CONTINUOUS
 10
-79.2855610983
 20
9.3884725343
  0
VERTEX
  8
0
 62
7
  6
CONTINUOUS
 10
-75.6980452251
 20
5.0693279525
  0
VERTEX
  8
0
 62
7
  6
CONTINUOUS
 10
-71.8917071376
 20
0.8737578836
  0
VERTEX
  8
0
 62
7
  6
CONTINUOUS
 10
-67.7962820883
 20
-3.2585610692
  0
VERTEX
  8
0
 62
7
  6
CONTINUOUS
 10
-63.4905251014
 20
-7.2476723087
  0
VERTEX
  8
0
 62
7
  6
CONTINUOUS
 10
-59.0601142551
 20
-11.0105851798
  0
VERTEX
  8
0
 62
7
  6
CONTINUOUS
 10
-54.4140156391
 20
-14.6167252538
  0
VERTEX
  8
0
 62
7
  6
CONTINUOUS
 10
-49.4491491718
 20
-18.1322248257
  0
VERTEX
  8
0
 62
7
  6
CONTINUOUS
 10
-44.2873314443
 20
-21.4839730687
  0
VERTEX
  8
0
 62
7
  6
CONTINUOUS
 10
-39.0819903594
 20
-24.5945179241
  0
VERTEX
  8
0
 62
7
  6
CONTINUOUS
 10
-33.6352118994
 20
-27.5430153826
  0
VERTEX
  8
0
 62
7
  6
CONTINUOUS
 10
-27.7261644138
 20
-30.4391996675
  0
VERTEX
  8
0
 62
7
  6
CONTINUOUS
 10
-21.5770287035
 20
-33.1138840231
  0
VERTEX
  8
0
 62
7
  6
CONTINUOUS
 10
-15.4282318248
 20
-35.4075001976
  0
VERTEX
  8
0
 62
7
  6
CONTINUOUS
 10
-9.0042033605
 20
-37.4009269024
  0
VERTEX
  8
0
 62
7
  6
CONTINUOUS
 10
-1.9942291496
 20
-39.1373936994
  0
VERTEX
  8
0
 62
7
  6
CONTINUOUS
 10
5.2558325208
 20
-40.5702797854
  0
VERTEX
  8
0
 62
7
  6
CONTINUOUS
 10
12.3990379238
 20
-41.643423348
  0
VERTEX
  8
0
 62
7
  6
CONTINUOUS
 10
19.7493575402
 20
-42.4286769765
  0
VERTEX
  8
0
 62
7
  6
CONTINUOUS
 10
27.6174812673
 20
-42.9601389162
  0
VERTEX
  8
0
 62
7
  6
CONTINUOUS
 10
35.6663071277
 20
-43.2949103875
  0
VERTEX
  8
0
 62
7
  6
CONTINUOUS
 10
43.5343954349
 20
-43.4701192586
  0
VERTEX
  8
0
 62
7
  6
CONTINUOUS
 10
51.6054492141
 20
-43.5797838307
  0
VERTEX
  8
0
 62
7
  6
CONTINUOUS
 10
60.2755317791
 20
-43.7614048932
  0
VERTEX
  8
0
 62
7
  6
CONTINUOUS
 10
69.1461225782
 20
-43.921662849
  0
VERTEX
  8
0
 62
7
  6
CONTINUOUS
 10
77.7770043635
 20
-43.9991129178
  0
VERTEX
  8
0
 62
7
  6
CONTINUOUS
 10
86.6893305372
 20
-44.0356314393
  0
VERTEX
  8
0
 62
7
  6
CONTINUOUS
 10
96.4448845023
 20
-44.0480547709
  0
VERTEX
  8
0
 62
7
  6
CONTINUOUS
 10
106.4815590076
 20
-44.0500580792
  0
VERTEX
  8
0
 62
7
  6
CONTINUOUS
 10
116.2165736124
 20
-44.0464351537
  0
VERTEX
  8
0
 62
7
  6
CONTINUOUS
 10
126.2737312878
 20
-44.0806664829
  0
VERTEX
  8
0
 62
7
  6
CONTINUOUS
 10
137.2960785698
 20
-44.2412305835
  0
VERTEX
  8
0
 62
7
  6
CONTINUOUS
 10
148.6431043242
 20
-44.3979271599
  0
VERTEX
  8
0
 62
7
  6
CONTINUOUS
 10
159.8353759762
 20
-44.4374603231
  0
VERTEX
  8
0
 62
7
  6
CONTINUOUS
 10
171.0327043842
 20
-44.3975953693
  0
SEQEND
  0
POLYLINE
  8
0
 62
7
  6
CONTINUOUS
 66
1
 70
0
  0
VERTEX
  8
0
 62
7
  6
CONTINUOUS
 10
201.0327079699
 20
-39.560855189
  0
VERTEX
  8
0
 62
7
  6
CONTINUOUS
 10
206.650640319
 20
-39.5124999786
  0
VERTEX
  8
0
 62
7
  6
CONTINUOUS
 10
212.2705906755
 20
-39.4307811304
  0
VERTEX
  8
0
 62
7
  6
CONTINUOUS
 10
217.8972968929
 20
-39.315379788
  0
VERTEX
  8
0
 62
7
  6
CONTINUOUS
 10
223.5303416977
 20
-39.1888459955
  0
VERTEX
  8
0
 62
7
  6
CONTINUOUS
 10
229.1717079433
 20
-39.0698649742
  0
VERTEX
  8
0
 62
7
  6
CONTINUOUS
 10
234.8191631462
 20
-38.9700723944
  0
VERTEX
  8
0
 62
7
  6
CONTINUOUS
 10
240.5511492453
 20
-38.9041754637
  0
VERTEX
  8
0
 62
7
  6
CONTINUOUS
 10
246.1209117311
 20
-38.8711361183
  0
VERTEX
  8
0
 62
7
  6
CONTINUOUS
 10
251.1941332263
 20
-38.8717910112
  0
VERTEX
  8
0
 62
7
  6
CONTINUOUS
 10
256.1002234371
 20
-38.8968781492
  0
VERTEX
  8
0
 62
7
  6
CONTINUOUS
 10
261.0851976931
 20
-38.9417341397
  0
VERTEX
  8
0
 62
7
  6
CONTINUOUS
 10
266.0666918332
 20
-38.9961703131
  0
VERTEX
  8
0
 62
7
  6
CONTINUOUS
 10
271.0431124909
 20
-39.0510364754
  0
VERTEX
  8
0
 62
7
  6
CONTINUOUS
 10
276.0147878074
 20
-39.0932716801
  0
VERTEX
  8
0
 62
7
  6
CONTINUOUS
 10
281.0526227971
 20
-39.1089885303
  0
VERTEX
  8
0
 62
7
  6
CONTINUOUS
 10
285.9446694634
 20
-39.0936698333
  0
VERTEX
  8
0
 62
7
  6
CONTINUOUS
 10
290.4102239264
 20
-39.0414399758
  0
VERTEX
  8
0
 62
7
  6
CONTINUOUS
 10
294.7333167128
 20
-38.9532205126
  0
VERTEX
  8
0
 62
7
  6
CONTINUOUS
 10
299.1275913611
 20
-38.8250090927
  0
VERTEX
  8
0
 62
7
  6
CONTINUOUS
 10
303.5230741375
 20
-38.6650275187
  0
VERTEX
  8
0
 62
7
  6
CONTINUOUS
 10
307.9217941334
 20
-38.4782000358
  0
VERTEX
  8
0
 62
7
  6
CONTINUOUS
 10
312.3227880247
 20
-38.2726107233
  0
VERTEX
  8
0
 62
7
  6
CONTINUOUS
 10
316.7771262308
 20
-38.0550779274
  0
VERTEX
  8
0
 62
7
  6
CONTINUOUS
 10
321.1309985988
 20
-37.8347331456
  0
VERTEX
  8
0
 62
7
  6
CONTINUOUS
 10
325.1789514302
 20
-37.6257006533
  0
VERTEX
  8
0
 62
7
  6
CONTINUOUS
 10
329.1225449132
 20
-37.4128697702
  0
VERTEX
  8
0
 62
7
  6
CONTINUOUS
 10
333.1109712047
 20
-37.1859755923
  0
VERTEX
  8
0
 62
7
  6
CONTINUOUS
 10
337.0927330459
 20
-36.9396784665
  0
VERTEX
  8
0
 62
7
  6
CONTINUOUS
 10
341.0660787506
 20
-36.6672076616
  0
VERTEX
  8
0
 62
7
  6
CONTINUOUS
 10
345.0297172419
 20
-36.3606405032
  0
VERTEX
  8
0
 62
7
  6
CONTINUOUS
 10
349.0246853578
 20
-36.0070720958
  0
VERTEX
  8
0
 62
7
  6
CONTINUOUS
 10
352.9214448805
 20
-35.6134218772
  0
VERTEX
  8
0
 62
7
  6
CONTINUOUS
 10
356.5493243615
 20
-35.1932105326
  0
VERTEX
  8
0
 62
7
  6
CONTINUOUS
 10
360.0801711419
 20
-34.7253285713
  0
VERTEX
  8
0
 62
7
  6
CONTINUOUS
 10
363.6413646736
 20
-34.1902783458
  0
VERTEX
  8
0
 62
7
  6
CONTINUOUS
 10
367.189463337
 20
-33.5870819294
  0
VERTEX
  8
0
 62
7
  6
CONTINUOUS
 10
370.7240467617
 20
-32.9104964159
  0
VERTEX
  8
0
 62
7
  6
CONTINUOUS
 10
374.2451808868
 20
-32.156558503
  0
VERTEX
  8
0
 62
7
  6
CONTINUOUS
 10
377.7930335371
 20
-31.3087518218
  0
VERTEX
  8
0
 62
7
  6
CONTINUOUS
 10
381.246882849
 20
-30.3994991833
  0
VERTEX
  8
0
 62
7
  6
CONTINUOUS
 10
384.4517881471
 20
-29.4738844392
  0
VERTEX
  8
0
 62
7
  6
CONTINUOUS
 10
387.5609873987
 20
-28.4937072754
  0
VERTEX
  8
0
 62
7
  6
CONTINUOUS
 10
390.689471721
 20
-27.4271293942
  0
VERTEX
  8
0
 62
7
  6
CONTINUOUS
 10
393.7886353341
 20
-26.2869923576
  0
VERTEX
  8
0
 62
7
  6
CONTINUOUS
 10
396.8475542753
 20
-25.0763673958
  0
VERTEX
  8
0
 62
7
  6
CONTINUOUS
 10
399.8690829032
 20
-23.794149461
  0
VERTEX
  8
0
 62
7
  6
CONTINUOUS
 10
402.8809126515
 20
-22.425441965
  0
VERTEX
  8
0
 62
7
  6
CONTINUOUS
 10
405.7975499035
 20
-21.0145993093
  0
VERTEX
  8
0
 62
7
  6
CONTINUOUS
 10
408.5063605734
 20
-19.6230311089
  0
VERTEX
  8
0
 62
7
  6
CONTINUOUS
 10
411.123924775
 20
-18.1963626554
  0
VERTEX
  8
0
 62
7
  6
CONTINUOUS
 10
413.7361515316
 20
-16.6927978893
  0
VERTEX
  8
0
 62
7
  6
CONTINUOUS
 10
416.3143760885
 20
-15.1234203779
  0
VERTEX
  8
0
 62
7
  6
CONTINUOUS
 10
418.8602569427
 20
-13.4846547095
  0
VERTEX
  8
0
 62
7
  6
CONTINUOUS
 10
421.3682514714
 20
-11.7779275224
  0
VERTEX
  8
0
 62
7
  6
CONTINUOUS
 10
423.8529674405
 20
-9.9882509029
  0
VERTEX
  8
0
 62
7
  6
CONTINUOUS
 10
426.2561779043
 20
-8.1621785446
  0
VERTEX
  8
0
 62
7
  6
CONTINUOUS
 10
428.5032112526
 20
-6.3615217704
  0
VERTEX
  8
0
 62
7
  6
CONTINUOUS
 10
430.6648508948
 20
-4.5362280938
  0
VERTEX
  8
0
 62
7
  6
CONTINUOUS
 10
432.7904529873
 20
-2.6499012625
  0
VERTEX
  8
0
 62
7
  6
CONTINUOUS
 10
434.8648439347
 20
-0.7158965438
  0
VERTEX
  8
0
 62
7
  6
CONTINUOUS
 10
436.8889328447
 20
1.2648733606
  0
VERTEX
  8
0
 62
7
  6
CONTINUOUS
 10
438.8636185798
 20
3.2918044158
  0
VERTEX
  8
0
 62
7
  6
CONTINUOUS
 10
440.8010787382
 20
5.3776082326
  0
VERTEX
  8
0
 62
7
  6
CONTINUOUS
 10
442.6685065948
 20
7.4812367668
  0
VERTEX
  8
0
 62
7
  6
CONTINUOUS
 10
444.4225088271
 20
9.5469236956
  0
VERTEX
  8
0
 62
7
  6
CONTINUOUS
 10
446.1108388875
 20
11.6255626971
  0
VERTEX
  8
0
 62
7
  6
CONTINUOUS
 10
447.7695791286
 20
13.7564771538
  0
VERTEX
  8
0
 62
7
  6
CONTINUOUS
 10
449.3856262577
 20
15.9260043304
  0
VERTEX
  8
0
 62
7
  6
CONTINUOUS
 10
450.9583626277
 20
18.1340595399
  0
VERTEX
  8
0
 62
7
  6
CONTINUOUS
 10
452.486306336
 20
20.3793999904
  0
VERTEX
  8
0
 62
7
  6
CONTINUOUS
 10
453.9716242239
 20
22.6670320401
  0
VERTEX
  8
0
 62
7
  6
CONTINUOUS
 10
455.4029699302
 20
24.9777831012
  0
VERTEX
  8
0
 62
7
  6
CONTINUOUS
 10
456.766752605
 20
27.288164102
  0
VERTEX
  8
0
 62
7
  6
CONTINUOUS
 10
458.0735234977
 20
29.613546854
  0
VERTEX
  8
0
 62
7
  6
CONTINUOUS
 10
459.3292739865
 20
31.9626483823
  0
VERTEX
  8
0
 62
7
  6
CONTINUOUS
 10
460.5331521536
 20
34.3334162965
  0
VERTEX
  8
0
 62
7
  6
CONTINUOUS
 10
461.6863504852
 20
36.7270330752
  0
VERTEX
  8
0
 62
7
  6
CONTINUOUS
 10
462.7886339695
 20
39.142656976
  0
VERTEX
  8
0
 62
7
  6
CONTINUOUS
 10
463.8365938136
 20
41.5705728358
  0
VERTEX
  8
0
 62
7
  6
CONTINUOUS
 10
464.8409416932
 20
44.0385867677
  0
VERTEX
  8
0
 62
7
  6
CONTINUOUS
 10
465.8154126815
 20
46.584435728
  0
VERTEX
  8
0
 62
7
  6
CONTINUOUS
 10
466.745077992
 20
49.172446368
  0
VERTEX
  8
0
 62
7
  6
CONTINUOUS
 10
467.6187688371
 20
51.7748902567
  0
VERTEX
  8
0
 62
7
  6
CONTINUOUS
 10
468.4418403152
 20
54.4011305829
  0
VERTEX
  8
0
 62
7
  6
CONTINUOUS
 10
469.2157104364
 20
57.0524073912
  0
VERTEX
  8
0
 62
7
  6
CONTINUOUS
 10
469.9418674657
 20
59.724037885
  0
VERTEX
  8
0
 62
7
  6
CONTINUOUS
 10
470.6179356855
 20
62.3943557776
  0
VERTEX
  8
0
 62
7
  6
CONTINUOUS
 10
471.257451622
 20
65.1147274169
  0
VERTEX
  8
0
 62
7
  6
CONTINUOUS
 10
471.8774228177
 20
67.9564535295
  0
VERTEX
  8
0
 62
7
  6
CONTINUOUS
 10
472.4613997747
 20
70.8437943437
  0
VERTEX
  8
0
 62
7
  6
CONTINUOUS
 10
472.9975930714
 20
73.7161547898
  0
VERTEX
  8
0
 62
7
  6
CONTINUOUS
 10
473.4928298146
 20
76.5934541842
  0
VERTEX
  8
0
 62
7
  6
CONTINUOUS
 10
473.9493216805
 20
79.475796053
  0
VERTEX
  8
0
 62
7
  6
CONTINUOUS
 10
474.3684762748
 20
82.363048903
  0
VERTEX
  8
0
 62
7
  6
CONTINUOUS
 10
474.7488902173
 20
85.2250059856
  0
VERTEX
  8
0
 62
7
  6
CONTINUOUS
 10
475.1013420417
 20
88.1517870177
  0
VERTEX
  8
0
 62
7
  6
CONTINUOUS
 10
475.4393001603
 20
91.2661358449
  0
VERTEX
  8
0
 62
7
  6
CONTINUOUS
 10
475.7486765296
 20
94.4471966154
  0
VERTEX
  8
0
 62
7
  6
CONTINUOUS
 10
476.0192911571
 20
97.6022525483
  0
VERTEX
  8
0
 62
7
  6
CONTINUOUS
 10
476.2577532283
 20
100.7620158599
  0
VERTEX
  8
0
 62
7
  6
CONTINUOUS
 10
476.4665371173
 20
103.9262219848
  0
VERTEX
  8
0
 62
7
  6
CONTINUOUS
 10
476.6481245216
 20
107.0946818371
  0
VERTEX
  8
0
 62
7
  6
CONTINUOUS
 10
476.8035437153
 20
110.2249179618
  0
VERTEX
  8
0
 62
7
  6
CONTINUOUS
 10
476.939591898
 20
113.4435895065
  0
VERTEX
  8
0
 62
7
  6
CONTINUOUS
 10
477.0640608708
 20
116.921630792
  0
VERTEX
  8
0
 62
7
  6
CONTINUOUS
 10
477.1714004476
 20
120.489365075
  0
VERTEX
  8
0
 62
7
  6
CONTINUOUS
 10
477.2585509347
 20
124.0180903672
  0
VERTEX
  8
0
 62
7
  6
CONTINUOUS
 10
477.3297052082
 20
127.5497555385
  0
VERTEX
  8
0
 62
7
  6
CONTINUOUS
 10
477.3871630303
 20
131.0842130646
  0
VERTEX
  8
0
 62
7
  6
CONTINUOUS
 10
477.4324525409
 20
134.6207585305
  0
VERTEX
  8
0
 62
7
  6
CONTINUOUS
 10
477.4678874217
 20
138.1589634349
  0
VERTEX
  8
0
 62
7
  6
CONTINUOUS
 10
477.4930745335
 20
141.698378841
  0
SEQEND
  0
POLYLINE
  8
0
 62
7
  6
CONTINUOUS
 66
1
 70
0
  0
VERTEX
  8
0
 62
7
  6
CONTINUOUS
 10
171.0522824727
 20
-47.3971614398
  0
VERTEX
  8
0
 62
7
  6
CONTINUOUS
 10
175.1576670059
 20
-47.3728991629
  0
VERTEX
  8
0
 62
7
  6
CONTINUOUS
 10
180.5677967265
 20
-47.3526927666
  0
VERTEX
  8
0
 62
7
  6
CONTINUOUS
 10
185.978112856
 20
-47.3458673961
  0
VERTEX
  8
0
 62
7
  6
CONTINUOUS
 10
191.3885704642
 20
-47.3524243475
  0
VERTEX
  8
0
 62
7
  6
CONTINUOUS
 10
196.7991278688
 20
-47.3723633301
  0
VERTEX
  8
0
 62
7
  6
CONTINUOUS
 10
201.0122595435
 20
-47.3971555538
  0
SEQEND
  0
POLYLINE
  8
0
 62
7
  6
CONTINUOUS
 66
1
 70
0
  0
VERTEX
  8
0
 62
7
  6
CONTINUOUS
 10
201.0327043406
 20
-39.5599792407
  0
VERTEX
  8
0
 62
7
  6
CONTINUOUS
 10
196.0297669957
 20
-39.5702633109
  0
VERTEX
  8
0
 62
7
  6
CONTINUOUS
 10
191.0295213479
 20
-39.5764314371
  0
VERTEX
  8
0
 62
7
  6
CONTINUOUS
 10
186.0314702845
 20
-39.578486065
  0
VERTEX
  8
0
 62
7
  6
CONTINUOUS
 10
181.0337018289
 20
-39.5764296394
  0
VERTEX
  8
0
 62
7
  6
CONTINUOUS
 10
176.0343042928
 20
-39.5702611111
  0
VERTEX
  8
0
 62
7
  6
CONTINUOUS
 10
171.0327814291
 20
-39.5599794306
  0
SEQEND
  0
POLYLINE
  8
0
 62
7
  6
CONTINUOUS
 66
1
 70
0
  0
VERTEX
  8
0
 62
7
  6
CONTINUOUS
 10
201.0326596722
 20
-47.3975256138
  0
VERTEX
  8
0
 62
7
  6
CONTINUOUS
 10
227.3840136592
 20
-47.3486590556
  0
VERTEX
  8
0
 62
7
  6
CONTINUOUS
 10
252.0149901708
 20
-47.0407845276
  0
VERTEX
  8
0
 62
7
  6
CONTINUOUS
 10
273.4989285523
 20
-47.0563919182
  0
VERTEX
  8
0
 62
7
  6
CONTINUOUS
 10
292.6205652768
 20
-47.010064726
  0
VERTEX
  8
0
 62
7
  6
CONTINUOUS
 10
310.0562177897
 20
-46.7924816304
  0
VERTEX
  8
0
 62
7
  6
CONTINUOUS
 10
325.8332184033
 20
-46.4864562722
  0
VERTEX
  8
0
 62
7
  6
CONTINUOUS
 10
340.4083008619
 20
-46.1717858525
  0
VERTEX
  8
0
 62
7
  6
CONTINUOUS
 10
353.9171663015
 20
-45.2931808218
  0
VERTEX
  8
0
 62
7
  6
CONTINUOUS
 10
366.4174319119
 20
-43.6780267339
  0
VERTEX
  8
0
 62
7
  6
CONTINUOUS
 10
377.9783096406
 20
-41.319046389
  0
VERTEX
  8
0
 62
7
  6
CONTINUOUS
 10
388.5946033213
 20
-38.1989153255
  0
VERTEX
  8
0
 62
7
  6
CONTINUOUS
 10
398.7138580041
 20
-34.227077322
  0
VERTEX
  8
0
 62
7
  6
CONTINUOUS
 10
408.8273911157
 20
-29.2857061081
  0
VERTEX
  8
0
 62
7
  6
CONTINUOUS
 10
418.5439967349
 20
-23.653059033
  0
VERTEX
  8
0
 62
7
  6
CONTINUOUS
 10
427.7551682149
 20
-17.4047920738
  0
VERTEX
  8
0
 62
7
  6
CONTINUOUS
 10
436.3658539753
 20
-10.5258188226
  0
VERTEX
  8
0
 62
7
  6
CONTINUOUS
 10
444.2071507227
 20
-3.1843052396
  0
VERTEX
  8
0
 62
7
  6
CONTINUOUS
 10
451.2596508833
 20
4.5468864063
  0
VERTEX
  8
0
 62
7
  6
CONTINUOUS
 10
457.6241311412
 20
12.690456448
  0
VERTEX
  8
0
 62
7
  6
CONTINUOUS
 10
463.2611677368
 20
21.1783467689
  0
VERTEX
  8
0
 62
7
  6
CONTINUOUS
 10
468.1255105623
 20
29.8232251264
  0
VERTEX
  8
0
 62
7
  6
CONTINUOUS
 10
472.4726572762
 20
38.9090010136
  0
VERTEX
  8
0
 62
7
  6
CONTINUOUS
 10
476.2136598468
 20
48.6480762855
  0
VERTEX
  8
0
 62
7
  6
CONTINUOUS
 10
479.277802356
 20
59.0886206501
  0
VERTEX
  8
0
 62
7
  6
CONTINUOUS
 10
481.6877638853
 20
70.4132034731
  0
VERTEX
  8
0
 62
7
  6
CONTINUOUS
 10
483.3993580083
 20
82.7261305645
  0
VERTEX
  8
0
 62
7
  6
CONTINUOUS
 10
484.4089795607
 20
96.0031424348
  0
VERTEX
  8
0
 62
7
  6
CONTINUOUS
 10
484.942348739
 20
110.3221929173
  0
VERTEX
  8
0
 62
7
  6
CONTINUOUS
 10
485.1882121113
 20
125.9788028131
  0
VERTEX
  8
0
 62
7
  6
CONTINUOUS
 10
485.0918802274
 20
141.6983855801
  0
SEQEND
  0
POLYLINE
  8
0
 62
7
  6
CONTINUOUS
 66
1
 70
0
  0
VERTEX
  8
0
 62
7
  6
CONTINUOUS
 10
171.0327043842
 20
-42.1837168346
  0
VERTEX
  8
0
 62
7
  6
CONTINUOUS
 10
176.033516046
 20
-42.1913288929
  0
VERTEX
  8
0
 62
7
  6
CONTINUOUS
 10
181.0337329928
 20
-42.1958961101
  0
VERTEX
  8
0
 62
7
  6
CONTINUOUS
 10
186.0331020527
 20
-42.1974123967
  0
VERTEX
  8
0
 62
7
  6
CONTINUOUS
 10
191.0323827417
 20
-42.1958960216
  0
VERTEX
  8
0
 62
7
  6
CONTINUOUS
 10
196.0323345763
 20
-42.1913652542
  0
VERTEX
  8
0
 62
7
  6
CONTINUOUS
 10
201.0327043842
 20
-42.1838140045
  0
SEQEND
  0
POLYLINE
  8
0
 62
7
  6
CONTINUOUS
 66
1
 70
0
  0
VERTEX
  8
0
 62
7
  6
CONTINUOUS
 10
201.0327043842
 20
-44.3975719443
  0
VERTEX
  8
0
 62
7
  6
CONTINUOUS
 10
210.9605052628
 20
-44.4471376678
  0
VERTEX
  8
0
 62
7
  6
CONTINUOUS
 10
220.8827292087
 20
-44.4206573403
  0
VERTEX
  8
0
 62
7
  6
CONTINUOUS
 10
230.9210254431
 20
-44.2879450603
  0
VERTEX
  8
0
 62
7
  6
CONTINUOUS
 10
240.7104463028
 20
-44.139558532
  0
VERTEX
  8
0
 62
7
  6
CONTINUOUS
 10
249.7629519397
 20
-44.0697593593
  0
VERTEX
  8
0
 62
7
  6
CONTINUOUS
 10
258.5694681294
 20
-44.037249941
  0
VERTEX
  8
0
 62
7
  6
CONTINUOUS
 10
267.6086338137
 20
-44.0422208002
  0
VERTEX
  8
0
 62
7
  6
CONTINUOUS
 10
276.4292696465
 20
-44.0544691681
  0
VERTEX
  8
0
 62
7
  6
CONTINUOUS
 10
284.5940338034
 20
-44.0452896723
  0
VERTEX
  8
0
 62
7
  6
CONTINUOUS
 10
292.5400526606
 20
-44.0103806468
  0
VERTEX
  8
0
 62
7
  6
CONTINUOUS
 10
300.6900706481
 20
-43.9315491511
  0
VERTEX
  8
0
 62
7
  6
CONTINUOUS
 10
308.6498917801
 20
-43.8217636374
  0
VERTEX
  8
0
 62
7
  6
CONTINUOUS
 10
316.0394962318
 20
-43.6812534214
  0
VERTEX
  8
0
 62
7
  6
CONTINUOUS
 10
323.2390999499
 20
-43.5300429714
  0
VERTEX
  8
0
 62
7
  6
CONTINUOUS
 10
330.6078304358
 20
-43.4205580911
  0
VERTEX
  8
0
 62
7
  6
CONTINUOUS
 10
337.828933202
 20
-43.2558240899
  0
VERTEX
  8
0
 62
7
  6
CONTINUOUS
 10
344.6114961387
 20
-42.9709634851
  0
VERTEX
  8
0
 62
7
  6
CONTINUOUS
 10
351.2371196147
 20
-42.5221104578
  0
VERTEX
  8
0
 62
7
  6
CONTINUOUS
 10
357.9893965502
 20
-41.8314573951
  0
VERTEX
  8
0
 62
7
  6
CONTINUOUS
 10
364.5714371804
 20
-40.9359521966
  0
VERTEX
  8
0
 62
7
  6
CONTINUOUS
 10
370.6954844634
 20
-39.8662077011
  0
VERTEX
  8
0
 62
7
  6
CONTINUOUS
 10
376.6177331498
 20
-38.5634214786
  0
VERTEX
  8
0
 62
7
  6
CONTINUOUS
 10
382.5683636322
 20
-36.9568902892
  0
VERTEX
  8
0
 62
7
  6
CONTINUOUS
 10
388.3376619436
 20
-35.1129294015
  0
VERTEX
  8
0
 62
7
  6
CONTINUOUS
 10
393.728884572
 20
-33.0831495078
  0
VERTEX
  8
0
 62
7
  6
CONTINUOUS
 10
398.933300546
 20
-30.8409610959
  0
VERTEX
  8
0
 62
7
  6
CONTINUOUS
 10
404.1269319172
 20
-28.3451262415
  0
VERTEX
  8
0
 62
7
  6
CONTINUOUS
 10
409.1587761052
 20
-25.6912008734
  0
VERTEX
  8
0
 62
7
  6
CONTINUOUS
 10
413.8946356371
 20
-22.9865878067
  0
VERTEX
  8
0
 62
7
  6
CONTINUOUS
 10
418.4601172409
 20
-20.1545084584
  0
VERTEX
  8
0
 62
7
  6
CONTINUOUS
 10
422.9620278056
 20
-17.1413361575
  0
VERTEX
  8
0
 62
7
  6
CONTINUOUS
 10
427.3225693748
 20
-13.9850179826
  0
VERTEX
  8
0
 62
7
  6
CONTINUOUS
 10
431.4833830663
 20
-10.7164670219
  0
VERTEX
  8
0
 62
7
  6
CONTINUOUS
 10
435.4929585473
 20
-7.3031585752
  0
VERTEX
  8
0
 62
7
  6
CONTINUOUS
 10
439.391836919
 20
-3.7145732285
  0
VERTEX
  8
0
 62
7
  6
CONTINUOUS
 10
443.1455049971
 20
0.024391789
  0
VERTEX
  8
0
 62
7
  6
CONTINUOUS
 10
446.7319038767
 20
3.9014632714
  0
VERTEX
  8
0
 62
7
  6
CONTINUOUS
 10
450.1542118205
 20
7.9092885631
  0
VERTEX
  8
0
 62
7
  6
CONTINUOUS
 10
453.3954849533
 20
12.0100539966
  0
VERTEX
  8
0
 62
7
  6
CONTINUOUS
 10
456.4940307837
 20
16.2828694029
  0
VERTEX
  8
0
 62
7
  6
CONTINUOUS
 10
459.5008305763
 20
20.8260866134
  0
VERTEX
  8
0
 62
7
  6
CONTINUOUS
 10
462.3609191867
 20
25.5441659593
  0
VERTEX
  8
0
 62
7
  6
CONTINUOUS
 10
465.0230396853
 20
30.3355387129
  0
VERTEX
  8
0
 62
7
  6
CONTINUOUS
 10
467.527048693
 20
35.3166438812
  0
VERTEX
  8
0
 62
7
  6
CONTINUOUS
 10
469.9294701721
 20
40.6249054428
  0
VERTEX
  8
0
 62
7
  6
CONTINUOUS
 10
472.1290451695
 20
46.0957997555
  0
VERTEX
  8
0
 62
7
  6
CONTINUOUS
 10
474.0132131909
 20
51.5357710767
  0
VERTEX
  8
0
 62
7
  6
CONTINUOUS
 10
475.6724028226
 20
57.1693396855
  0
VERTEX
  8
0
 62
7
  6
CONTINUOUS
 10
477.1800341366
 20
63.2387872404
  0
VERTEX
  8
0
 62
7
  6
CONTINUOUS
 10
478.4745721812
 20
69.4972738604
  0
VERTEX
  8
0
 62
7
  6
CONTINUOUS
 10
479.500392512
 20
75.6832156184
  0
VERTEX
  8
0
 62
7
  6
CONTINUOUS
 10
480.3131836782
 20
82.0831263116
  0
VERTEX
  8
0
 62
7
  6
CONTINUOUS
 10
480.9441434649
 20
89.0102092564
  0
VERTEX
  8
0
 62
7
  6
CONTINUOUS
 10
481.4111197206
 20
96.1228119675
  0
VERTEX
  8
0
 62
7
  6
CONTINUOUS
 10
481.7274809101
 20
103.0518896324
  0
VERTEX
  8
0
 62
7
  6
CONTINUOUS
 10
481.9378629697
 20
110.1928225494
  0
VERTEX
  8
0
 62
7
  6
CONTINUOUS
 10
482.1018407071
 20
117.9537724434
  0
VERTEX
  8
0
 62
7
  6
CONTINUOUS
 10
482.1879659734
 20
125.9273502213
  0
VERTEX
  8
0
 62
7
  6
CONTINUOUS
 10
482.1832001538
 20
133.8083038004
  0
VERTEX
  8
0
 62
7
  6
CONTINUOUS
 10
482.0918894533
 20
141.698383875
  0
SEQEND
  0
POLYLINE
  8
0
 62
7
  6
CONTINUOUS
 66
1
 70
0
  0
VERTEX
  8
0
 62
7
  6
CONTINUOUS
 10
201.0327043842
 20
-44.3972317836
  0
VERTEX
  8
0
 62
7
  6
CONTINUOUS
 10
196.0283851193
 20
-44.3656137044
  0
VERTEX
  8
0
 62
7
  6
CONTINUOUS
 10
191.0258334373
 20
-44.3466446312
  0
VERTEX
  8
0
 62
7
  6
CONTINUOUS
 10
186.0250867228
 20
-44.3403266398
  0
VERTEX
  8
0
 62
7
  6
CONTINUOUS
 10
181.0260328219
 20
-44.3466535025
  0
VERTEX
  8
0
 62
7
  6
CONTINUOUS
 10
176.0285595808
 20
-44.3656189919
  0
VERTEX
  8
0
 62
7
  6
CONTINUOUS
 10
171.0327043842
 20
-44.3972251837
  0
SEQEND
  0
POLYLINE
  8
0
 62
7
  6
CONTINUOUS
 66
1
 70
0
  0
VERTEX
  8
0
 62
7
  6
CONTINUOUS
 10
171.0327043842
 20
-42.1836196646
  0
VERTEX
  8
0
 62
7
  6
CONTINUOUS
 10
155.7043707293
 20
-41.895303868
  0
VERTEX
  8
0
 62
7
  6
CONTINUOUS
 10
140.9458316445
 20
-41.6884328941
  0
VERTEX
  8
0
 62
7
  6
CONTINUOUS
 10
126.6872975213
 20
-41.568925866
  0
VERTEX
  8
0
 62
7
  6
CONTINUOUS
 10
113.1381371849
 20
-41.5190254144
  0
VERTEX
  8
0
 62
7
  6
CONTINUOUS
 10
100.5462406502
 20
-41.5705840365
  0
VERTEX
  8
0
 62
7
  6
CONTINUOUS
 10
88.72625474
 20
-41.5806912563
  0
VERTEX
  8
0
 62
7
  6
CONTINUOUS
 10
77.5813223146
 20
-41.3892590865
  0
VERTEX
  8
0
 62
7
  6
CONTINUOUS
 10
67.0938452769
 20
-41.0796725587
  0
VERTEX
  8
0
 62
7
  6
CONTINUOUS
 10
57.2322974246
 20
-40.6698313975
  0
VERTEX
  8
0
 62
7
  6
CONTINUOUS
 10
47.9416059334
 20
-40.1961035376
  0
VERTEX
  8
0
 62
7
  6
CONTINUOUS
 10
39.1624904005
 20
-39.7252746092
  0
VERTEX
  8
0
 62
7
  6
CONTINUOUS
 10
30.8760473589
 20
-39.1839912511
  0
VERTEX
  8
0
 62
7
  6
CONTINUOUS
 10
23.0349294809
 20
-38.5274116404
  0
VERTEX
  8
0
 62
7
  6
CONTINUOUS
 10
15.6651879461
 20
-37.7367867933
  0
VERTEX
  8
0
 62
7
  6
CONTINUOUS
 10
8.7989689335
 20
-36.7748322993
  0
VERTEX
  8
0
 62
7
  6
CONTINUOUS
 10
2.3706401169
 20
-35.6523126158
  0
VERTEX
  8
0
 62
7
  6
CONTINUOUS
 10
-3.6432158807
 20
-34.3689581039
  0
VERTEX
  8
0
 62
7
  6
CONTINUOUS
 10
-9.3370977286
 20
-32.920586642
  0
VERTEX
  8
0
 62
7
  6
CONTINUOUS
 10
-14.8046290226
 20
-31.3041345544
  0
VERTEX
  8
0
 62
7
  6
CONTINUOUS
 10
-20.0718523609
 20
-29.5159768646
  0
VERTEX
  8
0
 62
7
  6
CONTINUOUS
 10
-25.2035778805
 20
-27.547617152
  0
VERTEX
  8
0
 62
7
  6
CONTINUOUS
 10
-30.1771265603
 20
-25.4106060736
  0
VERTEX
  8
0
 62
7
  6
CONTINUOUS
 10
-35.0014334444
 20
-23.1060339344
  0
VERTEX
  8
0
 62
7
  6
CONTINUOUS
 10
-39.6464664738
 20
-20.65678537
  0
VERTEX
  8
0
 62
7
  6
CONTINUOUS
 10
-44.0797554672
 20
-18.0864749218
  0
VERTEX
  8
0
 62
7
  6
CONTINUOUS
 10
-48.3175498358
 20
-15.3940031772
  0
VERTEX
  8
0
 62
7
  6
CONTINUOUS
 10
-52.3527721327
 20
-12.5942069529
  0
VERTEX
  8
0
 62
7
  6
CONTINUOUS
 10
-56.2229327508
 20
-9.6628921024
  0
VERTEX
  8
0
 62
7
  6
CONTINUOUS
 10
-59.9544436434
 20
-6.590929377
  0
VERTEX
  8
0
 62
7
  6
CONTINUOUS
 10
-63.573522683
 20
-3.3479609002
  0
VERTEX
  8
0
 62
7
  6
CONTINUOUS
 10
-67.1211848126
 20
0.1021906639
  0
VERTEX
  8
0
 62
7
  6
CONTINUOUS
 10
-70.5794507742
 20
3.7511961857
  0
VERTEX
  8
0
 62
7
  6
CONTINUOUS
 10
-73.9591317322
 20
7.6195028151
  0
VERTEX
  8
0
 62
7
  6
CONTINUOUS
 10
-77.2148713633
 20
11.6569590504
  0
VERTEX
  8
0
 62
7
  6
CONTINUOUS
 10
-80.3061748103
 20
15.8232745685
  0
VERTEX
  8
0
 62
7
  6
CONTINUOUS
 10
-83.2292688394
 20
20.1093129842
  0
VERTEX
  8
0
 62
7
  6
CONTINUOUS
 10
-85.9645562731
 20
24.4893532428
  0
VERTEX
  8
0
 62
7
  6
CONTINUOUS
 10
-88.5190140852
 20
28.9728590293
  0
VERTEX
  8
0
 62
7
  6
CONTINUOUS
 10
-90.8907465147
 20
33.5544808875
  0
VERTEX
  8
0
 62
7
  6
CONTINUOUS
 10
-93.0867745881
 20
38.2529371873
  0
VERTEX
  8
0
 62
7
  6
CONTINUOUS
 10
-95.1078404477
 20
43.0589721816
  0
VERTEX
  8
0
 62
7
  6
CONTINUOUS
 10
-96.970884986
 20
48.0511587664
  0
VERTEX
  8
0
 62
7
  6
CONTINUOUS
 10
-98.6904715987
 20
53.2739156372
  0
VERTEX
  8
0
 62
7
  6
CONTINUOUS
 10
-100.2744749191
 20
58.8204496496
  0
VERTEX
  8
0
 62
7
  6
CONTINUOUS
 10
-101.7407355015
 20
64.7902664724
  0
VERTEX
  8
0
 62
7
  6
CONTINUOUS
 10
-103.0739189793
 20
71.2088883621
  0
VERTEX
  8
0
 62
7
  6
CONTINUOUS
 10
-104.2713333532
 20
78.1331066299
  0
VERTEX
  8
0
 62
7
  6
CONTINUOUS
 10
-105.3128920763
 20
85.5686197805
  0
VERTEX
  8
0
 62
7
  6
CONTINUOUS
 10
-106.1759302579
 20
93.5373645609
  0
VERTEX
  8
0
 62
7
  6
CONTINUOUS
 10
-106.8654909297
 20
102.0474175563
  0
VERTEX
  8
0
 62
7
  6
CONTINUOUS
 10
-107.3668762606
 20
111.1123929126
  0
VERTEX
  8
0
 62
7
  6
CONTINUOUS
 10
-107.7166439487
 20
120.7376146944
  0
VERTEX
  8
0
 62
7
  6
CONTINUOUS
 10
-107.9504097182
 20
130.9341777794
  0
VERTEX
  8
0
 62
7
  6
CONTINUOUS
 10
-108.056301661
 20
141.698383875
  0
SEQEND
  0
POLYLINE
  8
0
 62
7
  6
CONTINUOUS
 66
1
 70
0
  0
VERTEX
  8
0
 62
7
  6
CONTINUOUS
 10
143.7474555893
 20
161.6983947033
  0
VERTEX
  8
0
 62
7
  6
CONTINUOUS
 10
144.9169864387
 20
165.8003363512
  0
VERTEX
  8
0
 62
7
  6
CONTINUOUS
 10
146.4772662673
 20
169.7347220341
  0
VERTEX
  8
0
 62
7
  6
CONTINUOUS
 10
148.4425489241
 20
173.5207674683
  0
VERTEX
  8
0
 62
7
  6
CONTINUOUS
 10
150.7757579405
 20
177.0919274153
  0
VERTEX
  8
0
 62
7
  6
CONTINUOUS
 10
153.4508073067
 20
180.3952329764
  0
VERTEX
  8
0
 62
7
  6
CONTINUOUS
 10
156.4465704116
 20
183.4129414648
  0
VERTEX
  8
0
 62
7
  6
CONTINUOUS
 10
159.7481365938
 20
186.1228021838
  0
VERTEX
  8
0
 62
7
  6
CONTINUOUS
 10
163.3071251775
 20
188.491078139
  0
VERTEX
  8
0
 62
7
  6
CONTINUOUS
 10
167.062421261
 20
190.4731852817
  0
VERTEX
  8
0
 62
7
  6
CONTINUOUS
 10
171.0326521945
 20
192.0867150549
  0
SEQEND
  0
POLYLINE
  8
0
 62
7
  6
CONTINUOUS
 66
1
 70
0
  0
VERTEX
  8
0
 62
7
  6
CONTINUOUS
 10
175.296847874
 20
180.9562334468
  0
VERTEX
  8
0
 62
7
  6
CONTINUOUS
 10
172.5234468119
 20
179.730178355
  0
VERTEX
  8
0
 62
7
  6
CONTINUOUS
 10
169.8520389444
 20
178.2295344041
  0
VERTEX
  8
0
 62
7
  6
CONTINUOUS
 10
167.3060032481
 20
176.4525255371
  0
VERTEX
  8
0
 62
7
  6
CONTINUOUS
 10
164.9315283751
 20
174.4276143543
  0
VERTEX
  8
0
 62
7
  6
CONTINUOUS
 10
162.759094269
 20
172.1868333856
  0
VERTEX
  8
0
 62
7
  6
CONTINUOUS
 10
160.822554743
 20
169.7593320507
  0
VERTEX
  8
0
 62
7
  6
CONTINUOUS
 10
159.1470560023
 20
167.187989937
  0
VERTEX
  8
0
 62
7
  6
CONTINUOUS
 10
157.7481786406
 20
164.5014662526
  0
VERTEX
  8
0
 62
7
  6
CONTINUOUS
 10
156.6424592202
 20
161.7394448953
  0
VERTEX
  8
0
 62
7
  6
CONTINUOUS
 10
155.8219958187
 20
158.9317076296
  0
SEQEND
  0
POLYLINE
  8
0
 62
7
  6
CONTINUOUS
 66
1
 70
0
  0
VERTEX
  8
0
 62
7
  6
CONTINUOUS
 10
171.0326861465
 20
192.0866666434
  0
VERTEX
  8
0
 62
7
  6
CONTINUOUS
 10
174.7074547931
 20
193.2115444594
  0
VERTEX
  8
0
 62
7
  6
CONTINUOUS
 10
178.4377238998
 20
194.0149600698
  0
VERTEX
  8
0
 62
7
  6
CONTINUOUS
 10
182.2397388631
 20
194.4978749747
  0
VERTEX
  8
0
 62
7
  6
CONTINUOUS
 10
186.062739393
 20
194.6591636731
  0
VERTEX
  8
0
 62
7
  6
CONTINUOUS
 10
189.8635680723
 20
194.4969690871
  0
VERTEX
  8
0
 62
7
  6
CONTINUOUS
 10
193.6359024352
 20
194.0135463501
  0
VERTEX
  8
0
 62
7
  6
CONTINUOUS
 10
197.3566034144
 20
193.2104986262
  0
VERTEX
  8
0
 62
7
  6
CONTINUOUS
 10
201.0327038258
 20
192.0866715591
  0
SEQEND
  0
POLYLINE
  8
0
 62
7
  6
CONTINUOUS
 66
1
 70
0
  0
VERTEX
  8
0
 62
7
  6
CONTINUOUS
 10
186.0327043842
 20
120.4283739302
  0
VERTEX
  8
0
 62
7
  6
CONTINUOUS
 10
187.8400328013
 20
120.4846951592
  0
VERTEX
  8
0
 62
7
  6
CONTINUOUS
 10
189.6488974766
 20
120.6525101712
  0
VERTEX
  8
0
 62
7
  6
CONTINUOUS
 10
191.4510228051
 20
120.9332098083
  0
VERTEX
  8
0
 62
7
  6
CONTINUOUS
 10
193.241862482
 20
121.3253250017
  0
VERTEX
  8
0
 62
7
  6
CONTINUOUS
 10
195.0171507669
 20
121.8275749601
  0
VERTEX
  8
0
 62
7
  6
CONTINUOUS
 10
196.7686347871
 20
122.4405625897
  0
SEQEND
  0
POLYLINE
  8
0
 62
7
  6
CONTINUOUS
 66
1
 70
0
  0
VERTEX
  8
0
 62
7
  6
CONTINUOUS
 10
175.2967739812
 20
122.4405625897
  0
VERTEX
  8
0
 62
7
  6
CONTINUOUS
 10
177.0634163408
 20
121.8230204899
  0
VERTEX
  8
0
 62
7
  6
CONTINUOUS
 10
178.8476717167
 20
121.3195282108
  0
VERTEX
  8
0
 62
7
  6
CONTINUOUS
 10
180.6403685795
 20
120.9283286721
  0
VERTEX
  8
0
 62
7
  6
CONTINUOUS
 10
182.4384873273
 20
120.6494795254
  0
VERTEX
  8
0
 62
7
  6
CONTINUOUS
 10
184.2388667352
 20
120.483569479
  0
VERTEX
  8
0
 62
7
  6
CONTINUOUS
 10
186.0327043842
 20
120.4283739302
  0
SEQEND
  0
POLYLINE
  8
0
 62
7
  6
CONTINUOUS
 66
1
 70
0
  0
VERTEX
  8
0
 62
7
  6
CONTINUOUS
 10
171.0326521938
 20
111.3100526953
  0
VERTEX
  8
0
 62
7
  6
CONTINUOUS
 10
167.064822749
 20
112.9224197911
  0
VERTEX
  8
0
 62
7
  6
CONTINUOUS
 10
163.3111817231
 20
114.9032546302
  0
VERTEX
  8
0
 62
7
  6
CONTINUOUS
 10
159.7527589035
 20
117.2703214386
  0
VERTEX
  8
0
 62
7
  6
CONTINUOUS
 10
156.4517074913
 20
119.9785330182
  0
VERTEX
  8
0
 62
7
  6
CONTINUOUS
 10
153.4581144203
 20
122.9929154182
  0
VERTEX
  8
0
 62
7
  6
CONTINUOUS
 10
150.7845040161
 20
126.2935301717
  0
VERTEX
  8
0
 62
7
  6
CONTINUOUS
 10
148.4494488114
 20
129.8649543018
  0
VERTEX
  8
0
 62
7
  6
CONTINUOUS
 10
146.4813609744
 20
133.6531421267
  0
VERTEX
  8
0
 62
7
  6
CONTINUOUS
 10
144.9189497831
 20
137.5911656925
  0
VERTEX
  8
0
 62
7
  6
CONTINUOUS
 10
143.7474201477
 20
141.6983730281
  0
SEQEND
  0
POLYLINE
  8
0
 62
7
  6
CONTINUOUS
 66
1
 70
0
  0
VERTEX
  8
0
 62
7
  6
CONTINUOUS
 10
155.8219165355
 20
144.4653882529
  0
VERTEX
  8
0
 62
7
  6
CONTINUOUS
 10
156.6431508012
 20
141.6551025205
  0
VERTEX
  8
0
 62
7
  6
CONTINUOUS
 10
157.7491125949
 20
138.8930462026
  0
VERTEX
  8
0
 62
7
  6
CONTINUOUS
 10
159.1465223662
 20
136.2096534619
  0
VERTEX
  8
0
 62
7
  6
CONTINUOUS
 10
160.8196914666
 20
133.6414846802
  0
VERTEX
  8
0
 62
7
  6
CONTINUOUS
 10
162.7546793458
 20
131.2149537583
  0
VERTEX
  8
0
 62
7
  6
CONTINUOUS
 10
164.9271291316
 20
128.973186796
  0
VERTEX
  8
0
 62
7
  6
CONTINUOUS
 10
167.3063342056
 20
126.9439458578
  0
VERTEX
  8
0
 62
7
  6
CONTINUOUS
 10
169.8573262469
 20
125.1639813927
  0
VERTEX
  8
0
 62
7
  6
CONTINUOUS
 10
172.5282884505
 20
123.6642423296
  0
VERTEX
  8
0
 62
7
  6
CONTINUOUS
 10
175.2967739812
 20
122.4405625897
  0
SEQEND
  0
POLYLINE
  8
0
 62
7
  6
CONTINUOUS
 66
1
 70
0
  0
VERTEX
  8
0
 62
7
  6
CONTINUOUS
 10
155.8219165355
 20
144.4653882529
  0
VERTEX
  8
0
 62
7
  6
CONTINUOUS
 10
155.3529487409
 20
146.8396685887
  0
VERTEX
  8
0
 62
7
  6
CONTINUOUS
 10
155.0696593101
 20
149.238237207
  0
VERTEX
  8
0
 62
7
  6
CONTINUOUS
 10
154.9726319043
 20
151.6375269092
  0
VERTEX
  8
0
 62
7
  6
CONTINUOUS
 10
155.0612806974
 20
154.0507011802
  0
VERTEX
  8
0
 62
7
  6
CONTINUOUS
 10
155.3424672782
 20
156.4904450822
  0
VERTEX
  8
0
 62
7
  6
CONTINUOUS
 10
155.8219958187
 20
158.9317076296
  0
SEQEND
  0
POLYLINE
  8
0
 62
7
  6
CONTINUOUS
 66
1
 70
0
  0
VERTEX
  8
0
 62
7
  6
CONTINUOUS
 10
143.747202238
 20
141.6983842839
  0
VERTEX
  8
0
 62
7
  6
CONTINUOUS
 10
143.0973343934
 20
145.0075547208
  0
VERTEX
  8
0
 62
7
  6
CONTINUOUS
 10
142.7074350515
 20
148.337912249
  0
VERTEX
  8
0
 62
7
  6
CONTINUOUS
 10
142.5774637418
 20
151.6983690212
  0
VERTEX
  8
0
 62
7
  6
CONTINUOUS
 10
142.7074329798
 20
155.0588290974
  0
VERTEX
  8
0
 62
7
  6
CONTINUOUS
 10
143.0973339302
 20
158.3891965329
  0
VERTEX
  8
0
 62
7
  6
CONTINUOUS
 10
143.7472022448
 20
161.698383466
  0
SEQEND
  0
LINE
  8
0
 62
7
  6
CONTINUOUS
 10
171.0522824727
 20
-47.3971614398
 11
171.0327041964
 21
-44.3972043727
  0
LINE
  8
0
 62
7
  6
CONTINUOUS
 10
171.0327042627
 20
345.5807019946
 11
171.0338373196
 21
343.6261547825
  0
LINE
  8
0
 62
7
  6
CONTINUOUS
 10
171.0327047319
 20
-42.1833379165
 11
171.0326521938
 21
111.3100526953
  0
LINE
  8
0
 62
7
  6
CONTINUOUS
 10
171.0338373196
 20
343.6261547825
 11
171.0326521945
 21
192.0867150549
  0
LINE
  8
0
 62
7
  6
CONTINUOUS
 10
171.032704247
 20
347.793972975
 11
171.0531491518
 21
350.7939198672
  0
POLYLINE
  8
0
 62
7
  6
CONTINUOUS
 66
1
 70
0
  0
VERTEX
  8
0
 62
7
  6
CONTINUOUS
 10
171.0326046308
 20
111.3100386054
  0
VERTEX
  8
0
 62
7
  6
CONTINUOUS
 10
171.8130229438
 20
113.3654657782
  0
VERTEX
  8
0
 62
7
  6
CONTINUOUS
 10
172.5817511379
 20
115.3832424348
  0
VERTEX
  8
0
 62
7
  6
CONTINUOUS
 10
173.3213543316
 20
117.3175557663
  0
VERTEX
  8
0
 62
7
  6
CONTINUOUS
 10
174.0260502438
 20
119.153289302
  0
VERTEX
  8
0
 62
7
  6
CONTINUOUS
 10
174.6896630279
 20
120.8742531694
  0
VERTEX
  8
0
 62
7
  6
CONTINUOUS
 10
175.2968196199
 20
122.4405395601
  0
SEQEND
  0
POLYLINE
  8
0
 62
7
  6
CONTINUOUS
 66
1
 70
0
  0
VERTEX
  8
0
 62
7
  6
CONTINUOUS
 10
196.7686365018
 20
180.9562094738
  0
VERTEX
  8
0
 62
7
  6
CONTINUOUS
 10
197.3718782617
 20
182.512420852
  0
VERTEX
  8
0
 62
7
  6
CONTINUOUS
 10
198.0329291828
 20
184.2267243387
  0
VERTEX
  8
0
 62
7
  6
CONTINUOUS
 10
198.7373902474
 20
186.061818724
  0
VERTEX
  8
0
 62
7
  6
CONTINUOUS
 10
199.4784420171
 20
187.9999031033
  0
VERTEX
  8
0
 62
7
  6
CONTINUOUS
 10
200.24927699
 20
190.0232096315
  0
VERTEX
  8
0
 62
7
  6
CONTINUOUS
 10
201.0327348854
 20
192.0866575132
  0
SEQEND
  0
LINE
  8
0
 62
7
  6
CONTINUOUS
 10
143.7471599875
 20
141.698568673
 11
155.8050552302
 21
144.5365531124
  0
LINE
  8
0
 62
7
  6
CONTINUOUS
 10
216.2603915372
 20
158.8599821031
 11
228.3180224389
 21
161.6983887655
  0
LINE
  8
0
 62
7
  6
CONTINUOUS
 10
485.0910531847
 20
141.7361438441
 11
482.0914879051
 21
141.6983843396
  0
LINE
  8
0
 62
7
  6
CONTINUOUS
 10
-105.4269384421
 20
141.7161355719
 11
-108.0562081616
 21
141.6983839077
  0
LINE
  8
0
 62
7
  6
CONTINUOUS
 10
477.4930745335
 20
141.698378841
 11
228.3179529078
 21
141.6983730485
  0
LINE
  8
0
 62
7
  6
CONTINUOUS
 10
143.7474201477
 20
141.6983730281
 11
-105.4276647826
 21
141.6983788473
  0
LINE
  8
0
 62
7
  6
CONTINUOUS
 10
-110.0262275584
 20
141.698383875
 11
-108.05621583
 21
141.698383875
  0
LINE
  8
0
 62
7
  6
CONTINUOUS
 10
480.1216232611
 20
141.698383875
 11
482.0914525672
 21
141.698383875
  0
LINE
  8
0
 62
7
  6
CONTINUOUS
 10
477.4923429849
 20
141.6984144916
 11
480.1215380021
 21
141.6806939559
  0
LINE
  8
0
 62
7
  6
CONTINUOUS
 10
-113.0264728455
 20
141.6982757988
 11
-110.0267077932
 21
141.6603772131
  0
LINE
  8
0
 62
7
  6
CONTINUOUS
 10
216.2603417957
 20
144.5365073102
 11
228.3182466791
 21
141.6985051567
  0
LINE
  8
0
 62
7
  6
CONTINUOUS
 10
143.7475188357
 20
161.6986055857
 11
155.8050566305
 21
158.8601472279
  0
POLYLINE
  8
0
 62
7
  6
CONTINUOUS
 66
1
 70
0
  0
VERTEX
  8
0
 62
7
  6
CONTINUOUS
 10
196.7685892593
 20
122.440539046
  0
VERTEX
  8
0
 62
7
  6
CONTINUOUS
 10
197.3693550757
 20
120.89078396
  0
VERTEX
  8
0
 62
7
  6
CONTINUOUS
 10
198.0282221737
 20
119.1822357987
  0
VERTEX
  8
0
 62
7
  6
CONTINUOUS
 10
198.7307294895
 20
117.3523367108
  0
VERTEX
  8
0
 62
7
  6
CONTINUOUS
 10
199.4713311722
 20
115.4155388329
  0
VERTEX
  8
0
 62
7
  6
CONTINUOUS
 10
200.2445386285
 20
113.386098519
  0
VERTEX
  8
0
 62
7
  6
CONTINUOUS
 10
201.0328338574
 20
111.3099601983
  0
SEQEND
  0
POLYLINE
  8
0
 62
7
  6
CONTINUOUS
 66
1
 70
0
  0
VERTEX
  8
0
 62
7
  6
CONTINUOUS
 10
171.0326739488
 20
192.0866575213
  0
VERTEX
  8
0
 62
7
  6
CONTINUOUS
 10
171.8161476926
 20
190.0232156694
  0
VERTEX
  8
0
 62
7
  6
CONTINUOUS
 10
172.5869971707
 20
187.9999146368
  0
VERTEX
  8
0
 62
7
  6
CONTINUOUS
 10
173.3280622751
 20
186.0618352853
  0
VERTEX
  8
0
 62
7
  6
CONTINUOUS
 10
174.0325351163
 20
184.2267453248
  0
VERTEX
  8
0
 62
7
  6
CONTINUOUS
 10
174.6935960112
 20
182.5124455687
  0
VERTEX
  8
0
 62
7
  6
CONTINUOUS
 10
175.296846379
 20
180.9562373863
  0
SEQEND
  0
LINE
  8
0
 62
7
  6
CONTINUOUS
 10
201.0131262956
 20
350.7939291898
 11
201.0327045719
 21
347.793972121
  0
LINE
  8
0
 62
7
  6
CONTINUOUS
 10
201.0327045341
 20
-42.1839342441
 11
201.0315714336
 21
-40.229408176
  0
LINE
  8
0
 62
7
  6
CONTINUOUS
 10
201.0327040365
 20
345.5801056663
 11
201.0327044718
 21
192.0867390383
  0
LINE
  8
0
 62
7
  6
CONTINUOUS
 10
201.0315714336
 20
-40.229408176
 11
201.0327044714
 21
111.310028708
  0
LINE
  8
0
 62
7
  6
CONTINUOUS
 10
201.0327045216
 20
-44.3972052268
 11
201.0122595435
 21
-47.3971555538
  0
LINE
  8
0
 62
7
  6
CONTINUOUS
 10
-113.0259875888
 20
161.6606222409
 11
-110.0262627812
 21
161.6983834117
  0
LINE
  8
0
 62
7
  6
CONTINUOUS
 10
477.4923474089
 20
161.680636611
 11
480.1216155933
 21
161.6983838423
  0
LINE
  8
0
 62
7
  6
CONTINUOUS
 10
482.0914525672
 20
161.698383875
 11
480.1216232611
 21
161.698383875
  0
LINE
  8
0
 62
7
  6
CONTINUOUS
 10
-108.05621583
 20
161.698383875
 11
-110.0262275584
 21
161.698383875
  0
LINE
  8
0
 62
7
  6
CONTINUOUS
 10
-105.4276657645
 20
161.6983889067
 11
143.7474555893
 21
161.6983947033
  0
LINE
  8
0
 62
7
  6
CONTINUOUS
 10
228.3179887404
 20
161.6983947203
 11
477.4930735515
 21
161.6983889061
  0
LINE
  8
0
 62
7
  6
CONTINUOUS
 10
-105.4269342153
 20
161.6983534567
 11
-108.0561292323
 21
161.7160739927
  0
LINE
  8
0
 62
7
  6
CONTINUOUS
 10
485.0918815801
 20
161.6984892838
 11
482.0921165278
 21
161.7363878722
  0
POLYLINE
  8
0
 62
7
  6
CONTINUOUS
 66
1
 70
0
  0
VERTEX
  8
0
 62
7
  6
CONTINUOUS
 10
228.3179529078
 20
141.6983730485
  0
VERTEX
  8
0
 62
7
  6
CONTINUOUS
 10
227.1484227689
 20
137.5964326852
  0
VERTEX
  8
0
 62
7
  6
CONTINUOUS
 10
225.5881433806
 20
133.6620476454
  0
VERTEX
  8
0
 62
7
  6
CONTINUOUS
 10
223.6228608391
 20
129.8760020512
  0
VERTEX
  8
0
 62
7
  6
CONTINUOUS
 10
221.2896517735
 20
126.3048416316
  0
VERTEX
  8
0
 62
7
  6
CONTINUOUS
 10
218.6146023503
 20
123.0015357664
  0
VERTEX
  8
0
 62
7
  6
CONTINUOUS
 10
215.6188391425
 20
119.9838270008
  0
VERTEX
  8
0
 62
7
  6
CONTINUOUS
 10
212.3172760642
 20
117.2739675906
  0
VERTEX
  8
0
 62
7
  6
CONTINUOUS
 10
208.7582840811
 20
114.9056899023
  0
VERTEX
  8
0
 62
7
  6
CONTINUOUS
 10
205.002968287
 20
112.923573526
  0
VERTEX
  8
0
 62
7
  6
CONTINUOUS
 10
201.0327044714
 20
111.310028708
  0
SEQEND
  0
POLYLINE
  8
0
 62
7
  6
CONTINUOUS
 66
1
 70
0
  0
VERTEX
  8
0
 62
7
  6
CONTINUOUS
 10
196.7686347871
 20
122.4405625897
  0
VERTEX
  8
0
 62
7
  6
CONTINUOUS
 10
199.5351046945
 20
123.6632222573
  0
VERTEX
  8
0
 62
7
  6
CONTINUOUS
 10
202.2038594215
 20
125.1613423179
  0
VERTEX
  8
0
 62
7
  6
CONTINUOUS
 10
204.7518015591
 20
126.9384232946
  0
VERTEX
  8
0
 62
7
  6
CONTINUOUS
 10
207.1296109823
 20
128.9651676331
  0
VERTEX
  8
0
 62
7
  6
CONTINUOUS
 10
209.3045758319
 20
131.2079566408
  0
VERTEX
  8
0
 62
7
  6
CONTINUOUS
 10
211.2428194732
 20
133.6373927143
  0
VERTEX
  8
0
 62
7
  6
CONTINUOUS
 10
212.9185927968
 20
136.2091845847
  0
VERTEX
  8
0
 62
7
  6
CONTINUOUS
 10
214.3173438164
 20
138.8955195569
  0
VERTEX
  8
0
 62
7
  6
CONTINUOUS
 10
215.4230212522
 20
141.6575001083
  0
VERTEX
  8
0
 62
7
  6
CONTINUOUS
 10
216.2434126423
 20
144.4650596595
  0
SEQEND
  0
POLYLINE
  8
0
 62
7
  6
CONTINUOUS
 66
1
 70
0
  0
VERTEX
  8
0
 62
7
  6
CONTINUOUS
 10
201.0327038258
 20
111.3100961909
  0
VERTEX
  8
0
 62
7
  6
CONTINUOUS
 10
197.3579468654
 20
110.1852214416
  0
VERTEX
  8
0
 62
7
  6
CONTINUOUS
 10
193.6276847684
 20
109.381807663
  0
VERTEX
  8
0
 62
7
  6
CONTINUOUS
 10
189.8256709544
 20
108.8988930684
  0
VERTEX
  8
0
 62
7
  6
CONTINUOUS
 10
186.0026692391
 20
108.7376040768
  0
VERTEX
  8
0
 62
7
  6
CONTINUOUS
 10
182.2018417452
 20
108.8997983697
  0
VERTEX
  8
0
 62
7
  6
CONTINUOUS
 10
178.4295062331
 20
109.383221417
  0
VERTEX
  8
0
 62
7
  6
CONTINUOUS
 10
174.7087982441
 20
110.1862709734
  0
VERTEX
  8
0
 62
7
  6
CONTINUOUS
 10
171.0326861465
 20
111.3101011083
  0
SEQEND
  0
POLYLINE
  8
0
 62
7
  6
CONTINUOUS
 66
1
 70
0
  0
VERTEX
  8
0
 62
7
  6
CONTINUOUS
 10
186.0327043842
 20
182.9683784118
  0
VERTEX
  8
0
 62
7
  6
CONTINUOUS
 10
183.289045405
 20
182.8370546554
  0
VERTEX
  8
0
 62
7
  6
CONTINUOUS
 10
180.5694715732
 20
182.455256411
  0
VERTEX
  8
0
 62
7
  6
CONTINUOUS
 10
177.8976606717
 20
181.8264079854
  0
VERTEX
  8
0
 62
7
  6
CONTINUOUS
 10
175.296847874
 20
180.9562334468
  0
SEQEND
  0
POLYLINE
  8
0
 62
7
  6
CONTINUOUS
 66
1
 70
0
  0
VERTEX
  8
0
 62
7
  6
CONTINUOUS
 10
196.7686347871
 20
180.9562051603
  0
VERTEX
  8
0
 62
7
  6
CONTINUOUS
 10
194.1501720365
 20
181.8313443395
  0
VERTEX
  8
0
 62
7
  6
CONTINUOUS
 10
191.4719526609
 20
182.4597705876
  0
VERTEX
  8
0
 62
7
  6
CONTINUOUS
 10
188.7581265382
 20
182.8388664948
  0
VERTEX
  8
0
 62
7
  6
CONTINUOUS
 10
186.0327043842
 20
182.9684178398
  0
SEQEND
  0
POLYLINE
  8
0
 62
7
  6
CONTINUOUS
 66
1
 70
0
  0
VERTEX
  8
0
 62
7
  6
CONTINUOUS
 10
201.0327044718
 20
192.0867390383
  0
VERTEX
  8
0
 62
7
  6
CONTINUOUS
 10
205.0005664493
 20
190.4743570637
  0
VERTEX
  8
0
 62
7
  6
CONTINUOUS
 10
208.754226885
 20
188.4935132146
  0
VERTEX
  8
0
 62
7
  6
CONTINUOUS
 10
212.312652851
 20
186.1264449548
  0
VERTEX
  8
0
 62
7
  6
CONTINUOUS
 10
215.6137009571
 20
183.4182350228
  0
VERTEX
  8
0
 62
7
  6
CONTINUOUS
 10
218.6072939737
 20
180.4038527506
  0
VERTEX
  8
0
 62
7
  6
CONTINUOUS
 10
221.280904346
 20
177.1032381353
  0
VERTEX
  8
0
 62
7
  6
CONTINUOUS
 10
223.6159595247
 20
173.5318142147
  0
VERTEX
  8
0
 62
7
  6
CONTINUOUS
 10
225.5840474107
 20
169.7436264633
  0
VERTEX
  8
0
 62
7
  6
CONTINUOUS
 10
227.1464587949
 20
165.8056026195
  0
VERTEX
  8
0
 62
7
  6
CONTINUOUS
 10
228.3179887404
 20
161.6983947203
  0
SEQEND
  0
POLYLINE
  8
0
 62
7
  6
CONTINUOUS
 66
1
 70
0
  0
VERTEX
  8
0
 62
7
  6
CONTINUOUS
 10
216.2434912302
 20
158.9313800952
  0
VERTEX
  8
0
 62
7
  6
CONTINUOUS
 10
215.4225153514
 20
161.7407405009
  0
VERTEX
  8
0
 62
7
  6
CONTINUOUS
 10
214.316628665
 20
164.5028036204
  0
VERTEX
  8
0
 62
7
  6
CONTINUOUS
 10
212.918733755
 20
167.1872766911
  0
VERTEX
  8
0
 62
7
  6
CONTINUOUS
 10
211.2446448184
 20
169.7567582505
  0
VERTEX
  8
0
 62
7
  6
CONTINUOUS
 10
209.308527715
 20
172.1843278516
  0
VERTEX
  8
0
 62
7
  6
CONTINUOUS
 10
207.1352211599
 20
174.42645149
  0
VERTEX
  8
0
 62
7
  6
CONTINUOUS
 10
204.7565567137
 20
176.454766043
  0
VERTEX
  8
0
 62
7
  6
CONTINUOUS
 10
202.2066804507
 20
178.233679034
  0
VERTEX
  8
0
 62
7
  6
CONTINUOUS
 10
199.5364792451
 20
179.7328581609
  0
VERTEX
  8
0
 62
7
  6
CONTINUOUS
 10
196.7686347871
 20
180.9562051603
  0
SEQEND
  0
POLYLINE
  8
0
 62
7
  6
CONTINUOUS
 66
1
 70
0
  0
VERTEX
  8
0
 62
7
  6
CONTINUOUS
 10
216.2434912302
 20
158.9313800952
  0
VERTEX
  8
0
 62
7
  6
CONTINUOUS
 10
216.7177765735
 20
156.5236126979
  0
VERTEX
  8
0
 62
7
  6
CONTINUOUS
 10
217.0000499654
 20
154.1044531139
  0
VERTEX
  8
0
 62
7
  6
CONTINUOUS
 10
217.0928941296
 20
151.6982103848
  0
VERTEX
  8
0
 62
7
  6
CONTINUOUS
 10
217.0000231686
 20
149.2919697731
  0
VERTEX
  8
0
 62
7
  6
CONTINUOUS
 10
216.7177233201
 20
146.8728165465
  0
VERTEX
  8
0
 62
7
  6
CONTINUOUS
 10
216.2434126423
 20
144.4650596595
  0
SEQEND
  0
POLYLINE
  8
0
 62
7
  6
CONTINUOUS
 66
1
 70
0
  0
VERTEX
  8
0
 62
7
  6
CONTINUOUS
 10
228.3182191032
 20
161.6983831257
  0
VERTEX
  8
0
 62
7
  6
CONTINUOUS
 10
228.9680892827
 20
158.389213124
  0
VERTEX
  8
0
 62
7
  6
CONTINUOUS
 10
229.3579900396
 20
155.058855711
  0
VERTEX
  8
0
 62
7
  6
CONTINUOUS
 10
229.4879618254
 20
151.6983987432
  0
VERTEX
  8
0
 62
7
  6
CONTINUOUS
 10
229.3579921134
 20
148.3379384682
  0
VERTEX
  8
0
 62
7
  6
CONTINUOUS
 10
228.9680897462
 20
145.0075711382
  0
VERTEX
  8
0
 62
7
  6
CONTINUOUS
 10
228.3182190964
 20
141.6983846242
  0
SEQEND
  0
POLYLINE
  8
0
 62
7
  6
CONTINUOUS
 66
1
 70
0
  0
VERTEX
  8
0
 62
7
  6
CONTINUOUS
 10
171.0327785744
 20
342.9576236003
  0
VERTEX
  8
0
 62
7
  6
CONTINUOUS
 10
165.4147975838
 20
342.9092680699
  0
VERTEX
  8
0
 62
7
  6
CONTINUOUS
 10
159.794818142
 20
342.8275488821
  0
VERTEX
  8
0
 62
7
  6
CONTINUOUS
 10
154.1681071001
 20
342.7121474643
  0
VERTEX
  8
0
 62
7
  6
CONTINUOUS
 10
148.5350671463
 20
342.5856137474
  0
VERTEX
  8
0
 62
7
  6
CONTINUOUS
 10
142.8937009142
 20
342.466632726
  0
VERTEX
  8
0
 62
7
  6
CONTINUOUS
 10
137.2462457247
 20
342.366840146
  0
VERTEX
  8
0
 62
7
  6
CONTINUOUS
 10
131.5142596392
 20
342.3009432148
  0
VERTEX
  8
0
 62
7
  6
CONTINUOUS
 10
125.9444971665
 20
342.2679038687
  0
VERTEX
  8
0
 62
7
  6
CONTINUOUS
 10
120.871275683
 20
342.2685587608
  0
VERTEX
  8
0
 62
7
  6
CONTINUOUS
 10
115.9651854835
 20
342.2936458981
  0
VERTEX
  8
0
 62
7
  6
CONTINUOUS
 10
110.9802112389
 20
342.3385018878
  0
VERTEX
  8
0
 62
7
  6
CONTINUOUS
 10
105.9987171101
 20
342.3929380609
  0
VERTEX
  8
0
 62
7
  6
CONTINUOUS
 10
101.0222964638
 20
342.4478042233
  0
VERTEX
  8
0
 62
7
  6
CONTINUOUS
 10
96.0506211585
 20
342.4900394285
  0
VERTEX
  8
0
 62
7
  6
CONTINUOUS
 10
91.0127861804
 20
342.5057562799
  0
VERTEX
  8
0
 62
7
  6
CONTINUOUS
 10
86.1207395252
 20
342.4904375845
  0
VERTEX
  8
0
 62
7
  6
CONTINUOUS
 10
81.6551850717
 20
342.438207729
  0
VERTEX
  8
0
 62
7
  6
CONTINUOUS
 10
77.3320922945
 20
342.349988268
  0
VERTEX
  8
0
 62
7
  6
CONTINUOUS
 10
72.9378176555
 20
342.2217768504
  0
VERTEX
  8
0
 62
7
  6
CONTINUOUS
 10
68.5423348888
 20
342.0617952785
  0
VERTEX
  8
0
 62
7
  6
CONTINUOUS
 10
64.1436149024
 20
341.8749677973
  0
VERTEX
  8
0
 62
7
  6
CONTINUOUS
 10
59.7426210207
 20
341.6693784863
  0
VERTEX
  8
0
 62
7
  6
CONTINUOUS
 10
55.2882828242
 20
341.4518456914
  0
VERTEX
  8
0
 62
7
  6
CONTINUOUS
 10
50.9344104658
 20
341.2315009106
  0
VERTEX
  8
0
 62
7
  6
CONTINUOUS
 10
46.8864576439
 20
341.0224684193
  0
VERTEX
  8
0
 62
7
  6
CONTINUOUS
 10
42.9428641705
 20
340.8096375374
  0
VERTEX
  8
0
 62
7
  6
CONTINUOUS
 10
38.9544378883
 20
340.5827433614
  0
VERTEX
  8
0
 62
7
  6
CONTINUOUS
 10
34.9726760563
 20
340.3364462381
  0
VERTEX
  8
0
 62
7
  6
CONTINUOUS
 10
30.9993303605
 20
340.0639754364
  0
VERTEX
  8
0
 62
7
  6
CONTINUOUS
 10
27.0356918779
 20
339.7574082821
  0
VERTEX
  8
0
 62
7
  6
CONTINUOUS
 10
23.0407237708
 20
339.4038398798
  0
VERTEX
  8
0
 62
7
  6
CONTINUOUS
 10
19.1439642561
 20
339.0101896671
  0
VERTEX
  8
0
 62
7
  6
CONTINUOUS
 10
15.5160847814
 20
338.5899783289
  0
VERTEX
  8
0
 62
7
  6
CONTINUOUS
 10
11.9852380066
 20
338.1220963747
  0
VERTEX
  8
0
 62
7
  6
CONTINUOUS
 10
8.4240444806
 20
337.5870461574
  0
VERTEX
  8
0
 62
7
  6
CONTINUOUS
 10
4.8759458226
 20
336.9838497499
  0
VERTEX
  8
0
 62
7
  6
CONTINUOUS
 10
1.3413624032
 20
336.307264246
  0
VERTEX
  8
0
 62
7
  6
CONTINUOUS
 10
-2.1797717167
 20
335.5533263436
  0
VERTEX
  8
0
 62
7
  6
CONTINUOUS
 10
-5.7276243617
 20
334.7055196739
  0
VERTEX
  8
0
 62
7
  6
CONTINUOUS
 10
-9.1814736689
 20
333.7962670474
  0
VERTEX
  8
0
 62
7
  6
CONTINUOUS
 10
-12.3863789632
 20
332.8706523147
  0
VERTEX
  8
0
 62
7
  6
CONTINUOUS
 10
-15.4955782119
 20
331.8904751624
  0
VERTEX
  8
0
 62
7
  6
CONTINUOUS
 10
-18.6240625328
 20
330.8238972928
  0
VERTEX
  8
0
 62
7
  6
CONTINUOUS
 10
-21.7232261453
 20
329.6837602681
  0
VERTEX
  8
0
 62
7
  6
CONTINUOUS
 10
-24.7821450861
 20
328.4731353182
  0
VERTEX
  8
0
 62
7
  6
CONTINUOUS
 10
-27.8036737139
 20
327.1909173957
  0
VERTEX
  8
0
 62
7
  6
CONTINUOUS
 10
-30.8155034624
 20
325.8222099123
  0
VERTEX
  8
0
 62
7
  6
CONTINUOUS
 10
-33.732140715
 20
324.4113672692
  0
VERTEX
  8
0
 62
7
  6
CONTINUOUS
 10
-36.4409513862
 20
323.0197990805
  0
VERTEX
  8
0
 62
7
  6
CONTINUOUS
 10
-39.0585155895
 20
321.5931306387
  0
VERTEX
  8
0
 62
7
  6
CONTINUOUS
 10
-41.6707423479
 20
320.089565885
  0
VERTEX
  8
0
 62
7
  6
CONTINUOUS
 10
-44.2489669069
 20
318.5201883864
  0
VERTEX
  8
0
 62
7
  6
CONTINUOUS
 10
-46.7948477632
 20
316.8814227315
  0
VERTEX
  8
0
 62
7
  6
CONTINUOUS
 10
-49.3028422947
 20
315.174695558
  0
VERTEX
  8
0
 62
7
  6
CONTINUOUS
 10
-51.7875582677
 20
313.3850189521
  0
VERTEX
  8
0
 62
7
  6
CONTINUOUS
 10
-54.1907687365
 20
311.5589466068
  0
VERTEX
  8
0
 62
7
  6
CONTINUOUS
 10
-56.437802091
 20
309.7582898439
  0
VERTEX
  8
0
 62
7
  6
CONTINUOUS
 10
-58.5994417401
 20
307.9329961782
  0
VERTEX
  8
0
 62
7
  6
CONTINUOUS
 10
-60.7250438392
 20
306.0466693578
  0
VERTEX
  8
0
 62
7
  6
CONTINUOUS
 10
-62.7994347934
 20
304.11266465
  0
VERTEX
  8
0
 62
7
  6
CONTINUOUS
 10
-64.8235237101
 20
302.1318947564
  0
VERTEX
  8
0
 62
7
  6
CONTINUOUS
 10
-66.7982094519
 20
300.1049637119
  0
VERTEX
  8
0
 62
7
  6
CONTINUOUS
 10
-68.7356696169
 20
298.019159906
  0
VERTEX
  8
0
 62
7
  6
CONTINUOUS
 10
-70.6030974805
 20
295.915531382
  0
VERTEX
  8
0
 62
7
  6
CONTINUOUS
 10
-72.3570997207
 20
293.8498444614
  0
VERTEX
  8
0
 62
7
  6
CONTINUOUS
 10
-74.0454297894
 20
291.7712054674
  0
VERTEX
  8
0
 62
7
  6
CONTINUOUS
 10
-75.7041700387
 20
289.6402910183
  0
VERTEX
  8
0
 62
7
  6
CONTINUOUS
 10
-77.3202171763
 20
287.4707638493
  0
VERTEX
  8
0
 62
7
  6
CONTINUOUS
 10
-78.8929535549
 20
285.2627086472
  0
VERTEX
  8
0
 62
7
  6
CONTINUOUS
 10
-80.420897272
 20
283.0173682041
  0
VERTEX
  8
0
 62
7
  6
CONTINUOUS
 10
-81.906215169
 20
280.7297361616
  0
VERTEX
  8
0
 62
7
  6
CONTINUOUS
 10
-83.3375608848
 20
278.4189851072
  0
VERTEX
  8
0
 62
7
  6
CONTINUOUS
 10
-84.7013435695
 20
276.1086041118
  0
VERTEX
  8
0
 62
7
  6
CONTINUOUS
 10
-86.0081144723
 20
273.7832213648
  0
VERTEX
  8
0
 62
7
  6
CONTINUOUS
 10
-87.263864971
 20
271.4341198418
  0
VERTEX
  8
0
 62
7
  6
CONTINUOUS
 10
-88.4677431481
 20
269.0633519329
  0
VERTEX
  8
0
 62
7
  6
CONTINUOUS
 10
-89.6209414895
 20
266.6697351594
  0
VERTEX
  8
0
 62
7
  6
CONTINUOUS
 10
-90.7232249838
 20
264.2541112636
  0
VERTEX
  8
0
 62
7
  6
CONTINUOUS
 10
-91.7711848378
 20
261.8261954091
  0
VERTEX
  8
0
 62
7
  6
CONTINUOUS
 10
-92.7755327276
 20
259.3581814817
  0
VERTEX
  8
0
 62
7
  6
CONTINUOUS
 10
-93.7500037271
 20
256.8123325234
  0
VERTEX
  8
0
 62
7
  6
CONTINUOUS
 10
-94.679669049
 20
254.2243218846
  0
VERTEX
  8
0
 62
7
  6
CONTINUOUS
 10
-95.5533599051
 20
251.6218779976
  0
VERTEX
  8
0
 62
7
  6
CONTINUOUS
 10
-96.3764313938
 20
248.9956376729
  0
VERTEX
  8
0
 62
7
  6
CONTINUOUS
 10
-97.1503015252
 20
246.3443608658
  0
VERTEX
  8
0
 62
7
  6
CONTINUOUS
 10
-97.8764585643
 20
243.6727303728
  0
VERTEX
  8
0
 62
7
  6
CONTINUOUS
 10
-98.5525267932
 20
241.0024124806
  0
VERTEX
  8
0
 62
7
  6
CONTINUOUS
 10
-99.1920427388
 20
238.2820408402
  0
VERTEX
  8
0
 62
7
  6
CONTINUOUS
 10
-99.8120139439
 20
235.4403147225
  0
VERTEX
  8
0
 62
7
  6
CONTINUOUS
 10
-100.39599091
 20
232.5529739015
  0
VERTEX
  8
0
 62
7
  6
CONTINUOUS
 10
-100.9321842149
 20
229.6806134493
  0
VERTEX
  8
0
 62
7
  6
CONTINUOUS
 10
-101.4274209658
 20
226.8033140489
  0
VERTEX
  8
0
 62
7
  6
CONTINUOUS
 10
-101.8839128397
 20
223.9209721741
  0
VERTEX
  8
0
 62
7
  6
CONTINUOUS
 10
-102.3030674415
 20
221.033719318
  0
VERTEX
  8
0
 62
7
  6
CONTINUOUS
 10
-102.6834813902
 20
218.1717622299
  0
VERTEX
  8
0
 62
7
  6
CONTINUOUS
 10
-103.0359332204
 20
215.2449811906
  0
VERTEX
  8
0
 62
7
  6
CONTINUOUS
 10
-103.3738913453
 20
212.1306323518
  0
VERTEX
  8
0
 62
7
  6
CONTINUOUS
 10
-103.6832677211
 20
208.9495715686
  0
VERTEX
  8
0
 62
7
  6
CONTINUOUS
 10
-103.9538823548
 20
205.7945156237
  0
VERTEX
  8
0
 62
7
  6
CONTINUOUS
 10
-104.1923444311
 20
202.6347522996
  0
VERTEX
  8
0
 62
7
  6
CONTINUOUS
 10
-104.4011283242
 20
199.4705461623
  0
VERTEX
  8
0
 62
7
  6
CONTINUOUS
 10
-104.582715732
 20
196.3020862976
  0
VERTEX
  8
0
 62
7
  6
CONTINUOUS
 10
-104.7381349294
 20
193.171850161
  0
VERTEX
  8
0
 62
7
  6
CONTINUOUS
 10
-104.8741831159
 20
189.953178603
  0
VERTEX
  8
0
 62
7
  6
CONTINUOUS
 10
-104.9986520922
 20
186.4751372988
  0
VERTEX
  8
0
 62
7
  6
CONTINUOUS
 10
-105.1059916716
 20
182.9074029947
  0
VERTEX
  8
0
 62
7
  6
CONTINUOUS
 10
-105.1931421601
 20
179.3786776818
  0
VERTEX
  8
0
 62
7
  6
CONTINUOUS
 10
-105.2642964355
 20
175.8470124909
  0
VERTEX
  8
0
 62
7
  6
CONTINUOUS
 10
-105.3217542601
 20
172.3125549574
  0
VERTEX
  8
0
 62
7
  6
CONTINUOUS
 10
-105.3670437725
 20
168.7760094584
  0
VERTEX
  8
0
 62
7
  6
CONTINUOUS
 10
-105.402478653
 20
165.2378044576
  0
VERTEX
  8
0
 62
7
  6
CONTINUOUS
 10
-105.4276657645
 20
161.6983889067
  0
SEQEND
  0
POLYLINE
  8
0
 62
7
  6
CONTINUOUS
 66
1
 70
0
  0
VERTEX
  8
0
 62
7
  6
CONTINUOUS
 10
171.0327044277
 20
342.9567469909
  0
VERTEX
  8
0
 62
7
  6
CONTINUOUS
 10
176.0356417783
 20
342.9670310609
  0
VERTEX
  8
0
 62
7
  6
CONTINUOUS
 10
181.0358874295
 20
342.9731991869
  0
VERTEX
  8
0
 62
7
  6
CONTINUOUS
 10
186.0339384926
 20
342.9752538148
  0
VERTEX
  8
0
 62
7
  6
CONTINUOUS
 10
191.0317069483
 20
342.9731973893
  0
VERTEX
  8
0
 62
7
  6
CONTINUOUS
 10
196.0311044894
 20
342.9670288611
  0
VERTEX
  8
0
 62
7
  6
CONTINUOUS
 10
201.0326273615
 20
342.9567471808
  0
SEQEND
  0
POLYLINE
  8
0
 62
7
  6
CONTINUOUS
 66
1
 70
0
  0
VERTEX
  8
0
 62
7
  6
CONTINUOUS
 10
201.0327043842
 20
345.5804845845
  0
VERTEX
  8
0
 62
7
  6
CONTINUOUS
 10
196.0318927031
 20
345.5880966428
  0
VERTEX
  8
0
 62
7
  6
CONTINUOUS
 10
191.0316757446
 20
345.59266386
  0
VERTEX
  8
0
 62
7
  6
CONTINUOUS
 10
186.032306681
 20
345.5941801466
  0
VERTEX
  8
0
 62
7
  6
CONTINUOUS
 10
181.0330259959
 20
345.5926637715
  0
VERTEX
  8
0
 62
7
  6
CONTINUOUS
 10
176.0330741729
 20
345.5881330041
  0
VERTEX
  8
0
 62
7
  6
CONTINUOUS
 10
171.0327043842
 20
345.5805817545
  0
SEQEND
  0
POLYLINE
  8
0
 62
7
  6
CONTINUOUS
 66
1
 70
0
  0
VERTEX
  8
0
 62
7
  6
CONTINUOUS
 10
201.0327043842
 20
345.5803874145
  0
VERTEX
  8
0
 62
7
  6
CONTINUOUS
 10
216.3610381308
 20
345.2920716161
  0
VERTEX
  8
0
 62
7
  6
CONTINUOUS
 10
231.119577263
 20
345.0852006416
  0
VERTEX
  8
0
 62
7
  6
CONTINUOUS
 10
245.3781113764
 20
344.9656936148
  0
VERTEX
  8
0
 62
7
  6
CONTINUOUS
 10
258.9272716846
 20
344.9157931647
  0
VERTEX
  8
0
 62
7
  6
CONTINUOUS
 10
271.5191682137
 20
344.9673517866
  0
VERTEX
  8
0
 62
7
  6
CONTINUOUS
 10
283.3391541224
 20
344.9774590056
  0
VERTEX
  8
0
 62
7
  6
CONTINUOUS
 10
294.4840865454
 20
344.7860268343
  0
VERTEX
  8
0
 62
7
  6
CONTINUOUS
 10
304.9715635811
 20
344.4764403051
  0
VERTEX
  8
0
 62
7
  6
CONTINUOUS
 10
314.8331114312
 20
344.0665991434
  0
VERTEX
  8
0
 62
7
  6
CONTINUOUS
 10
324.1238029205
 20
343.5928712832
  0
VERTEX
  8
0
 62
7
  6
CONTINUOUS
 10
332.902918452
 20
343.1220423541
  0
VERTEX
  8
0
 62
7
  6
CONTINUOUS
 10
341.1893614923
 20
342.580758995
  0
VERTEX
  8
0
 62
7
  6
CONTINUOUS
 10
349.0304793688
 20
341.9241793826
  0
VERTEX
  8
0
 62
7
  6
CONTINUOUS
 10
356.4002209019
 20
341.1335545334
  0
VERTEX
  8
0
 62
7
  6
CONTINUOUS
 10
363.2664399126
 20
340.171600037
  0
VERTEX
  8
0
 62
7
  6
CONTINUOUS
 10
369.694768727
 20
339.049080351
  0
VERTEX
  8
0
 62
7
  6
CONTINUOUS
 10
375.7086247212
 20
337.7657258369
  0
VERTEX
  8
0
 62
7
  6
CONTINUOUS
 10
381.4025065657
 20
336.317354373
  0
VERTEX
  8
0
 62
7
  6
CONTINUOUS
 10
386.8700378566
 20
334.7009022835
  0
VERTEX
  8
0
 62
7
  6
CONTINUOUS
 10
392.1372611923
 20
332.9127445918
  0
VERTEX
  8
0
 62
7
  6
CONTINUOUS
 10
397.2689867103
 20
330.9443848769
  0
VERTEX
  8
0
 62
7
  6
CONTINUOUS
 10
402.242535389
 20
328.8073737961
  0
VERTEX
  8
0
 62
7
  6
CONTINUOUS
 10
407.0668422718
 20
326.5028016546
  0
VERTEX
  8
0
 62
7
  6
CONTINUOUS
 10
411.7118752999
 20
324.0535530879
  0
VERTEX
  8
0
 62
7
  6
CONTINUOUS
 10
416.1451642913
 20
321.4832426378
  0
VERTEX
  8
0
 62
7
  6
CONTINUOUS
 10
420.3829586577
 20
318.7907708915
  0
VERTEX
  8
0
 62
7
  6
CONTINUOUS
 10
424.4181809521
 20
315.9909746658
  0
VERTEX
  8
0
 62
7
  6
CONTINUOUS
 10
428.288341568
 20
313.0596598137
  0
VERTEX
  8
0
 62
7
  6
CONTINUOUS
 10
432.019852459
 20
309.9876970863
  0
VERTEX
  8
0
 62
7
  6
CONTINUOUS
 10
435.6389314976
 20
306.7447286069
  0
VERTEX
  8
0
 62
7
  6
CONTINUOUS
 10
439.1865936266
 20
303.2945770397
  0
VERTEX
  8
0
 62
7
  6
CONTINUOUS
 10
442.6448595876
 20
299.6455715146
  0
VERTEX
  8
0
 62
7
  6
CONTINUOUS
 10
446.0245405445
 20
295.7772648825
  0
VERTEX
  8
0
 62
7
  6
CONTINUOUS
 10
449.2802801739
 20
291.739808645
  0
VERTEX
  8
0
 62
7
  6
CONTINUOUS
 10
452.3715836184
 20
287.5734931256
  0
VERTEX
  8
0
 62
7
  6
CONTINUOUS
 10
455.2946776446
 20
283.2874547092
  0
VERTEX
  8
0
 62
7
  6
CONTINUOUS
 10
458.0299650754
 20
278.9074144503
  0
VERTEX
  8
0
 62
7
  6
CONTINUOUS
 10
460.5844228846
 20
274.4239086635
  0
VERTEX
  8
0
 62
7
  6
CONTINUOUS
 10
462.9561553114
 20
269.8422868048
  0
VERTEX
  8
0
 62
7
  6
CONTINUOUS
 10
465.1521833825
 20
265.1438305039
  0
VERTEX
  8
0
 62
7
  6
CONTINUOUS
 10
467.1732492399
 20
260.3377955081
  0
VERTEX
  8
0
 62
7
  6
CONTINUOUS
 10
469.0362937765
 20
255.3456089203
  0
VERTEX
  8
0
 62
7
  6
CONTINUOUS
 10
470.755880388
 20
250.1228520444
  0
VERTEX
  8
0
 62
7
  6
CONTINUOUS
 10
472.3398837075
 20
244.5763180247
  0
VERTEX
  8
0
 62
7
  6
CONTINUOUS
 10
473.8061442891
 20
238.6065011921
  0
VERTEX
  8
0
 62
7
  6
CONTINUOUS
 10
475.139327766
 20
232.1878792913
  0
VERTEX
  8
0
 62
7
  6
CONTINUOUS
 10
476.3367421383
 20
225.2636610126
  0
VERTEX
  8
0
 62
7
  6
CONTINUOUS
 10
477.3783008594
 20
217.8281478504
  0
VERTEX
  8
0
 62
7
  6
CONTINUOUS
 10
478.2413390386
 20
209.8594030575
  0
VERTEX
  8
0
 62
7
  6
CONTINUOUS
 10
478.9308997078
 20
201.3493500489
  0
VERTEX
  8
0
 62
7
  6
CONTINUOUS
 10
479.4322850363
 20
192.2843746661
  0
VERTEX
  8
0
 62
7
  6
CONTINUOUS
 10
479.7820527218
 20
182.6591528826
  0
VERTEX
  8
0
 62
7
  6
CONTINUOUS
 10
480.0158184881
 20
172.4625898589
  0
VERTEX
  8
0
 62
7
  6
CONTINUOUS
 10
480.1217104273
 20
161.698383875
  0
SEQEND
  0
POLYLINE
  8
0
 62
7
  6
CONTINUOUS
 66
1
 70
0
  0
VERTEX
  8
0
 62
7
  6
CONTINUOUS
 10
201.0131262956
 20
350.7939291898
  0
VERTEX
  8
0
 62
7
  6
CONTINUOUS
 10
196.9077417156
 20
350.7696669127
  0
VERTEX
  8
0
 62
7
  6
CONTINUOUS
 10
191.497611969
 20
350.7494605165
  0
VERTEX
  8
0
 62
7
  6
CONTINUOUS
 10
186.0872958298
 20
350.7426351461
  0
VERTEX
  8
0
 62
7
  6
CONTINUOUS
 10
180.6768382297
 20
350.7491920976
  0
VERTEX
  8
0
 62
7
  6
CONTINUOUS
 10
175.2662808529
 20
350.7691310802
  0
VERTEX
  8
0
 62
7
  6
CONTINUOUS
 10
171.0531492248
 20
350.7939233037
  0
SEQEND
  0
POLYLINE
  8
0
 62
7
  6
CONTINUOUS
 66
1
 70
0
  0
VERTEX
  8
0
 62
7
  6
CONTINUOUS
 10
171.0327497793
 20
350.794303847
  0
VERTEX
  8
0
 62
7
  6
CONTINUOUS
 10
138.0408539764
 20
350.6396528407
  0
VERTEX
  8
0
 62
7
  6
CONTINUOUS
 10
108.8995385168
 20
350.4427718257
  0
VERTEX
  8
0
 62
7
  6
CONTINUOUS
 10
85.3022682513
 20
350.4285091991
  0
VERTEX
  8
0
 62
7
  6
CONTINUOUS
 10
65.4741082764
 20
350.2631107157
  0
VERTEX
  8
0
 62
7
  6
CONTINUOUS
 10
47.9156275053
 20
349.9045151234
  0
VERTEX
  8
0
 62
7
  6
CONTINUOUS
 10
32.4103093367
 20
349.596142546
  0
VERTEX
  8
0
 62
7
  6
CONTINUOUS
 10
18.348702039
 20
348.7092968799
  0
VERTEX
  8
0
 62
7
  6
CONTINUOUS
 10
5.7379227011
 20
347.0898531739
  0
VERTEX
  8
0
 62
7
  6
CONTINUOUS
 10
-5.4350860625
 20
344.8337802472
  0
VERTEX
  8
0
 62
7
  6
CONTINUOUS
 10
-15.7908925832
 20
341.8453880826
  0
VERTEX
  8
0
 62
7
  6
CONTINUOUS
 10
-25.9537144755
 20
337.9303786974
  0
VERTEX
  8
0
 62
7
  6
CONTINUOUS
 10
-35.9643327008
 20
333.1030378131
  0
VERTEX
  8
0
 62
7
  6
CONTINUOUS
 10
-46.2345146009
 20
327.2018557485
  0
VERTEX
  8
0
 62
7
  6
CONTINUOUS
 10
-56.0075671013
 20
320.5657369793
  0
VERTEX
  8
0
 62
7
  6
CONTINUOUS
 10
-64.5930150117
 20
313.6678481411
  0
VERTEX
  8
0
 62
7
  6
CONTINUOUS
 10
-72.4742357849
 20
306.2422937807
  0
VERTEX
  8
0
 62
7
  6
CONTINUOUS
 10
-79.7239121543
 20
298.2171680847
  0
VERTEX
  8
0
 62
7
  6
CONTINUOUS
 10
-86.3606783746
 20
289.5825281726
  0
VERTEX
  8
0
 62
7
  6
CONTINUOUS
 10
-92.5049192173
 20
280.0176937733
  0
VERTEX
  8
0
 62
7
  6
CONTINUOUS
 10
-97.8992477581
 20
269.9267030276
  0
VERTEX
  8
0
 62
7
  6
CONTINUOUS
 10
-102.286502117
 20
259.9006750222
  0
VERTEX
  8
0
 62
7
  6
CONTINUOUS
 10
-105.8076463783
 20
249.4709511036
  0
VERTEX
  8
0
 62
7
  6
CONTINUOUS
 10
-108.5876020742
 20
238.3504794191
  0
VERTEX
  8
0
 62
7
  6
CONTINUOUS
 10
-110.6850063891
 20
226.1142344074
  0
VERTEX
  8
0
 62
7
  6
CONTINUOUS
 10
-112.040754359
 20
212.4321821403
  0
VERTEX
  8
0
 62
7
  6
CONTINUOUS
 10
-112.757600979
 20
197.1639277866
  0
VERTEX
  8
0
 62
7
  6
CONTINUOUS
 10
-113.1062840446
 20
179.8106292393
  0
VERTEX
  8
0
 62
7
  6
CONTINUOUS
 10
-113.0252999764
 20
161.69839479
  0
SEQEND
  0
POLYLINE
  8
0
 62
7
  6
CONTINUOUS
 66
1
 70
0
  0
VERTEX
  8
0
 62
7
  6
CONTINUOUS
 10
171.0327043842
 20
347.7943394566
  0
VERTEX
  8
0
 62
7
  6
CONTINUOUS
 10
161.1049024451
 20
347.8440785752
  0
VERTEX
  8
0
 62
7
  6
CONTINUOUS
 10
151.1826782576
 20
347.8176560871
  0
VERTEX
  8
0
 62
7
  6
CONTINUOUS
 10
141.1443829296
 20
347.6848337984
  0
VERTEX
  8
0
 62
7
  6
CONTINUOUS
 10
131.3549631378
 20
347.5363262911
  0
VERTEX
  8
0
 62
7
  6
CONTINUOUS
 10
122.3024575806
 20
347.4665933861
  0
VERTEX
  8
0
 62
7
  6
CONTINUOUS
 10
113.4959413017
 20
347.4341611738
  0
VERTEX
  8
0
 62
7
  6
CONTINUOUS
 10
104.4567775614
 20
347.4391081451
  0
VERTEX
  8
0
 62
7
  6
CONTINUOUS
 10
95.6361404083
 20
347.4512369196
  0
VERTEX
  8
0
 62
7
  6
CONTINUOUS
 10
87.4713615612
 20
347.4416984838
  0
VERTEX
  8
0
 62
7
  6
CONTINUOUS
 10
79.52533127
 20
347.4065262292
  0
VERTEX
  8
0
 62
7
  6
CONTINUOUS
 10
71.3753406739
 20
347.3284742478
  0
VERTEX
  8
0
 62
7
  6
CONTINUOUS
 10
63.4155188237
 20
347.2185314244
  0
VERTEX
  8
0
 62
7
  6
CONTINUOUS
 10
56.0257748198
 20
347.0734944163
  0
VERTEX
  8
0
 62
7
  6
CONTINUOUS
 10
48.8260596521
 20
346.9186939977
  0
VERTEX
  8
0
 62
7
  6
CONTINUOUS
 10
41.4575993859
 20
346.8127676378
  0
VERTEX
  8
0
 62
7
  6
CONTINUOUS
 10
34.2364778948
 20
346.6525919088
  0
VERTEX
  8
0
 62
7
  6
CONTINUOUS
 10
27.4524892144
 20
346.368171786
  0
VERTEX
  8
0
 62
7
  6
CONTINUOUS
 10
20.8257289247
 20
345.9187595294
  0
VERTEX
  8
0
 62
7
  6
CONTINUOUS
 10
14.0745653084
 20
345.2281260094
  0
VERTEX
  8
0
 62
7
  6
CONTINUOUS
 10
7.4939742934
 20
344.3327203697
  0
VERTEX
  8
0
 62
7
  6
CONTINUOUS
 10
1.370159077
 20
343.2632765583
  0
VERTEX
  8
0
 62
7
  6
CONTINUOUS
 10
-4.5521938655
 20
341.9607110325
  0
VERTEX
  8
0
 62
7
  6
CONTINUOUS
 10
-10.5034133137
 20
340.3536086551
  0
VERTEX
  8
0
 62
7
  6
CONTINUOUS
 10
-16.2722503049
 20
338.5096981564
  0
VERTEX
  8
0
 62
7
  6
CONTINUOUS
 10
-21.6586827313
 20
336.4829760503
  0
VERTEX
  8
0
 62
7
  6
CONTINUOUS
 10
-26.8593588078
 20
334.2432238494
  0
VERTEX
  8
0
 62
7
  6
CONTINUOUS
 10
-32.0569390932
 20
331.7447950313
  0
VERTEX
  8
0
 62
7
  6
CONTINUOUS
 10
-37.0933644475
 20
329.0879702151
  0
VERTEX
  8
0
 62
7
  6
CONTINUOUS
 10
-41.8278040546
 20
326.3847294741
  0
VERTEX
  8
0
 62
7
  6
CONTINUOUS
 10
-46.3912335011
 20
323.5543279231
  0
VERTEX
  8
0
 62
7
  6
CONTINUOUS
 10
-50.894675619
 20
320.5398014105
  0
VERTEX
  8
0
 62
7
  6
CONTINUOUS
 10
-55.2571578562
 20
317.3817878085
  0
VERTEX
  8
0
 62
7
  6
CONTINUOUS
 10
-59.4180765133
 20
314.1132264405
  0
VERTEX
  8
0
 62
7
  6
CONTINUOUS
 10
-63.4273478643
 20
310.7002488009
  0
VERTEX
  8
0
 62
7
  6
CONTINUOUS
 10
-67.3263079653
 20
307.1115062375
  0
VERTEX
  8
0
 62
7
  6
CONTINUOUS
 10
-71.0800937695
 20
303.3723785125
  0
VERTEX
  8
0
 62
7
  6
CONTINUOUS
 10
-74.666555044
 20
299.4954425288
  0
VERTEX
  8
0
 62
7
  6
CONTINUOUS
 10
-78.0888894039
 20
295.4877582121
  0
VERTEX
  8
0
 62
7
  6
CONTINUOUS
 10
-81.3302556841
 20
291.3868442445
  0
VERTEX
  8
0
 62
7
  6
CONTINUOUS
 10
-84.4286199934
 20
287.1139012598
  0
VERTEX
  8
0
 62
7
  6
CONTINUOUS
 10
-87.4342281807
 20
282.5709165933
  0
VERTEX
  8
0
 62
7
  6
CONTINUOUS
 10
-90.2933998611
 20
277.8530488236
  0
VERTEX
  8
0
 62
7
  6
CONTINUOUS
 10
-92.9565348485
 20
273.0612382153
  0
VERTEX
  8
0
 62
7
  6
CONTINUOUS
 10
-95.4616383956
 20
268.0801270464
  0
VERTEX
  8
0
 62
7
  6
CONTINUOUS
 10
-97.8633658253
 20
262.7740309001
  0
VERTEX
  8
0
 62
7
  6
CONTINUOUS
 10
-100.0621667414
 20
257.3048701258
  0
VERTEX
  8
0
 62
7
  6
CONTINUOUS
 10
-101.9470086635
 20
251.862996237
  0
VERTEX
  8
0
 62
7
  6
CONTINUOUS
 10
-103.606993167
 20
246.2274313248
  0
VERTEX
  8
0
 62
7
  6
CONTINUOUS
 10
-105.1144347932
 20
240.1595114411
  0
VERTEX
  8
0
 62
7
  6
CONTINUOUS
 10
-106.4086621648
 20
233.9026462166
  0
VERTEX
  8
0
 62
7
  6
CONTINUOUS
 10
-107.4347191806
 20
227.7150997601
  0
VERTEX
  8
0
 62
7
  6
CONTINUOUS
 10
-108.2477745536
 20
221.3136446892
  0
VERTEX
  8
0
 62
7
  6
CONTINUOUS
 10
-108.8786080235
 20
214.3884077313
  0
VERTEX
  8
0
 62
7
  6
CONTINUOUS
 10
-109.3454304085
 20
207.277590667
  0
VERTEX
  8
0
 62
7
  6
CONTINUOUS
 10
-109.6618823128
 20
200.3469080907
  0
VERTEX
  8
0
 62
7
  6
CONTINUOUS
 10
-109.8724541195
 20
193.2039482893
  0
VERTEX
  8
0
 62
7
  6
CONTINUOUS
 10
-110.0367374961
 20
185.4429155163
  0
VERTEX
  8
0
 62
7
  6
CONTINUOUS
 10
-110.1230691936
 20
177.4696764666
  0
VERTEX
  8
0
 62
7
  6
CONTINUOUS
 10
-110.1181749318
 20
169.5886577669
  0
VERTEX
  8
0
 62
7
  6
CONTINUOUS
 10
-110.026479471
 20
161.698383875
  0
SEQEND
  0
POLYLINE
  8
0
 62
7
  6
CONTINUOUS
 66
1
 70
0
  0
VERTEX
  8
0
 62
7
  6
CONTINUOUS
 10
171.0327043842
 20
347.7939929337
  0
VERTEX
  8
0
 62
7
  6
CONTINUOUS
 10
176.0370232876
 20
347.7623789797
  0
VERTEX
  8
0
 62
7
  6
CONTINUOUS
 10
181.0395747529
 20
347.7434123815
  0
VERTEX
  8
0
 62
7
  6
CONTINUOUS
 10
186.0403213959
 20
347.7370948022
  0
VERTEX
  8
0
 62
7
  6
CONTINUOUS
 10
191.0393753696
 20
347.7434212521
  0
VERTEX
  8
0
 62
7
  6
CONTINUOUS
 10
196.0368488272
 20
347.7623867415
  0
VERTEX
  8
0
 62
7
  6
CONTINUOUS
 10
201.0327043842
 20
347.7939929337
  0
SEQEND
  0
POLYLINE
  8
0
 62
7
  6
CONTINUOUS
 66
1
 70
0
  0
VERTEX
  8
0
 62
7
  6
CONTINUOUS
 10
485.0910531847
 20
141.7361438441
  0
VERTEX
  8
0
 62
7
  6
CONTINUOUS
 10
485.0563326204
 20
145.0568357023
  0
VERTEX
  8
0
 62
7
  6
CONTINUOUS
 10
485.0355003165
 20
148.3776056978
  0
VERTEX
  8
0
 62
7
  6
CONTINUOUS
 10
485.0285562985
 20
151.6984209003
  0
VERTEX
  8
0
 62
7
  6
CONTINUOUS
 10
485.0355005918
 20
155.0192278746
  0
VERTEX
  8
0
 62
7
  6
CONTINUOUS
 10
485.0563329645
 20
158.3399731861
  0
VERTEX
  8
0
 62
7
  6
CONTINUOUS
 10
485.0910531847
 20
161.6606239058
  0
SEQEND
  0
POLYLINE
  8
0
 62
7
  6
CONTINUOUS
 66
1
 70
0
  0
VERTEX
  8
0
 62
7
  6
CONTINUOUS
 10
477.4930735515
 20
161.6983889061
  0
VERTEX
  8
0
 62
7
  6
CONTINUOUS
 10
477.4666935061
 20
165.4049914664
  0
VERTEX
  8
0
 62
7
  6
CONTINUOUS
 10
477.4287618888
 20
169.1113100195
  0
VERTEX
  8
0
 62
7
  6
CONTINUOUS
 10
477.3796441015
 20
172.8167047203
  0
VERTEX
  8
0
 62
7
  6
CONTINUOUS
 10
477.3168373512
 20
176.5208935613
  0
VERTEX
  8
0
 62
7
  6
CONTINUOUS
 10
477.2387382052
 20
180.2231289998
  0
VERTEX
  8
0
 62
7
  6
CONTINUOUS
 10
477.1426246738
 20
183.9235584616
  0
VERTEX
  8
0
 62
7
  6
CONTINUOUS
 10
477.0239023189
 20
187.6655417468
  0
VERTEX
  8
0
 62
7
  6
CONTINUOUS
 10
476.8851649742
 20
191.3164715318
  0
VERTEX
  8
0
 62
7
  6
CONTINUOUS
 10
476.7317964403
 20
194.7016414977
  0
VERTEX
  8
0
 62
7
  6
CONTINUOUS
 10
476.5552741827
 20
197.9976605906
  0
VERTEX
  8
0
 62
7
  6
CONTINUOUS
 10
476.3478996286
 20
201.3359332951
  0
VERTEX
  8
0
 62
7
  6
CONTINUOUS
 10
476.1084267987
 20
204.670858883
  0
VERTEX
  8
0
 62
7
  6
CONTINUOUS
 10
475.8338297638
 20
208.0013023549
  0
VERTEX
  8
0
 62
7
  6
CONTINUOUS
 10
475.5218094381
 20
211.3253643522
  0
VERTEX
  8
0
 62
7
  6
CONTINUOUS
 10
475.1652226026
 20
214.6748320232
  0
VERTEX
  8
0
 62
7
  6
CONTINUOUS
 10
474.7762810169
 20
217.9486147453
  0
VERTEX
  8
0
 62
7
  6
CONTINUOUS
 10
474.3718922967
 20
221.0151430826
  0
VERTEX
  8
0
 62
7
  6
CONTINUOUS
 10
473.9363485068
 20
224.0062848029
  0
VERTEX
  8
0
 62
7
  6
CONTINUOUS
 10
473.4572359734
 20
227.018251375
  0
VERTEX
  8
0
 62
7
  6
CONTINUOUS
 10
472.9365294025
 20
230.0185379758
  0
VERTEX
  8
0
 62
7
  6
CONTINUOUS
 10
472.3728148867
 20
233.0066424662
  0
VERTEX
  8
0
 62
7
  6
CONTINUOUS
 10
471.7634333728
 20
235.9821246359
  0
VERTEX
  8
0
 62
7
  6
CONTINUOUS
 10
471.1003503125
 20
238.965763007
  0
VERTEX
  8
0
 62
7
  6
CONTINUOUS
 10
470.3976164142
 20
241.8923633079
  0
VERTEX
  8
0
 62
7
  6
CONTINUOUS
 10
469.6755757451
 20
244.67763071
  0
VERTEX
  8
0
 62
7
  6
CONTINUOUS
 10
468.9120359001
 20
247.4070364633
  0
VERTEX
  8
0
 62
7
  6
CONTINUOUS
 10
468.0891727035
 20
250.1425331059
  0
VERTEX
  8
0
 62
7
  6
CONTINUOUS
 10
467.2094648661
 20
252.8629307079
  0
VERTEX
  8
0
 62
7
  6
CONTINUOUS
 10
466.2700443194
 20
255.5686761872
  0
VERTEX
  8
0
 62
7
  6
CONTINUOUS
 10
465.2699915053
 20
258.2581642803
  0
VERTEX
  8
0
 62
7
  6
CONTINUOUS
 10
464.2011053234
 20
260.944819693
  0
VERTEX
  8
0
 62
7
  6
CONTINUOUS
 10
463.0830103667
 20
263.5850137178
  0
VERTEX
  8
0
 62
7
  6
CONTINUOUS
 10
461.9399295793
 20
266.126323536
  0
VERTEX
  8
0
 62
7
  6
CONTINUOUS
 10
460.7538626754
 20
268.6148103835
  0
VERTEX
  8
0
 62
7
  6
CONTINUOUS
 10
459.5123241317
 20
271.0813183588
  0
VERTEX
  8
0
 62
7
  6
CONTINUOUS
 10
458.2202409263
 20
273.5147692227
  0
VERTEX
  8
0
 62
7
  6
CONTINUOUS
 10
456.8785907043
 20
275.9138673425
  0
VERTEX
  8
0
 62
7
  6
CONTINUOUS
 10
455.4868317271
 20
278.2802589191
  0
VERTEX
  8
0
 62
7
  6
CONTINUOUS
 10
454.0456069874
 20
280.6137567352
  0
VERTEX
  8
0
 62
7
  6
CONTINUOUS
 10
452.5521375726
 20
282.9182486793
  0
VERTEX
  8
0
 62
7
  6
CONTINUOUS
 10
451.0029110502
 20
285.1987703706
  0
VERTEX
  8
0
 62
7
  6
CONTINUOUS
 10
449.400251356
 20
287.4508781121
  0
VERTEX
  8
0
 62
7
  6
CONTINUOUS
 10
447.7451480789
 20
289.6723724413
  0
VERTEX
  8
0
 62
7
  6
CONTINUOUS
 10
446.0383900584
 20
291.8620230549
  0
VERTEX
  8
0
 62
7
  6
CONTINUOUS
 10
444.2797733216
 20
294.0198831074
  0
VERTEX
  8
0
 62
7
  6
CONTINUOUS
 10
442.4732288904
 20
296.1398448476
  0
VERTEX
  8
0
 62
7
  6
CONTINUOUS
 10
440.628764377
 20
298.209842298
  0
VERTEX
  8
0
 62
7
  6
CONTINUOUS
 10
438.7276706772
 20
300.2473723065
  0
VERTEX
  8
0
 62
7
  6
CONTINUOUS
 10
436.7454887416
 20
302.2747029512
  0
VERTEX
  8
0
 62
7
  6
CONTINUOUS
 10
434.7076468677
 20
304.2625916402
  0
VERTEX
  8
0
 62
7
  6
CONTINUOUS
 10
432.6346824238
 20
306.1879897967
  0
VERTEX
  8
0
 62
7
  6
CONTINUOUS
 10
430.5193481261
 20
308.0585573758
  0
VERTEX
  8
0
 62
7
  6
CONTINUOUS
 10
428.3612398368
 20
309.8741029058
  0
VERTEX
  8
0
 62
7
  6
CONTINUOUS
 10
426.1601645627
 20
311.634817612
  0
VERTEX
  8
0
 62
7
  6
CONTINUOUS
 10
423.9305882928
 20
313.3308753487
  0
VERTEX
  8
0
 62
7
  6
CONTINUOUS
 10
421.6283910081
 20
314.9925453675
  0
VERTEX
  8
0
 62
7
  6
CONTINUOUS
 10
419.1940205025
 20
316.6588860694
  0
VERTEX
  8
0
 62
7
  6
CONTINUOUS
 10
416.6843038265
 20
318.2875441511
  0
VERTEX
  8
0
 62
7
  6
CONTINUOUS
 10
414.1419769759
 20
319.8479737791
  0
VERTEX
  8
0
 62
7
  6
CONTINUOUS
 10
411.5542963097
 20
321.3509095977
  0
VERTEX
  8
0
 62
7
  6
CONTINUOUS
 10
408.9193500523
 20
322.7983027355
  0
VERTEX
  8
0
 62
7
  6
CONTINUOUS
 10
406.2471892954
 20
324.1856616077
  0
VERTEX
  8
0
 62
7
  6
CONTINUOUS
 10
403.5720154109
 20
325.4984239106
  0
VERTEX
  8
0
 62
7
  6
CONTINUOUS
 10
400.819697106
 20
326.7691149872
  0
VERTEX
  8
0
 62
7
  6
CONTINUOUS
 10
397.8924398415
 20
328.0381477611
  0
VERTEX
  8
0
 62
7
  6
CONTINUOUS
 10
394.8893935715
 20
329.2578417732
  0
VERTEX
  8
0
 62
7
  6
CONTINUOUS
 10
391.8878915037
 20
330.3929197138
  0
VERTEX
  8
0
 62
7
  6
CONTINUOUS
 10
388.8620588031
 20
331.4567108411
  0
VERTEX
  8
0
 62
7
  6
CONTINUOUS
 10
385.8117887051
 20
332.4503210266
  0
VERTEX
  8
0
 62
7
  6
CONTINUOUS
 10
382.7369627548
 20
333.3749123346
  0
VERTEX
  8
0
 62
7
  6
CONTINUOUS
 10
379.6742798236
 20
334.2235068229
  0
VERTEX
  8
0
 62
7
  6
CONTINUOUS
 10
376.5137354024
 20
335.0224978515
  0
VERTEX
  8
0
 62
7
  6
CONTINUOUS
 10
373.1047815428
 20
335.8045239993
  0
VERTEX
  8
0
 62
7
  6
CONTINUOUS
 10
369.5976770646
 20
336.5312402016
  0
VERTEX
  8
0
 62
7
  6
CONTINUOUS
 10
366.1060743807
 20
337.1756190317
  0
VERTEX
  8
0
 62
7
  6
CONTINUOUS
 10
362.598585563
 20
337.7509660542
  0
VERTEX
  8
0
 62
7
  6
CONTINUOUS
 10
359.0822140216
 20
338.2600510607
  0
VERTEX
  8
0
 62
7
  6
CONTINUOUS
 10
355.5569104188
 20
338.7097582802
  0
VERTEX
  8
0
 62
7
  6
CONTINUOUS
 10
352.0623662045
 20
339.1029042298
  0
VERTEX
  8
0
 62
7
  6
CONTINUOUS
 10
348.4869682659
 20
339.4554100777
  0
VERTEX
  8
0
 62
7
  6
CONTINUOUS
 10
344.6812659178
 20
339.7845332915
  0
VERTEX
  8
0
 62
7
  6
CONTINUOUS
 10
340.7939963128
 20
340.0820898726
  0
VERTEX
  8
0
 62
7
  6
CONTINUOUS
 10
336.9379254802
 20
340.3447675163
  0
VERTEX
  8
0
 62
7
  6
CONTINUOUS
 10
333.0764922893
 20
340.5829971629
  0
VERTEX
  8
0
 62
7
  6
CONTINUOUS
 10
329.2098815867
 20
340.8042043949
  0
VERTEX
  8
0
 62
7
  6
CONTINUOUS
 10
325.339915845
 20
341.0129885631
  0
VERTEX
  8
0
 62
7
  6
CONTINUOUS
 10
321.5169693752
 20
341.2125443283
  0
VERTEX
  8
0
 62
7
  6
CONTINUOUS
 10
317.5930567142
 20
341.4105752742
  0
VERTEX
  8
0
 62
7
  6
CONTINUOUS
 10
313.368709603
 20
341.6197002824
  0
VERTEX
  8
0
 62
7
  6
CONTINUOUS
 10
309.0457141521
 20
341.8236153552
  0
VERTEX
  8
0
 62
7
  6
CONTINUOUS
 10
304.7755693473
 20
342.0106892722
  0
VERTEX
  8
0
 62
7
  6
CONTINUOUS
 10
300.5069750107
 20
342.1753071336
  0
VERTEX
  8
0
 62
7
  6
CONTINUOUS
 10
296.240447044
 20
342.3094623923
  0
VERTEX
  8
0
 62
7
  6
CONTINUOUS
 10
291.9731746753
 20
342.4104806809
  0
VERTEX
  8
0
 62
7
  6
CONTINUOUS
 10
287.7720693914
 20
342.4736915563
  0
VERTEX
  8
0
 62
7
  6
CONTINUOUS
 10
283.4330143759
 20
342.5041732502
  0
VERTEX
  8
0
 62
7
  6
CONTINUOUS
 10
278.6833836743
 20
342.5017685443
  0
VERTEX
  8
0
 62
7
  6
CONTINUOUS
 10
273.7931332703
 20
342.4736271686
  0
VERTEX
  8
0
 62
7
  6
CONTINUOUS
 10
268.9658425818
 20
342.4258416779
  0
VERTEX
  8
0
 62
7
  6
CONTINUOUS
 10
264.1340156146
 20
342.3708177866
  0
VERTEX
  8
0
 62
7
  6
CONTINUOUS
 10
259.297514564
 20
342.3207728564
  0
VERTEX
  8
0
 62
7
  6
CONTINUOUS
 10
254.4581461489
 20
342.2828369764
  0
VERTEX
  8
0
 62
7
  6
CONTINUOUS
 10
249.696410338
 20
342.2655630686
  0
VERTEX
  8
0
 62
7
  6
CONTINUOUS
 10
244.7734229064
 20
342.2727262135
  0
VERTEX
  8
0
 62
7
  6
CONTINUOUS
 10
239.3696223186
 20
342.3123023335
  0
VERTEX
  8
0
 62
7
  6
CONTINUOUS
 10
233.8089912736
 20
342.3825125629
  0
VERTEX
  8
0
 62
7
  6
CONTINUOUS
 10
228.3309450744
 20
342.4832782882
  0
VERTEX
  8
0
 62
7
  6
CONTINUOUS
 10
222.8588560908
 20
342.6006205269
  0
VERTEX
  8
0
 62
7
  6
CONTINUOUS
 10
217.3945929539
 20
342.7230789104
  0
VERTEX
  8
0
 62
7
  6
CONTINUOUS
 10
211.9360982875
 20
342.833653196
  0
VERTEX
  8
0
 62
7
  6
CONTINUOUS
 10
206.4835349402
 20
342.9117012392
  0
VERTEX
  8
0
 62
7
  6
CONTINUOUS
 10
201.0327079773
 20
342.9576229487
  0
SEQEND
  0
POLYLINE
  8
0
 62
7
  6
CONTINUOUS
 66
1
 70
0
  0
VERTEX
  8
0
 62
7
  6
CONTINUOUS
 10
477.4923474089
 20
161.680636611
  0
VERTEX
  8
0
 62
7
  6
CONTINUOUS
 10
477.5098947431
 20
158.3532479104
  0
VERTEX
  8
0
 62
7
  6
CONTINUOUS
 10
477.5188840718
 20
155.0258171076
  0
VERTEX
  8
0
 62
7
  6
CONTINUOUS
 10
477.5214138192
 20
151.698381461
  0
VERTEX
  8
0
 62
7
  6
CONTINUOUS
 10
477.5188840593
 20
148.3709459356
  0
VERTEX
  8
0
 62
7
  6
CONTINUOUS
 10
477.5098947267
 20
145.0435163271
  0
VERTEX
  8
0
 62
7
  6
CONTINUOUS
 10
477.4923474089
 20
141.7161311402
  0
SEQEND
  0
POLYLINE
  8
0
 62
7
  6
CONTINUOUS
 66
1
 70
0
  0
VERTEX
  8
0
 62
7
  6
CONTINUOUS
 10
480.1216232611
 20
141.698383875
  0
VERTEX
  8
0
 62
7
  6
CONTINUOUS
 10
480.1356811131
 20
145.0126479912
  0
VERTEX
  8
0
 62
7
  6
CONTINUOUS
 10
480.1441152047
 20
148.3422159319
  0
VERTEX
  8
0
 62
7
  6
CONTINUOUS
 10
480.1469249552
 20
151.6942840763
  0
VERTEX
  8
0
 62
7
  6
CONTINUOUS
 10
480.144112107
 20
155.047263287
  0
VERTEX
  8
0
 62
7
  6
CONTINUOUS
 10
480.1356784026
 20
158.3795644269
  0
VERTEX
  8
0
 62
7
  6
CONTINUOUS
 10
480.1216232611
 20
161.698383875
  0
SEQEND
  0
POLYLINE
  8
0
 62
7
  6
CONTINUOUS
 66
1
 70
0
  0
VERTEX
  8
0
 62
7
  6
CONTINUOUS
 10
485.0918815801
 20
161.6984892838
  0
VERTEX
  8
0
 62
7
  6
CONTINUOUS
 10
485.1811707107
 20
178.6837786533
  0
VERTEX
  8
0
 62
7
  6
CONTINUOUS
 10
484.8761520088
 20
195.4642397198
  0
VERTEX
  8
0
 62
7
  6
CONTINUOUS
 10
484.222839513
 20
210.6571132024
  0
VERTEX
  8
0
 62
7
  6
CONTINUOUS
 10
482.9568338616
 20
224.5264798662
  0
VERTEX
  8
0
 62
7
  6
CONTINUOUS
 10
480.9035960961
 20
237.1358194633
  0
VERTEX
  8
0
 62
7
  6
CONTINUOUS
 10
478.0727562498
 20
248.7853230186
  0
VERTEX
  8
0
 62
7
  6
CONTINUOUS
 10
474.4110496033
 20
259.7418727418
  0
VERTEX
  8
0
 62
7
  6
CONTINUOUS
 10
469.8652776888
 20
270.1379641376
  0
VERTEX
  8
0
 62
7
  6
CONTINUOUS
 10
464.3180644749
 20
280.4474475893
  0
VERTEX
  8
0
 62
7
  6
CONTINUOUS
 10
457.957243396
 20
290.2466301722
  0
VERTEX
  8
0
 62
7
  6
CONTINUOUS
 10
450.9345533084
 20
299.2323917154
  0
VERTEX
  8
0
 62
7
  6
CONTINUOUS
 10
443.1430715811
 20
307.647950043
  0
VERTEX
  8
0
 62
7
  6
CONTINUOUS
 10
434.4299957749
 20
315.5679369844
  0
VERTEX
  8
0
 62
7
  6
CONTINUOUS
 10
424.9765148786
 20
322.7956262791
  0
VERTEX
  8
0
 62
7
  6
CONTINUOUS
 10
414.6834637183
 20
329.3919820284
  0
VERTEX
  8
0
 62
7
  6
CONTINUOUS
 10
404.0049655795
 20
335.1570455988
  0
VERTEX
  8
0
 62
7
  6
CONTINUOUS
 10
393.5534429533
 20
339.7743833719
  0
VERTEX
  8
0
 62
7
  6
CONTINUOUS
 10
382.7817245215
 20
343.42901514
  0
VERTEX
  8
0
 62
7
  6
CONTINUOUS
 10
371.440041847
 20
346.1662883925
  0
VERTEX
  8
0
 62
7
  6
CONTINUOUS
 10
359.2492614418
 20
348.1061072049
  0
VERTEX
  8
0
 62
7
  6
CONTINUOUS
 10
345.7738836788
 20
349.3128570766
  0
VERTEX
  8
0
 62
7
  6
CONTINUOUS
 10
331.0511411917
 20
349.7987655512
  0
VERTEX
  8
0
 62
7
  6
CONTINUOUS
 10
315.1107653674
 20
350.084888707
  0
VERTEX
  8
0
 62
7
  6
CONTINUOUS
 10
297.3621019234
 20
350.3807011524
  0
VERTEX
  8
0
 62
7
  6
CONTINUOUS
 10
277.7492598114
 20
350.4500968359
  0
VERTEX
  8
0
 62
7
  6
CONTINUOUS
 10
255.416262828
 20
350.4325628229
  0
VERTEX
  8
0
 62
7
  6
CONTINUOUS
 10
229.3906628116
 20
350.7150515996
  0
VERTEX
  8
0
 62
7
  6
CONTINUOUS
 10
201.0326246129
 20
350.7944082523
  0
SEQEND
  0
POLYLINE
  8
0
 62
7
  6
CONTINUOUS
 66
1
 70
0
  0
VERTEX
  8
0
 62
7
  6
CONTINUOUS
 10
480.1218100284
 20
141.698383875
  0
VERTEX
  8
0
 62
7
  6
CONTINUOUS
 10
479.982377905
 20
126.4913805192
  0
VERTEX
  8
0
 62
7
  6
CONTINUOUS
 10
479.4739827269
 20
112.029275913
  0
VERTEX
  8
0
 62
7
  6
CONTINUOUS
 10
478.6493746274
 20
98.3498420004
  0
VERTEX
  8
0
 62
7
  6
CONTINUOUS
 10
477.3503032064
 20
85.3397629493
  0
VERTEX
  8
0
 62
7
  6
CONTINUOUS
 10
475.4584049437
 20
72.8877322217
  0
VERTEX
  8
0
 62
7
  6
CONTINUOUS
 10
472.9067693339
 20
61.0254938792
  0
VERTEX
  8
0
 62
7
  6
CONTINUOUS
 10
469.5957567836
 20
49.7489008646
  0
VERTEX
  8
0
 62
7
  6
CONTINUOUS
 10
465.5051910375
 20
39.0543199966
  0
VERTEX
  8
0
 62
7
  6
CONTINUOUS
 10
460.5760632551
 20
28.950566419
  0
VERTEX
  8
0
 62
7
  6
CONTINUOUS
 10
454.8252315983
 20
19.3961480991
  0
VERTEX
  8
0
 62
7
  6
CONTINUOUS
 10
448.2632108385
 20
10.3272900074
  0
VERTEX
  8
0
 62
7
  6
CONTINUOUS
 10
440.8500223067
 20
1.8196562784
  0
VERTEX
  8
0
 62
7
  6
CONTINUOUS
 10
432.5494151598
 20
-6.1102938255
  0
VERTEX
  8
0
 62
7
  6
CONTINUOUS
 10
423.3607206916
 20
-13.348720718
  0
VERTEX
  8
0
 62
7
  6
CONTINUOUS
 10
413.2769231189
 20
-19.7847246064
  0
VERTEX
  8
0
 62
7
  6
CONTINUOUS
 10
402.2808128301
 20
-25.3930268479
  0
VERTEX
  8
0
 62
7
  6
CONTINUOUS
 10
390.3259539393
 20
-30.1340978742
  0
VERTEX
  8
0
 62
7
  6
CONTINUOUS
 10
377.493009486
 20
-33.9397906696
  0
VERTEX
  8
0
 62
7
  6
CONTINUOUS
 10
363.8375592657
 20
-36.6305187895
  0
VERTEX
  8
0
 62
7
  6
CONTINUOUS
 10
349.3884171245
 20
-38.5010709511
  0
VERTEX
  8
0
 62
7
  6
CONTINUOUS
 10
334.2164838572
 20
-39.7106633195
  0
VERTEX
  8
0
 62
7
  6
CONTINUOUS
 10
318.2510784126
 20
-40.4864271059
  0
VERTEX
  8
0
 62
7
  6
CONTINUOUS
 10
301.507771534
 20
-41.1590798628
  0
VERTEX
  8
0
 62
7
  6
CONTINUOUS
 10
283.7987086324
 20
-41.5770787323
  0
VERTEX
  8
0
 62
7
  6
CONTINUOUS
 10
264.9576556582
 20
-41.5781559946
  0
VERTEX
  8
0
 62
7
  6
CONTINUOUS
 10
244.9353217374
 20
-41.5252037881
  0
VERTEX
  8
0
 62
7
  6
CONTINUOUS
 10
223.6139168681
 20
-41.7656253738
  0
VERTEX
  8
0
 62
7
  6
CONTINUOUS
 10
201.0327043842
 20
-42.1836196646
  0
SEQEND
  0
POLYLINE
  8
0
 62
7
  6
CONTINUOUS
 66
1
 70
0
  0
VERTEX
  8
0
 62
7
  6
CONTINUOUS
 10
482.0914525672
 20
161.698383875
  0
VERTEX
  8
0
 62
7
  6
CONTINUOUS
 10
482.0565155895
 20
158.362080906
  0
VERTEX
  8
0
 62
7
  6
CONTINUOUS
 10
482.0355546864
 20
155.0279422369
  0
VERTEX
  8
0
 62
7
  6
CONTINUOUS
 10
482.0285710614
 20
151.6968832855
  0
VERTEX
  8
0
 62
7
  6
CONTINUOUS
 10
482.0355611044
 20
148.3661577983
  0
VERTEX
  8
0
 62
7
  6
CONTINUOUS
 10
482.0565212052
 20
145.0330195223
  0
VERTEX
  8
0
 62
7
  6
CONTINUOUS
 10
482.0914525672
 20
141.698383875
  0
SEQEND
  0
POLYLINE
  8
0
 62
7
  6
CONTINUOUS
 66
1
 70
0
  0
VERTEX
  8
0
 62
7
  6
CONTINUOUS
 10
482.0918686781
 20
161.698383875
  0
VERTEX
  8
0
 62
7
  6
CONTINUOUS
 10
482.1805120128
 20
169.1859643184
  0
VERTEX
  8
0
 62
7
  6
CONTINUOUS
 10
482.1912168492
 20
176.6634768031
  0
VERTEX
  8
0
 62
7
  6
CONTINUOUS
 10
482.1200101314
 20
184.2173200212
  0
VERTEX
  8
0
 62
7
  6
CONTINUOUS
 10
481.9788110272
 20
191.5882978966
  0
VERTEX
  8
0
 62
7
  6
CONTINUOUS
 10
481.7927000643
 20
198.4322958091
  0
VERTEX
  8
0
 62
7
  6
CONTINUOUS
 10
481.5182201071
 20
205.0904680833
  0
VERTEX
  8
0
 62
7
  6
CONTINUOUS
 10
481.128384949
 20
211.8880327349
  0
VERTEX
  8
0
 62
7
  6
CONTINUOUS
 10
480.5988623296
 20
218.5286840706
  0
VERTEX
  8
0
 62
7
  6
CONTINUOUS
 10
479.9071655938
 20
224.7357850069
  0
VERTEX
  8
0
 62
7
  6
CONTINUOUS
 10
479.020771719
 20
230.7755477293
  0
VERTEX
  8
0
 62
7
  6
CONTINUOUS
 10
477.8887212427
 20
236.8889242606
  0
VERTEX
  8
0
 62
7
  6
CONTINUOUS
 10
476.543836829
 20
242.875058005
  0
VERTEX
  8
0
 62
7
  6
CONTINUOUS
 10
475.0186172461
 20
248.5615739138
  0
VERTEX
  8
0
 62
7
  6
CONTINUOUS
 10
473.263074718
 20
254.1039793684
  0
VERTEX
  8
0
 62
7
  6
CONTINUOUS
 10
471.2164540241
 20
259.6448685705
  0
VERTEX
  8
0
 62
7
  6
CONTINUOUS
 10
468.9435562658
 20
265.0506060099
  0
VERTEX
  8
0
 62
7
  6
CONTINUOUS
 10
466.4937846792
 20
270.2023767087
  0
VERTEX
  8
0
 62
7
  6
CONTINUOUS
 10
463.8525776406
 20
275.1983132726
  0
VERTEX
  8
0
 62
7
  6
CONTINUOUS
 10
461.0245532029
 20
280.113145105
  0
VERTEX
  8
0
 62
7
  6
CONTINUOUS
 10
458.0015755724
 20
284.8982668358
  0
VERTEX
  8
0
 62
7
  6
CONTINUOUS
 10
454.772701723
 20
289.5273574831
  0
VERTEX
  8
0
 62
7
  6
CONTINUOUS
 10
451.3509714047
 20
294.0082932857
  0
VERTEX
  8
0
 62
7
  6
CONTINUOUS
 10
447.7634556047
 20
298.3274379431
  0
VERTEX
  8
0
 62
7
  6
CONTINUOUS
 10
443.9571175858
 20
302.5230080912
  0
VERTEX
  8
0
 62
7
  6
CONTINUOUS
 10
439.8616925998
 20
306.6553271325
  0
VERTEX
  8
0
 62
7
  6
CONTINUOUS
 10
435.5559356681
 20
310.644438466
  0
VERTEX
  8
0
 62
7
  6
CONTINUOUS
 10
431.1255248656
 20
314.407351435
  0
VERTEX
  8
0
 62
7
  6
CONTINUOUS
 10
426.4794262843
 20
318.0134916093
  0
VERTEX
  8
0
 62
7
  6
CONTINUOUS
 10
421.5145598435
 20
321.5289912834
  0
VERTEX
  8
0
 62
7
  6
CONTINUOUS
 10
416.3527421357
 20
324.8807396264
  0
VERTEX
  8
0
 62
7
  6
CONTINUOUS
 10
411.1474010664
 20
327.9912845706
  0
VERTEX
  8
0
 62
7
  6
CONTINUOUS
 10
405.7006226163
 20
330.9397821209
  0
VERTEX
  8
0
 62
7
  6
CONTINUOUS
 10
399.7915751338
 20
333.8359665146
  0
VERTEX
  8
0
 62
7
  6
CONTINUOUS
 10
393.6424394207
 20
336.510650987
  0
VERTEX
  8
0
 62
7
  6
CONTINUOUS
 10
387.4936425361
 20
338.8042672841
  0
VERTEX
  8
0
 62
7
  6
CONTINUOUS
 10
381.0696140558
 20
340.7976941115
  0
VERTEX
  8
0
 62
7
  6
CONTINUOUS
 10
374.0596398105
 20
342.534161027
  0
VERTEX
  8
0
 62
7
  6
CONTINUOUS
 10
366.8095780946
 20
343.9670472206
  0
VERTEX
  8
0
 62
7
  6
CONTINUOUS
 10
359.6663726416
 20
345.0401908697
  0
VERTEX
  8
0
 62
7
  6
CONTINUOUS
 10
352.3160529648
 20
345.8254445709
  0
VERTEX
  8
0
 62
7
  6
CONTINUOUS
 10
344.4479291598
 20
346.3569065772
  0
VERTEX
  8
0
 62
7
  6
CONTINUOUS
 10
336.3991032139
 20
346.6916780969
  0
VERTEX
  8
0
 62
7
  6
CONTINUOUS
 10
328.5310148232
 20
346.8668869819
  0
VERTEX
  8
0
 62
7
  6
CONTINUOUS
 10
320.4599609575
 20
346.9765515546
  0
VERTEX
  8
0
 62
7
  6
CONTINUOUS
 10
311.7898782999
 20
347.1581726214
  0
VERTEX
  8
0
 62
7
  6
CONTINUOUS
 10
302.9192874061
 20
347.3184305817
  0
VERTEX
  8
0
 62
7
  6
CONTINUOUS
 10
294.2884055299
 20
347.395880658
  0
VERTEX
  8
0
 62
7
  6
CONTINUOUS
 10
285.3760792599
 20
347.4323991864
  0
VERTEX
  8
0
 62
7
  6
CONTINUOUS
 10
275.6205251815
 20
347.4448225215
  0
VERTEX
  8
0
 62
7
  6
CONTINUOUS
 10
265.5838505573
 20
347.4468258305
  0
VERTEX
  8
0
 62
7
  6
CONTINUOUS
 10
255.8488358396
 20
347.4432029018
  0
VERTEX
  8
0
 62
7
  6
CONTINUOUS
 10
245.791678045
 20
347.4774342275
  0
VERTEX
  8
0
 62
7
  6
CONTINUOUS
 10
234.769330625
 20
347.6379983287
  0
VERTEX
  8
0
 62
7
  6
CONTINUOUS
 10
223.4223047264
 20
347.7946949068
  0
VERTEX
  8
0
 62
7
  6
CONTINUOUS
 10
212.2300329332
 20
347.8342280713
  0
VERTEX
  8
0
 62
7
  6
CONTINUOUS
 10
201.0327043842
 20
347.7943631192
  0
SEQEND
  0
CIRCLE
  8
0
 62
7
  6
CONTINUOUS
 10
186.0327043842
 20
151.698383875
 40
23.9644660941
  0
CIRCLE
  8
0
 62
7
  6
CONTINUOUS
 10
186.0327043842
 20
151.698383875
 40
22.5
  0
ENDSEC
  0
EOF
