999
DXF file: K:\Client\125_Heirloom\001\00\Final_Data\Drawings\BASINS\loft-361110_2.dxf
999
Pro/ENGINEER 2017110 by Parametric Technology Corporation
  0
SECTION
  2
HEADER
  9
$EXTMAX
 10
420.0
 20
297.0
 30
0.0
  9
$EXTMIN
 10
0.0
 20
0.0
 30
0.0
  9
$LIMMIN
 10
0.0
 20
0.0
  9
$LIMMAX
 10
420.0
 20
297.0
  9
$VIEWCTR
 10
210.0
 20
148.5
  9
$VIEWSIZE
 40
297.0
  9
$CLAYER
  8
0
  9
$LTSCALE
 40
23.1
  9
$CELTYPE
  6
BYLAYER
  9
$DIMSCALE
 40
1.0
  9
$DIMASZ
 40
3.0
  9
$DIMEXO
 40
1.0
  9
$DIMDLI
 40
15.96
  9
$DIMEXE
 40
1.0
  9
$DIMCEN
 40
3.78
  9
$DIMLFAC
 40
1.0
  9
$DIMBLK
  1
_FILLED
  9
$DIMALT
 70
0
  9
$DIMALTF
 40
0.0393700787
  9
$DIMTXT
 40
3.0
  9
$AUNITS
 70
0
  9
$PDMODE
 70
3
  9
$PDSIZE
 40
5.0
  9
$TILEMODE
 70
1
  0
ENDSEC
  0
SECTION
  2
TABLES
  0
TABLE
  2
LTYPE
 70
6
  0
LTYPE
  2
BYBLOCK
 70
0
  3

 72
65
 73
0
 40
0.0
  0
LTYPE
  2
BYLAYER
 70
0
  3

 72
65
 73
0
 40
0.0
  0
LTYPE
  2
CONTINUOUS
 70
64
  3
Solid line
 72
65
 73
0
 40
0.0
  0
LTYPE
  2
CENTER
 70
64
  3
____ _ ____ _ ____ _ ____ _ ____ _ ____ _ ____
 72
65
 73
4
 40
0.6
 49
0.375
 49
-0.075
 49
0.075
 49
-0.075
  0
LTYPE
  2
HIDDEN
 70
64
  3
- - - - - - - - - - - - - - - - - - - -
 72
65
 73
2
 40
0.2
 49
0.1
 49
-0.1
  0
LTYPE
  2
PHANTOM
 70
64
  3
_____ _ _ _____ _ _ _____ _ _ _____
 72
65
 73
6
 40
0.8
 49
0.45
 49
-0.05
 49
0.1
 49
-0.05
 49
0.1
 49
-0.05
  0
LTYPE
  2
DOT
 70
64
  3
. . . . . . . . . . . . . . . . . . . .
 72
65
 73
2
 40
0.2
 49
0.1
 49
-0.1
  0
LTYPE
  2
DASHED
 70
64
  3
- - - - - - - - - - - - - - - - - - - -
 72
65
 73
2
 40
0.2
 49
0.1
 49
-0.1
  0
ENDTAB
  0
TABLE
  2
LAYER
 70
36
  0
LAYER
  2
0
 70
0
 62
7
  6
CONTINUOUS
  0
LAYER
  2
DEFAULT_1
 70
0
 62
7
  6
CENTER
  0
LAYER
  2
DEFAULT_2
 70
0
 62
8
  6
HIDDEN
  0
LAYER
  2
DEFAULT_3
 70
0
 62
7
  6
PHANTOM
  0
LAYER
  2
0000_BOM
 70
0
 62
7
  6
CONTINUOUS
  0
LAYER
  2
0000_REV_TABLE
 70
0
 62
7
  6
CONTINUOUS
  0
LAYER
  2
0000_STEVENS_NOTE
 70
0
 62
7
  6
CONTINUOUS
  0
LAYER
  2
01_DATUM_PLANES
 70
0
 62
7
  6
CONTINUOUS
  0
LAYER
  2
01_DEF_PLANES
 70
0
 62
7
  6
CONTINUOUS
  0
LAYER
  2
02_DATUM_COS
 70
0
 62
7
  6
CONTINUOUS
  0
LAYER
  2
90_IMP_FEAT
 70
0
 62
7
  6
CONTINUOUS
  0
LAYER
  2
95_STL
 70
0
 62
7
  6
CONTINUOUS
  0
LAYER
  2
99_SOLID
 70
0
 62
7
  6
CONTINUOUS
  0
LAYER
  2
CAD-MASTER_ZINC-PL
 70
0
 62
7
  6
CONTINUOUS
  0
LAYER
  2
CURVE
 70
0
 62
7
  6
CONTINUOUS
  0
LAYER
  2
SKEL
 70
0
 62
7
  6
CONTINUOUS
  0
LAYER
  2
SKETCH
 70
0
 62
7
  6
CONTINUOUS
  0
LAYER
  2
SURFACE
 70
0
 62
7
  6
CONTINUOUS
  0
ENDTAB
  0
TABLE
  2
STYLE
 70
1
  0
STYLE
  2
STANDARD
 70
0
 40
0.0
 41
0.75
 50
0.0
 71
0
 42
0.2
  3
txt
  4

  0
STYLE
  2
TEXTSTYLE_1
 70
0
 40
0.0
 41
0.8
 50
0.0
 71
0
 42
0.2
  3
gdt
  4

  0
ENDTAB
  0
ENDSEC
  0
SECTION
  2
BLOCKS
  0
ENDSEC
  0
SECTION
  2
ENTITIES
  0
POLYLINE
  8
0
 62
7
  6
CONTINUOUS
 66
1
 70
0
  0
VERTEX
  8
0
 62
7
  6
CONTINUOUS
 10
1.8192277493
 20
281.2498565523
  0
VERTEX
  8
0
 62
7
  6
CONTINUOUS
 10
1.9743994518
 20
281.7370373838
  0
VERTEX
  8
0
 62
7
  6
CONTINUOUS
 10
2.2138379957
 20
282.1967420685
  0
VERTEX
  8
0
 62
7
  6
CONTINUOUS
 10
2.5254361094
 20
282.6046227515
  0
VERTEX
  8
0
 62
7
  6
CONTINUOUS
 10
2.9019710675
 20
282.9533706548
  0
VERTEX
  8
0
 62
7
  6
CONTINUOUS
 10
3.3368006219
 20
283.2351413336
  0
VERTEX
  8
0
 62
7
  6
CONTINUOUS
 10
3.8068065379
 20
283.4356394811
  0
SEQEND
  0
LINE
  8
0
 62
7
  6
CONTINUOUS
 10
1.8191961599
 20
281.2497172528
 11
1.8191961599
 21
278.6849996865
  0
LINE
  8
0
 62
7
  6
CONTINUOUS
 10
2.0296490653
 20
278.5679261685
 11
2.0296490653
 21
280.4775360743
  0
POLYLINE
  8
0
 62
7
  6
CONTINUOUS
 66
1
 70
0
  0
VERTEX
  8
0
 62
7
  6
CONTINUOUS
 10
1.8204937859
 20
278.551550599
  0
VERTEX
  8
0
 62
7
  6
CONTINUOUS
 10
1.9262477583
 20
277.5558172834
  0
VERTEX
  8
0
 62
7
  6
CONTINUOUS
 10
2.1935723943
 20
276.5983572068
  0
VERTEX
  8
0
 62
7
  6
CONTINUOUS
 10
2.615300932
 20
275.6981745313
  0
VERTEX
  8
0
 62
7
  6
CONTINUOUS
 10
3.2212613018
 20
274.8300567275
  0
SEQEND
  0
POLYLINE
  8
0
 62
7
  6
CONTINUOUS
 66
1
 70
0
  0
VERTEX
  8
0
 62
7
  6
CONTINUOUS
 10
2.0296815817
 20
278.5679261685
  0
VERTEX
  8
0
 62
7
  6
CONTINUOUS
 10
2.0693550622
 20
277.8729157606
  0
VERTEX
  8
0
 62
7
  6
CONTINUOUS
 10
2.1894277904
 20
277.1865022854
  0
VERTEX
  8
0
 62
7
  6
CONTINUOUS
 10
2.388419582
 20
276.5183532296
  0
VERTEX
  8
0
 62
7
  6
CONTINUOUS
 10
2.6642811654
 20
275.8765347658
  0
VERTEX
  8
0
 62
7
  6
CONTINUOUS
 10
3.0143761423
 20
275.2690321307
  0
VERTEX
  8
0
 62
7
  6
CONTINUOUS
 10
3.4344792861
 20
274.7049086191
  0
SEQEND
  0
POLYLINE
  8
0
 62
7
  6
CONTINUOUS
 66
1
 70
0
  0
VERTEX
  8
0
 62
7
  6
CONTINUOUS
 10
2.0361666098
 20
278.5642999374
  0
VERTEX
  8
0
 62
7
  6
CONTINUOUS
 10
2.075838798
 20
277.8692123179
  0
VERTEX
  8
0
 62
7
  6
CONTINUOUS
 10
2.1959136035
 20
277.182782264
  0
VERTEX
  8
0
 62
7
  6
CONTINUOUS
 10
2.3948856985
 20
276.5146876192
  0
VERTEX
  8
0
 62
7
  6
CONTINUOUS
 10
2.6707008917
 20
275.8729477974
  0
VERTEX
  8
0
 62
7
  6
CONTINUOUS
 10
3.0207371949
 20
275.2655056006
  0
VERTEX
  8
0
 62
7
  6
CONTINUOUS
 10
3.4407652198
 20
274.7014343007
  0
SEQEND
  0
POLYLINE
  8
0
 62
7
  6
CONTINUOUS
 66
1
 70
0
  0
VERTEX
  8
0
 62
7
  6
CONTINUOUS
 10
1.8191961599
 20
281.2498554617
  0
VERTEX
  8
0
 62
7
  6
CONTINUOUS
 10
1.8251006422
 20
281.119191305
  0
VERTEX
  8
0
 62
7
  6
CONTINUOUS
 10
1.8427675253
 20
280.9893043889
  0
VERTEX
  8
0
 62
7
  6
CONTINUOUS
 10
1.8721266386
 20
280.8601956509
  0
VERTEX
  8
0
 62
7
  6
CONTINUOUS
 10
1.9131073654
 20
280.7318648105
  0
VERTEX
  8
0
 62
7
  6
CONTINUOUS
 10
1.9656386551
 20
280.6043115871
  0
VERTEX
  8
0
 62
7
  6
CONTINUOUS
 10
2.0296490653
 20
280.4775360743
  0
SEQEND
  0
LINE
  8
0
 62
7
  6
CONTINUOUS
 10
1.819004532
 20
278.6850050214
 11
1.8204937859
 21
278.551550599
  0
LINE
  8
0
 62
7
  6
CONTINUOUS
 10
16.3393197865
 20
278.2107306161
 11
16.3393197865
 21
279.9238851765
  0
POLYLINE
  8
0
 62
7
  6
CONTINUOUS
 66
1
 70
0
  0
VERTEX
  8
0
 62
7
  6
CONTINUOUS
 10
16.3393197095
 20
279.9239188498
  0
VERTEX
  8
0
 62
7
  6
CONTINUOUS
 10
16.3910961844
 20
280.4972352191
  0
VERTEX
  8
0
 62
7
  6
CONTINUOUS
 10
16.5503530646
 20
281.0577183051
  0
VERTEX
  8
0
 62
7
  6
CONTINUOUS
 10
16.8041591868
 20
281.5640891919
  0
VERTEX
  8
0
 62
7
  6
CONTINUOUS
 10
17.1472867733
 20
282.0125733726
  0
VERTEX
  8
0
 62
7
  6
CONTINUOUS
 10
17.5763874405
 20
282.391845885
  0
VERTEX
  8
0
 62
7
  6
CONTINUOUS
 10
18.0797170862
 20
282.6817578619
  0
VERTEX
  8
0
 62
7
  6
CONTINUOUS
 10
18.6467747502
 20
282.8653175848
  0
VERTEX
  8
0
 62
7
  6
CONTINUOUS
 10
19.1315357225
 20
282.9225997636
  0
SEQEND
  0
POLYLINE
  8
0
 62
7
  6
CONTINUOUS
 66
1
 70
0
  0
VERTEX
  8
0
 62
7
  6
CONTINUOUS
 10
16.3393224142
 20
278.2105899206
  0
VERTEX
  8
0
 62
7
  6
CONTINUOUS
 10
16.4003671755
 20
277.4489050879
  0
VERTEX
  8
0
 62
7
  6
CONTINUOUS
 10
16.5560003429
 20
276.6923502166
  0
VERTEX
  8
0
 62
7
  6
CONTINUOUS
 10
16.8025092291
 20
275.9634022029
  0
VERTEX
  8
0
 62
7
  6
CONTINUOUS
 10
17.1372628525
 20
275.2695669337
  0
VERTEX
  8
0
 62
7
  6
CONTINUOUS
 10
17.5582068529
 20
274.618936407
  0
VERTEX
  8
0
 62
7
  6
CONTINUOUS
 10
18.0531976563
 20
274.0313939149
  0
SEQEND
  0
POLYLINE
  8
0
 62
7
  6
CONTINUOUS
 66
1
 70
0
  0
VERTEX
  8
0
 62
7
  6
CONTINUOUS
 10
25.910364734
 20
278.947188784
  0
VERTEX
  8
0
 62
7
  6
CONTINUOUS
 10
25.9556671878
 20
278.1618772075
  0
VERTEX
  8
0
 62
7
  6
CONTINUOUS
 10
26.0924699154
 20
277.3822106571
  0
VERTEX
  8
0
 62
7
  6
CONTINUOUS
 10
26.3173759067
 20
276.6327508353
  0
VERTEX
  8
0
 62
7
  6
CONTINUOUS
 10
26.6278399683
 20
275.9216100139
  0
VERTEX
  8
0
 62
7
  6
CONTINUOUS
 10
27.0219329528
 20
275.2575859027
  0
VERTEX
  8
0
 62
7
  6
CONTINUOUS
 10
27.4876135319
 20
274.6622386473
  0
SEQEND
  0
POLYLINE
  8
0
 62
7
  6
CONTINUOUS
 66
1
 70
0
  0
VERTEX
  8
0
 62
7
  6
CONTINUOUS
 10
111.3493436777
 20
282.407940632
  0
VERTEX
  8
0
 62
7
  6
CONTINUOUS
 10
111.3127404101
 20
282.3932750485
  0
VERTEX
  8
0
 62
7
  6
CONTINUOUS
 10
111.2495773621
 20
282.2985617992
  0
VERTEX
  8
0
 62
7
  6
CONTINUOUS
 10
111.1923256739
 20
282.1214679599
  0
VERTEX
  8
0
 62
7
  6
CONTINUOUS
 10
111.1419989574
 20
281.8677149977
  0
VERTEX
  8
0
 62
7
  6
CONTINUOUS
 10
111.0996989647
 20
281.5433263768
  0
VERTEX
  8
0
 62
7
  6
CONTINUOUS
 10
111.066754764
 20
281.158346481
  0
VERTEX
  8
0
 62
7
  6
CONTINUOUS
 10
111.0440615743
 20
280.7235526025
  0
VERTEX
  8
0
 62
7
  6
CONTINUOUS
 10
111.0322546248
 20
280.2508020823
  0
VERTEX
  8
0
 62
7
  6
CONTINUOUS
 10
111.031685157
 20
279.7551947298
  0
VERTEX
  8
0
 62
7
  6
CONTINUOUS
 10
111.0424346302
 20
279.2464592506
  0
VERTEX
  8
0
 62
7
  6
CONTINUOUS
 10
111.064701749
 20
278.7338829
  0
VERTEX
  8
0
 62
7
  6
CONTINUOUS
 10
111.0971753307
 20
278.2484333977
  0
SEQEND
  0
LINE
  8
0
 62
7
  6
CONTINUOUS
 10
126.7415565706
 20
18.0278740497
 11
128.252278034
 21
18.0278740497
  0
LINE
  8
0
 62
7
  6
CONTINUOUS
 10
128.2586118127
 20
18.0278740497
 11
354.5949166689
 21
18.0278740497
  0
POLYLINE
  8
0
 62
7
  6
CONTINUOUS
 66
1
 70
0
  0
VERTEX
  8
0
 62
7
  6
CONTINUOUS
 10
78.4873059337
 20
279.196098511
  0
VERTEX
  8
0
 62
7
  6
CONTINUOUS
 10
78.5095582138
 20
279.6807163698
  0
VERTEX
  8
0
 62
7
  6
CONTINUOUS
 10
78.5638897316
 20
280.152779869
  0
VERTEX
  8
0
 62
7
  6
CONTINUOUS
 10
78.6457229913
 20
280.5860166554
  0
VERTEX
  8
0
 62
7
  6
CONTINUOUS
 10
78.7536741171
 20
280.9831005613
  0
VERTEX
  8
0
 62
7
  6
CONTINUOUS
 10
78.8883620037
 20
281.3432630038
  0
VERTEX
  8
0
 62
7
  6
CONTINUOUS
 10
79.0468314787
 20
281.6528516426
  0
VERTEX
  8
0
 62
7
  6
CONTINUOUS
 10
79.2259299159
 20
281.9013557443
  0
VERTEX
  8
0
 62
7
  6
CONTINUOUS
 10
79.4215158288
 20
282.0789755425
  0
VERTEX
  8
0
 62
7
  6
CONTINUOUS
 10
79.6294013759
 20
282.1776197518
  0
VERTEX
  8
0
 62
7
  6
CONTINUOUS
 10
79.7738635257
 20
282.1957741833
  0
SEQEND
  0
POLYLINE
  8
0
 62
7
  6
CONTINUOUS
 66
1
 70
0
  0
VERTEX
  8
0
 62
7
  6
CONTINUOUS
 10
261.0054796282
 20
285.3384772391
  0
VERTEX
  8
0
 62
7
  6
CONTINUOUS
 10
261.0272338863
 20
285.3450638921
  0
VERTEX
  8
0
 62
7
  6
CONTINUOUS
 10
260.9662964213
 20
285.3294101516
  0
VERTEX
  8
0
 62
7
  6
CONTINUOUS
 10
260.8399483645
 20
285.3005232251
  0
SEQEND
  0
POLYLINE
  8
0
 62
7
  6
CONTINUOUS
 66
1
 70
0
  0
VERTEX
  8
0
 62
7
  6
CONTINUOUS
 10
122.6498943685
 20
79.1223284288
  0
VERTEX
  8
0
 62
7
  6
CONTINUOUS
 10
121.2532706174
 20
96.3033994261
  0
VERTEX
  8
0
 62
7
  6
CONTINUOUS
 10
120.5904187724
 20
104.3071251476
  0
VERTEX
  8
0
 62
7
  6
CONTINUOUS
 10
119.9254616088
 20
112.0373328274
  0
VERTEX
  8
0
 62
7
  6
CONTINUOUS
 10
119.2137838301
 20
119.6311493517
  0
VERTEX
  8
0
 62
7
  6
CONTINUOUS
 10
118.4251349327
 20
126.9852696045
  0
VERTEX
  8
0
 62
7
  6
CONTINUOUS
 10
117.520489854
 20
134.1157355737
  0
VERTEX
  8
0
 62
7
  6
CONTINUOUS
 10
116.5042152146
 20
140.8133688128
  0
VERTEX
  8
0
 62
7
  6
CONTINUOUS
 10
115.4098128478
 20
146.8712473491
  0
VERTEX
  8
0
 62
7
  6
CONTINUOUS
 10
114.2428859899
 20
152.367031568
  0
SEQEND
  0
LINE
  8
0
 62
7
  6
CONTINUOUS
 10
126.9701333809
 20
279.4310475336
 11
126.8923091085
 21
278.2396837365
  0
LINE
  8
0
 62
7
  6
CONTINUOUS
 10
126.8923091085
 20
278.2396837365
 11
126.8167766556
 21
277.1324087336
  0
LINE
  8
0
 62
7
  6
CONTINUOUS
 10
126.8167766556
 20
277.1324087336
 11
126.7466393171
 21
276.1552929511
  0
LINE
  8
0
 62
7
  6
CONTINUOUS
 10
259.7817206929
 20
285.6329553037
 11
259.2810710795
 21
285.2744249222
  0
LINE
  8
0
 62
7
  6
CONTINUOUS
 10
260.165673422
 20
285.6520460461
 11
259.6204079627
 21
285.2801060087
  0
LINE
  8
0
 62
7
  6
CONTINUOUS
 10
260.170348244
 20
285.6495304347
 11
259.6288347642
 21
285.2802470879
  0
POLYLINE
  8
0
 62
7
  6
CONTINUOUS
 66
1
 70
0
  0
VERTEX
  8
0
 62
7
  6
CONTINUOUS
 10
86.7311942594
 20
183.6198578939
  0
VERTEX
  8
0
 62
7
  6
CONTINUOUS
 10
86.2712895113
 20
184.2775513063
  0
VERTEX
  8
0
 62
7
  6
CONTINUOUS
 10
85.8181532245
 20
184.9193651494
  0
VERTEX
  8
0
 62
7
  6
CONTINUOUS
 10
85.3720036622
 20
185.5454068178
  0
VERTEX
  8
0
 62
7
  6
CONTINUOUS
 10
84.9330234958
 20
186.1559365311
  0
VERTEX
  8
0
 62
7
  6
CONTINUOUS
 10
84.5013834258
 20
186.7512072864
  0
VERTEX
  8
0
 62
7
  6
CONTINUOUS
 10
82.9141081023
 20
188.9168331786
  0
SEQEND
  0
POLYLINE
  8
0
 62
7
  6
CONTINUOUS
 66
1
 70
0
  0
VERTEX
  8
0
 62
7
  6
CONTINUOUS
 10
89.4542673537
 20
179.5824705529
  0
VERTEX
  8
0
 62
7
  6
CONTINUOUS
 10
89.0346601256
 20
180.2215052093
  0
VERTEX
  8
0
 62
7
  6
CONTINUOUS
 10
88.6011368664
 20
180.8749160344
  0
VERTEX
  8
0
 62
7
  6
CONTINUOUS
 10
88.1531706129
 20
181.5432362418
  0
VERTEX
  8
0
 62
7
  6
CONTINUOUS
 10
87.6917554334
 20
182.2244176382
  0
VERTEX
  8
0
 62
7
  6
CONTINUOUS
 10
87.2179238216
 20
182.9164369515
  0
VERTEX
  8
0
 62
7
  6
CONTINUOUS
 10
86.7311942594
 20
183.6198578939
  0
SEQEND
  0
LINE
  8
0
 62
7
  6
CONTINUOUS
 10
89.4570735489
 20
179.5843255564
 11
89.8927188874
 21
178.9205327576
  0
LINE
  8
0
 62
7
  6
CONTINUOUS
 10
89.8927188874
 20
178.9205327576
 11
90.2872717713
 21
178.3132324714
  0
LINE
  8
0
 62
7
  6
CONTINUOUS
 10
90.2872717713
 20
178.3132324714
 11
90.7254907355
 21
177.6310801152
  0
POLYLINE
  8
0
 62
7
  6
CONTINUOUS
 66
1
 70
0
  0
VERTEX
  8
0
 62
7
  6
CONTINUOUS
 10
90.7254907355
 20
177.6310801152
  0
VERTEX
  8
0
 62
7
  6
CONTINUOUS
 10
91.5493506691
 20
176.3274996939
  0
VERTEX
  8
0
 62
7
  6
CONTINUOUS
 10
92.1071047581
 20
175.4308032912
  0
VERTEX
  8
0
 62
7
  6
CONTINUOUS
 10
92.6555469591
 20
174.5361312335
  0
VERTEX
  8
0
 62
7
  6
CONTINUOUS
 10
93.1945855998
 20
173.6437126386
  0
VERTEX
  8
0
 62
7
  6
CONTINUOUS
 10
93.72413734
 20
172.75378094
  0
VERTEX
  8
0
 62
7
  6
CONTINUOUS
 10
94.2442902724
 20
171.8662895659
  0
SEQEND
  0
POLYLINE
  8
0
 62
7
  6
CONTINUOUS
 66
1
 70
0
  0
VERTEX
  8
0
 62
7
  6
CONTINUOUS
 10
94.2442902724
 20
171.8662895659
  0
VERTEX
  8
0
 62
7
  6
CONTINUOUS
 10
95.0441551739
 20
170.4742608043
  0
VERTEX
  8
0
 62
7
  6
CONTINUOUS
 10
95.8210489642
 20
169.0884494665
  0
VERTEX
  8
0
 62
7
  6
CONTINUOUS
 10
96.5752232457
 20
167.7088915469
  0
VERTEX
  8
0
 62
7
  6
CONTINUOUS
 10
97.3067911534
 20
166.3359286182
  0
VERTEX
  8
0
 62
7
  6
CONTINUOUS
 10
98.0158874702
 20
164.9699134657
  0
VERTEX
  8
0
 62
7
  6
CONTINUOUS
 10
98.7028097838
 20
163.6109059023
  0
SEQEND
  0
POLYLINE
  8
0
 62
7
  6
CONTINUOUS
 66
1
 70
0
  0
VERTEX
  8
0
 62
7
  6
CONTINUOUS
 10
98.7028097838
 20
163.6109059023
  0
VERTEX
  8
0
 62
7
  6
CONTINUOUS
 10
100.2853744484
 20
160.3299444063
  0
VERTEX
  8
0
 62
7
  6
CONTINUOUS
 10
101.7958122696
 20
156.9714707424
  0
VERTEX
  8
0
 62
7
  6
CONTINUOUS
 10
103.2404921416
 20
153.517013747
  0
VERTEX
  8
0
 62
7
  6
CONTINUOUS
 10
104.5985965518
 20
150.0211007754
  0
VERTEX
  8
0
 62
7
  6
CONTINUOUS
 10
105.8526174997
 20
146.5467043228
  0
VERTEX
  8
0
 62
7
  6
CONTINUOUS
 10
107.0218689517
 20
143.0618653371
  0
VERTEX
  8
0
 62
7
  6
CONTINUOUS
 10
108.1102540578
 20
139.5736947217
  0
VERTEX
  8
0
 62
7
  6
CONTINUOUS
 10
109.1399782636
 20
136.0245785466
  0
VERTEX
  8
0
 62
7
  6
CONTINUOUS
 10
110.1305104572
 20
132.3487545075
  0
VERTEX
  8
0
 62
7
  6
CONTINUOUS
 10
111.0753661072
 20
128.5681460131
  0
SEQEND
  0
POLYLINE
  8
0
 62
7
  6
CONTINUOUS
 66
1
 70
0
  0
VERTEX
  8
0
 62
7
  6
CONTINUOUS
 10
114.2428859899
 20
152.367031568
  0
VERTEX
  8
0
 62
7
  6
CONTINUOUS
 10
113.3871439779
 20
155.9176051905
  0
VERTEX
  8
0
 62
7
  6
CONTINUOUS
 10
112.4720544882
 20
159.363246889
  0
VERTEX
  8
0
 62
7
  6
CONTINUOUS
 10
111.4991276627
 20
162.694495308
  0
VERTEX
  8
0
 62
7
  6
CONTINUOUS
 10
110.4631395164
 20
165.9393752807
  0
VERTEX
  8
0
 62
7
  6
CONTINUOUS
 10
109.358283754
 20
169.1241503891
  0
VERTEX
  8
0
 62
7
  6
CONTINUOUS
 10
108.1878263467
 20
172.2446476405
  0
VERTEX
  8
0
 62
7
  6
CONTINUOUS
 10
106.9463127297
 20
175.3190130768
  0
VERTEX
  8
0
 62
7
  6
CONTINUOUS
 10
105.6515667634
 20
178.3052419949
  0
VERTEX
  8
0
 62
7
  6
CONTINUOUS
 10
104.3281436543
 20
181.1639559865
  0
VERTEX
  8
0
 62
7
  6
CONTINUOUS
 10
102.9749332609
 20
183.918132062
  0
VERTEX
  8
0
 62
7
  6
CONTINUOUS
 10
101.5897245347
 20
186.5898618646
  0
VERTEX
  8
0
 62
7
  6
CONTINUOUS
 10
100.1994587781
 20
189.1419483159
  0
VERTEX
  8
0
 62
7
  6
CONTINUOUS
 10
98.8370995478
 20
191.5345654308
  0
VERTEX
  8
0
 62
7
  6
CONTINUOUS
 10
97.4929412811
 20
193.8031675363
  0
VERTEX
  8
0
 62
7
  6
CONTINUOUS
 10
96.1707305602
 20
195.9543181579
  0
VERTEX
  8
0
 62
7
  6
CONTINUOUS
 10
94.8520175144
 20
198.0291366748
  0
VERTEX
  8
0
 62
7
  6
CONTINUOUS
 10
93.5128206203
 20
200.0693615028
  0
VERTEX
  8
0
 62
7
  6
CONTINUOUS
 10
92.1578617129
 20
202.0716087319
  0
VERTEX
  8
0
 62
7
  6
CONTINUOUS
 10
90.7778799828
 20
204.0520138535
  0
VERTEX
  8
0
 62
7
  6
CONTINUOUS
 10
89.3875516697
 20
205.9920529149
  0
VERTEX
  8
0
 62
7
  6
CONTINUOUS
 10
87.9989825887
 20
207.8790329685
  0
VERTEX
  8
0
 62
7
  6
CONTINUOUS
 10
86.6146402993
 20
209.7136771699
  0
VERTEX
  8
0
 62
7
  6
CONTINUOUS
 10
85.2560626708
 20
211.4719106855
  0
VERTEX
  8
0
 62
7
  6
CONTINUOUS
 10
83.8784358543
 20
213.2155853978
  0
VERTEX
  8
0
 62
7
  6
CONTINUOUS
 10
82.4247464917
 20
215.0150422931
  0
VERTEX
  8
0
 62
7
  6
CONTINUOUS
 10
80.9394543219
 20
216.8136553137
  0
VERTEX
  8
0
 62
7
  6
CONTINUOUS
 10
79.4771398741
 20
218.5482302929
  0
VERTEX
  8
0
 62
7
  6
CONTINUOUS
 10
77.9597877845
 20
220.3136608038
  0
VERTEX
  8
0
 62
7
  6
CONTINUOUS
 10
76.3151303683
 20
222.1904310449
  0
VERTEX
  8
0
 62
7
  6
CONTINUOUS
 10
74.5642546249
 20
224.1501579265
  0
SEQEND
  0
POLYLINE
  8
0
 62
7
  6
CONTINUOUS
 66
1
 70
0
  0
VERTEX
  8
0
 62
7
  6
CONTINUOUS
 10
111.0753661072
 20
128.5681460131
  0
VERTEX
  8
0
 62
7
  6
CONTINUOUS
 10
111.6277047377
 20
126.2185144945
  0
VERTEX
  8
0
 62
7
  6
CONTINUOUS
 10
112.1737224024
 20
123.7844032012
  0
VERTEX
  8
0
 62
7
  6
CONTINUOUS
 10
112.7128740062
 20
121.2655872234
  0
VERTEX
  8
0
 62
7
  6
CONTINUOUS
 10
113.2449923846
 20
118.6618076995
  0
VERTEX
  8
0
 62
7
  6
CONTINUOUS
 10
113.7772709052
 20
115.935729447
  0
VERTEX
  8
0
 62
7
  6
CONTINUOUS
 10
114.2887447208
 20
113.199217282
  0
VERTEX
  8
0
 62
7
  6
CONTINUOUS
 10
114.7612645525
 20
110.5687933252
  0
VERTEX
  8
0
 62
7
  6
CONTINUOUS
 10
115.2068338221
 20
108.0000169031
  0
VERTEX
  8
0
 62
7
  6
CONTINUOUS
 10
115.6234897542
 20
105.522416466
  0
VERTEX
  8
0
 62
7
  6
CONTINUOUS
 10
116.0309546576
 20
103.0285209512
  0
VERTEX
  8
0
 62
7
  6
CONTINUOUS
 10
116.4474093173
 20
100.4068365906
  0
VERTEX
  8
0
 62
7
  6
CONTINUOUS
 10
116.8665534155
 20
97.6943179658
  0
VERTEX
  8
0
 62
7
  6
CONTINUOUS
 10
117.2883835875
 20
94.8908669564
  0
VERTEX
  8
0
 62
7
  6
CONTINUOUS
 10
117.7130335031
 20
91.9965849233
  0
SEQEND
  0
POLYLINE
  8
0
 62
7
  6
CONTINUOUS
 66
1
 70
0
  0
VERTEX
  8
0
 62
7
  6
CONTINUOUS
 10
117.7130335031
 20
91.9965849233
  0
VERTEX
  8
0
 62
7
  6
CONTINUOUS
 10
118.3119946074
 20
87.7982365502
  0
VERTEX
  8
0
 62
7
  6
CONTINUOUS
 10
118.9125050582
 20
83.4553571996
  0
VERTEX
  8
0
 62
7
  6
CONTINUOUS
 10
119.5140159229
 20
78.9668254439
  0
VERTEX
  8
0
 62
7
  6
CONTINUOUS
 10
120.1156143946
 20
74.334679802
  0
VERTEX
  8
0
 62
7
  6
CONTINUOUS
 10
120.7173186065
 20
69.5547173496
  0
VERTEX
  8
0
 62
7
  6
CONTINUOUS
 10
121.3171033455
 20
64.645222899
  0
VERTEX
  8
0
 62
7
  6
CONTINUOUS
 10
121.9240470323
 20
59.5399610051
  0
VERTEX
  8
0
 62
7
  6
CONTINUOUS
 10
122.5103493434
 20
54.4911343613
  0
VERTEX
  8
0
 62
7
  6
CONTINUOUS
 10
123.0439898547
 20
49.8126842789
  0
VERTEX
  8
0
 62
7
  6
CONTINUOUS
 10
123.5593715237
 20
45.2597189815
  0
VERTEX
  8
0
 62
7
  6
CONTINUOUS
 10
124.0804043772
 20
40.6769862442
  0
VERTEX
  8
0
 62
7
  6
CONTINUOUS
 10
124.6080558286
 20
36.1102903447
  0
VERTEX
  8
0
 62
7
  6
CONTINUOUS
 10
125.1497580604
 20
31.5477687557
  0
VERTEX
  8
0
 62
7
  6
CONTINUOUS
 10
125.709178113
 20
27.0067300885
  0
VERTEX
  8
0
 62
7
  6
CONTINUOUS
 10
126.2899484459
 20
22.5004991712
  0
VERTEX
  8
0
 62
7
  6
CONTINUOUS
 10
126.8971493902
 20
18.0278929362
  0
SEQEND
  0
POLYLINE
  8
0
 62
7
  6
CONTINUOUS
 66
1
 70
0
  0
VERTEX
  8
0
 62
7
  6
CONTINUOUS
 10
128.252581294
 20
18.0279220422
  0
VERTEX
  8
0
 62
7
  6
CONTINUOUS
 10
126.9829738672
 20
29.3168171739
  0
VERTEX
  8
0
 62
7
  6
CONTINUOUS
 10
125.9205834721
 20
40.1749480772
  0
VERTEX
  8
0
 62
7
  6
CONTINUOUS
 10
125.0055689574
 20
50.5470209211
  0
VERTEX
  8
0
 62
7
  6
CONTINUOUS
 10
124.1732104678
 20
60.4724098201
  0
VERTEX
  8
0
 62
7
  6
CONTINUOUS
 10
123.3932351483
 20
69.9940105501
  0
VERTEX
  8
0
 62
7
  6
CONTINUOUS
 10
122.6498943685
 20
79.1223284288
  0
SEQEND
  0
POLYLINE
  8
0
 62
7
  6
CONTINUOUS
 66
1
 70
0
  0
VERTEX
  8
0
 62
7
  6
CONTINUOUS
 10
111.0971749204
 20
278.2484340047
  0
VERTEX
  8
0
 62
7
  6
CONTINUOUS
 10
111.1263158393
 20
277.8897021649
  0
VERTEX
  8
0
 62
7
  6
CONTINUOUS
 10
111.158415834
 20
277.540237559
  0
VERTEX
  8
0
 62
7
  6
CONTINUOUS
 10
111.1932996604
 20
277.2026464535
  0
VERTEX
  8
0
 62
7
  6
CONTINUOUS
 10
111.2307820953
 20
276.8791280411
  0
VERTEX
  8
0
 62
7
  6
CONTINUOUS
 10
111.2706456878
 20
276.5717552297
  0
VERTEX
  8
0
 62
7
  6
CONTINUOUS
 10
111.3126078773
 20
276.2826696333
  0
SEQEND
  0
LINE
  8
0
 62
7
  6
CONTINUOUS
 10
126.9701333809
 20
279.4310475336
 11
126.8701990716
 21
282.8666350838
  0
POLYLINE
  8
0
 62
7
  6
CONTINUOUS
 66
1
 70
0
  0
VERTEX
  8
0
 62
7
  6
CONTINUOUS
 10
14.3799362528
 20
262.3713217577
  0
VERTEX
  8
0
 62
7
  6
CONTINUOUS
 10
16.3689481644
 20
260.2546926988
  0
VERTEX
  8
0
 62
7
  6
CONTINUOUS
 10
18.4299431651
 20
258.0943197227
  0
VERTEX
  8
0
 62
7
  6
CONTINUOUS
 10
20.5614879183
 20
255.8910741588
  0
VERTEX
  8
0
 62
7
  6
CONTINUOUS
 10
22.766033045
 20
253.6413841165
  0
VERTEX
  8
0
 62
7
  6
CONTINUOUS
 10
25.0458070396
 20
251.3415626532
  0
VERTEX
  8
0
 62
7
  6
CONTINUOUS
 10
27.3984941717
 20
248.9920240568
  0
SEQEND
  0
POLYLINE
  8
0
 62
7
  6
CONTINUOUS
 66
1
 70
0
  0
VERTEX
  8
0
 62
7
  6
CONTINUOUS
 10
3.221475461
 20
274.8305288641
  0
VERTEX
  8
0
 62
7
  6
CONTINUOUS
 10
17.1061901773
 20
259.3104265492
  0
VERTEX
  8
0
 62
7
  6
CONTINUOUS
 10
31.7587074438
 20
244.4811891839
  0
VERTEX
  8
0
 62
7
  6
CONTINUOUS
 10
46.1089852652
 20
230.3347059898
  0
VERTEX
  8
0
 62
7
  6
CONTINUOUS
 10
59.1103377762
 20
216.9022295104
  0
VERTEX
  8
0
 62
7
  6
CONTINUOUS
 10
69.9501977248
 20
204.7215006044
  0
VERTEX
  8
0
 62
7
  6
CONTINUOUS
 10
79.1514330452
 20
193.3526624673
  0
VERTEX
  8
0
 62
7
  6
CONTINUOUS
 10
87.0025707914
 20
182.5655372389
  0
VERTEX
  8
0
 62
7
  6
CONTINUOUS
 10
93.6007747346
 20
172.2003662563
  0
VERTEX
  8
0
 62
7
  6
CONTINUOUS
 10
98.9454399441
 20
162.2328925294
  0
VERTEX
  8
0
 62
7
  6
CONTINUOUS
 10
103.4334186374
 20
152.0130802649
  0
VERTEX
  8
0
 62
7
  6
CONTINUOUS
 10
107.3389327224
 20
140.9675628983
  0
VERTEX
  8
0
 62
7
  6
CONTINUOUS
 10
110.7059211671
 20
128.8821166919
  0
VERTEX
  8
0
 62
7
  6
CONTINUOUS
 10
113.6511248698
 20
115.3404797375
  0
VERTEX
  8
0
 62
7
  6
CONTINUOUS
 10
116.2874204627
 20
100.1952472115
  0
VERTEX
  8
0
 62
7
  6
CONTINUOUS
 10
118.7509463424
 20
83.4206202169
  0
VERTEX
  8
0
 62
7
  6
CONTINUOUS
 10
121.190492631
 20
64.3473518939
  0
VERTEX
  8
0
 62
7
  6
CONTINUOUS
 10
123.7433673592
 20
42.1418033643
  0
VERTEX
  8
0
 62
7
  6
CONTINUOUS
 10
126.7418980122
 20
18.0278740497
  0
SEQEND
  0
POLYLINE
  8
0
 62
7
  6
CONTINUOUS
 66
1
 70
0
  0
VERTEX
  8
0
 62
7
  6
CONTINUOUS
 10
3.4408582462
 20
274.7015127839
  0
VERTEX
  8
0
 62
7
  6
CONTINUOUS
 10
5.1727544542
 20
272.6622653896
  0
VERTEX
  8
0
 62
7
  6
CONTINUOUS
 10
6.941023766
 20
270.6165161299
  0
VERTEX
  8
0
 62
7
  6
CONTINUOUS
 10
8.7459215633
 20
268.5642890668
  0
VERTEX
  8
0
 62
7
  6
CONTINUOUS
 10
10.5874018035
 20
266.5058849962
  0
VERTEX
  8
0
 62
7
  6
CONTINUOUS
 10
12.4653671785
 20
264.441578161
  0
VERTEX
  8
0
 62
7
  6
CONTINUOUS
 10
14.3799362528
 20
262.3713217577
  0
SEQEND
  0
POLYLINE
  8
0
 62
7
  6
CONTINUOUS
 66
1
 70
0
  0
VERTEX
  8
0
 62
7
  6
CONTINUOUS
 10
79.7445365684
 20
193.1189910319
  0
VERTEX
  8
0
 62
7
  6
CONTINUOUS
 10
79.5134012672
 20
193.4131833979
  0
VERTEX
  8
0
 62
7
  6
CONTINUOUS
 10
79.2920046189
 20
193.6918888072
  0
SEQEND
  0
POLYLINE
  8
0
 62
7
  6
CONTINUOUS
 66
1
 70
0
  0
VERTEX
  8
0
 62
7
  6
CONTINUOUS
 10
79.1998491874
 20
193.8114734398
  0
VERTEX
  8
0
 62
7
  6
CONTINUOUS
 10
80.5213625671
 20
192.0967474832
  0
VERTEX
  8
0
 62
7
  6
CONTINUOUS
 10
81.728820871
 20
190.5051230854
  0
VERTEX
  8
0
 62
7
  6
CONTINUOUS
 10
82.9141081023
 20
188.9168331786
  0
SEQEND
  0
LINE
  8
0
 62
7
  6
CONTINUOUS
 10
80.235695232
 20
192.4839298311
 11
79.7445365684
 21
193.1189910319
  0
LINE
  8
0
 62
7
  6
CONTINUOUS
 10
80.752422933
 20
191.8104469313
 11
80.235695232
 21
192.4839298311
  0
LINE
  8
0
 62
7
  6
CONTINUOUS
 10
81.2987093584
 20
191.0922384638
 11
80.752422933
 21
191.8104469313
  0
POLYLINE
  8
0
 62
7
  6
CONTINUOUS
 66
1
 70
0
  0
VERTEX
  8
0
 62
7
  6
CONTINUOUS
 10
84.0769769985
 20
187.3317121685
  0
VERTEX
  8
0
 62
7
  6
CONTINUOUS
 10
83.6445925368
 20
187.9296182591
  0
VERTEX
  8
0
 62
7
  6
CONTINUOUS
 10
83.2000299443
 20
188.539241493
  0
VERTEX
  8
0
 62
7
  6
CONTINUOUS
 10
82.7431760535
 20
189.1605931812
  0
VERTEX
  8
0
 62
7
  6
CONTINUOUS
 10
82.2740219902
 20
189.7933608011
  0
VERTEX
  8
0
 62
7
  6
CONTINUOUS
 10
81.7925666639
 20
190.4372361929
  0
VERTEX
  8
0
 62
7
  6
CONTINUOUS
 10
81.2987093584
 20
191.0922384638
  0
SEQEND
  0
POLYLINE
  8
0
 62
7
  6
CONTINUOUS
 66
1
 70
0
  0
VERTEX
  8
0
 62
7
  6
CONTINUOUS
 10
84.0772715383
 20
187.3313071342
  0
VERTEX
  8
0
 62
7
  6
CONTINUOUS
 10
85.4695157782
 20
185.3954531263
  0
VERTEX
  8
0
 62
7
  6
CONTINUOUS
 10
86.8302762676
 20
183.4590880028
  0
VERTEX
  8
0
 62
7
  6
CONTINUOUS
 10
88.1587698496
 20
181.5216131677
  0
VERTEX
  8
0
 62
7
  6
CONTINUOUS
 10
89.4542673537
 20
179.5824705529
  0
SEQEND
  0
LINE
  8
0
 62
7
  6
CONTINUOUS
 10
132.0510797839
 20
282.2705288836
 11
132.0827550945
 21
281.5010749141
  0
POLYLINE
  8
0
 62
7
  6
CONTINUOUS
 66
1
 70
0
  0
VERTEX
  8
0
 62
7
  6
CONTINUOUS
 10
132.0827550945
 20
281.5010749141
  0
VERTEX
  8
0
 62
7
  6
CONTINUOUS
 10
132.117038883
 20
280.538497819
  0
VERTEX
  8
0
 62
7
  6
CONTINUOUS
 10
132.1335733398
 20
280.0263859781
  0
SEQEND
  0
LINE
  8
0
 62
7
  6
CONTINUOUS
 10
31.4509277879
 20
244.9878800912
 11
39.4518517183
 21
237.1484429815
  0
LINE
  8
0
 62
7
  6
CONTINUOUS
 10
39.4518517183
 20
237.1484429815
 11
41.1936049049
 21
235.4382902554
  0
LINE
  8
0
 62
7
  6
CONTINUOUS
 10
41.1936049049
 20
235.4382902554
 11
42.5737620134
 21
234.0791933653
  0
LINE
  8
0
 62
7
  6
CONTINUOUS
 10
29.562960708
 20
246.8478415585
 11
31.4509277879
 21
244.9878800912
  0
LINE
  8
0
 62
7
  6
CONTINUOUS
 10
42.5737620134
 20
234.0791933653
 11
43.8493562645
 21
232.8190836862
  0
LINE
  8
0
 62
7
  6
CONTINUOUS
 10
43.8493562645
 20
232.8190836862
 11
44.9695201868
 21
231.7088510426
  0
POLYLINE
  8
0
 62
7
  6
CONTINUOUS
 66
1
 70
0
  0
VERTEX
  8
0
 62
7
  6
CONTINUOUS
 10
27.3984941717
 20
248.9920240568
  0
VERTEX
  8
0
 62
7
  6
CONTINUOUS
 10
28.111309721
 20
248.2842510822
  0
VERTEX
  8
0
 62
7
  6
CONTINUOUS
 10
29.562960708
 20
246.8478415585
  0
SEQEND
  0
LINE
  8
0
 62
7
  6
CONTINUOUS
 10
44.9695201868
 20
231.7088510426
 11
46.2144072678
 21
230.4704313079
  0
LINE
  8
0
 62
7
  6
CONTINUOUS
 10
46.2144072678
 20
230.4704313079
 11
47.1513660795
 21
229.5348180332
  0
LINE
  8
0
 62
7
  6
CONTINUOUS
 10
47.1513660795
 20
229.5348180332
 11
48.1404953349
 21
228.5435097125
  0
LINE
  8
0
 62
7
  6
CONTINUOUS
 10
48.1404953349
 20
228.5435097125
 11
49.1919706761
 21
227.4853230407
  0
LINE
  8
0
 62
7
  6
CONTINUOUS
 10
49.1919706761
 20
227.4853230407
 11
50.3133672629
 21
226.3513589962
  0
POLYLINE
  8
0
 62
7
  6
CONTINUOUS
 66
1
 70
0
  0
VERTEX
  8
0
 62
7
  6
CONTINUOUS
 10
50.3133672629
 20
226.3513589962
  0
VERTEX
  8
0
 62
7
  6
CONTINUOUS
 10
51.6436059472
 20
224.9983366095
  0
VERTEX
  8
0
 62
7
  6
CONTINUOUS
 10
52.3408336665
 20
224.2855002454
  0
VERTEX
  8
0
 62
7
  6
CONTINUOUS
 10
53.0600603806
 20
223.5473664411
  0
VERTEX
  8
0
 62
7
  6
CONTINUOUS
 10
53.7922297722
 20
222.7928878288
  0
VERTEX
  8
0
 62
7
  6
CONTINUOUS
 10
54.5661351761
 20
221.9918838117
  0
VERTEX
  8
0
 62
7
  6
CONTINUOUS
 10
55.4168302067
 20
221.1070315513
  0
VERTEX
  8
0
 62
7
  6
CONTINUOUS
 10
56.3147746085
 20
220.1678282736
  0
VERTEX
  8
0
 62
7
  6
CONTINUOUS
 10
57.2404250228
 20
219.1938493477
  0
VERTEX
  8
0
 62
7
  6
CONTINUOUS
 10
58.1997727418
 20
218.1780183603
  0
VERTEX
  8
0
 62
7
  6
CONTINUOUS
 10
59.1896307519
 20
217.1228465353
  0
VERTEX
  8
0
 62
7
  6
CONTINUOUS
 10
60.217785949
 20
216.0190403229
  0
VERTEX
  8
0
 62
7
  6
CONTINUOUS
 10
61.291593067
 20
214.8574418656
  0
VERTEX
  8
0
 62
7
  6
CONTINUOUS
 10
62.4082204706
 20
213.6396678571
  0
VERTEX
  8
0
 62
7
  6
CONTINUOUS
 10
63.5692997569
 20
212.3623648722
  0
VERTEX
  8
0
 62
7
  6
CONTINUOUS
 10
64.7683191878
 20
211.0310384612
  0
VERTEX
  8
0
 62
7
  6
CONTINUOUS
 10
65.9892371615
 20
209.6620522646
  0
VERTEX
  8
0
 62
7
  6
CONTINUOUS
 10
67.2623904343
 20
208.2195384466
  0
VERTEX
  8
0
 62
7
  6
CONTINUOUS
 10
68.6219288811
 20
206.6615413195
  0
VERTEX
  8
0
 62
7
  6
CONTINUOUS
 10
70.0362487338
 20
205.0205526424
  0
VERTEX
  8
0
 62
7
  6
CONTINUOUS
 10
71.485454123
 20
203.3166497501
  0
VERTEX
  8
0
 62
7
  6
CONTINUOUS
 10
72.9703229335
 20
201.546027536
  0
VERTEX
  8
0
 62
7
  6
CONTINUOUS
 10
74.4849049446
 20
199.7126032332
  0
VERTEX
  8
0
 62
7
  6
CONTINUOUS
 10
76.029290689
 20
197.8131846468
  0
VERTEX
  8
0
 62
7
  6
CONTINUOUS
 10
77.602098372
 20
195.8460367899
  0
VERTEX
  8
0
 62
7
  6
CONTINUOUS
 10
79.2008467183
 20
193.8102142294
  0
SEQEND
  0
POLYLINE
  8
0
 62
7
  6
CONTINUOUS
 66
1
 70
0
  0
VERTEX
  8
0
 62
7
  6
CONTINUOUS
 10
74.5642546249
 20
224.1501579265
  0
VERTEX
  8
0
 62
7
  6
CONTINUOUS
 10
71.4724296929
 20
227.5296990101
  0
VERTEX
  8
0
 62
7
  6
CONTINUOUS
 10
68.187773965
 20
231.0217623744
  0
VERTEX
  8
0
 62
7
  6
CONTINUOUS
 10
64.731462752
 20
234.6183943064
  0
VERTEX
  8
0
 62
7
  6
CONTINUOUS
 10
61.0762892029
 20
238.3622676452
  0
VERTEX
  8
0
 62
7
  6
CONTINUOUS
 10
53.1369859534
 20
246.4263455414
  0
SEQEND
  0
POLYLINE
  8
0
 62
7
  6
CONTINUOUS
 66
1
 70
0
  0
VERTEX
  8
0
 62
7
  6
CONTINUOUS
 10
53.1369859534
 20
246.4263455414
  0
VERTEX
  8
0
 62
7
  6
CONTINUOUS
 10
49.0156282859
 20
250.6498328306
  0
VERTEX
  8
0
 62
7
  6
CONTINUOUS
 10
44.8136834497
 20
255.0360292403
  0
VERTEX
  8
0
 62
7
  6
CONTINUOUS
 10
40.5397273684
 20
259.6119180282
  0
VERTEX
  8
0
 62
7
  6
CONTINUOUS
 10
36.2170785917
 20
264.3952516439
  0
VERTEX
  8
0
 62
7
  6
CONTINUOUS
 10
31.8594473067
 20
269.4079681201
  0
VERTEX
  8
0
 62
7
  6
CONTINUOUS
 10
27.4870166153
 20
274.6555758383
  0
SEQEND
  0
POLYLINE
  8
0
 62
7
  6
CONTINUOUS
 66
1
 70
0
  0
VERTEX
  8
0
 62
7
  6
CONTINUOUS
 10
177.9854270755
 20
18.0279848316
  0
VERTEX
  8
0
 62
7
  6
CONTINUOUS
 10
177.5964564925
 20
23.1045483728
  0
VERTEX
  8
0
 62
7
  6
CONTINUOUS
 10
177.2566409578
 20
27.6894894467
  0
VERTEX
  8
0
 62
7
  6
CONTINUOUS
 10
176.973906304
 20
31.6178910623
  0
VERTEX
  8
0
 62
7
  6
CONTINUOUS
 10
176.7098223387
 20
35.373538032
  0
VERTEX
  8
0
 62
7
  6
CONTINUOUS
 10
176.4239889494
 20
39.5363181456
  0
VERTEX
  8
0
 62
7
  6
CONTINUOUS
 10
176.1477510908
 20
43.6661095857
  0
VERTEX
  8
0
 62
7
  6
CONTINUOUS
 10
175.8947045157
 20
47.534768663
  0
VERTEX
  8
0
 62
7
  6
CONTINUOUS
 10
175.6679698659
 20
51.0789691523
  0
VERTEX
  8
0
 62
7
  6
CONTINUOUS
 10
175.4791702485
 20
54.0818233468
  0
VERTEX
  8
0
 62
7
  6
CONTINUOUS
 10
175.3122479873
 20
56.7727690882
  0
SEQEND
  0
POLYLINE
  8
0
 62
7
  6
CONTINUOUS
 66
1
 70
0
  0
VERTEX
  8
0
 62
7
  6
CONTINUOUS
 10
173.1961538015
 20
92.4066931771
  0
VERTEX
  8
0
 62
7
  6
CONTINUOUS
 10
172.9924417226
 20
95.7015705834
  0
VERTEX
  8
0
 62
7
  6
CONTINUOUS
 10
172.7528854582
 20
99.4782771214
  0
VERTEX
  8
0
 62
7
  6
CONTINUOUS
 10
172.4892161515
 20
103.4955918245
  0
VERTEX
  8
0
 62
7
  6
CONTINUOUS
 10
172.1990831216
 20
107.7344114449
  0
VERTEX
  8
0
 62
7
  6
CONTINUOUS
 10
171.8895780244
 20
112.0344933361
  0
VERTEX
  8
0
 62
7
  6
CONTINUOUS
 10
171.5444468421
 20
116.5782905705
  0
VERTEX
  8
0
 62
7
  6
CONTINUOUS
 10
171.1380560269
 20
121.5831269707
  0
VERTEX
  8
0
 62
7
  6
CONTINUOUS
 10
170.6830757169
 20
126.7672635268
  0
VERTEX
  8
0
 62
7
  6
CONTINUOUS
 10
170.195949355
 20
131.8789918647
  0
VERTEX
  8
0
 62
7
  6
CONTINUOUS
 10
169.6588330378
 20
137.0598456004
  0
VERTEX
  8
0
 62
7
  6
CONTINUOUS
 10
169.0513750605
 20
142.4050278732
  0
VERTEX
  8
0
 62
7
  6
CONTINUOUS
 10
168.3772110905
 20
147.7866057678
  0
VERTEX
  8
0
 62
7
  6
CONTINUOUS
 10
167.6388801789
 20
153.1299528988
  0
VERTEX
  8
0
 62
7
  6
CONTINUOUS
 10
166.8359426567
 20
158.3827929557
  0
VERTEX
  8
0
 62
7
  6
CONTINUOUS
 10
165.9742430027
 20
163.4959733626
  0
VERTEX
  8
0
 62
7
  6
CONTINUOUS
 10
165.0616732278
 20
168.4036119923
  0
VERTEX
  8
0
 62
7
  6
CONTINUOUS
 10
164.1205019887
 20
173.023693302
  0
VERTEX
  8
0
 62
7
  6
CONTINUOUS
 10
163.151999455
 20
177.3843202138
  0
VERTEX
  8
0
 62
7
  6
CONTINUOUS
 10
162.1603621094
 20
181.5075789588
  0
VERTEX
  8
0
 62
7
  6
CONTINUOUS
 10
161.1678734107
 20
185.3360853526
  0
VERTEX
  8
0
 62
7
  6
CONTINUOUS
 10
160.2083142976
 20
188.796480906
  0
VERTEX
  8
0
 62
7
  6
CONTINUOUS
 10
159.2727906012
 20
191.9747919838
  0
VERTEX
  8
0
 62
7
  6
CONTINUOUS
 10
158.3597262842
 20
194.9092570879
  0
VERTEX
  8
0
 62
7
  6
CONTINUOUS
 10
157.4618178992
 20
197.6555643232
  0
VERTEX
  8
0
 62
7
  6
CONTINUOUS
 10
156.5575539593
 20
200.2919769362
  0
VERTEX
  8
0
 62
7
  6
CONTINUOUS
 10
155.6674985474
 20
202.7736776619
  0
VERTEX
  8
0
 62
7
  6
CONTINUOUS
 10
154.8102002284
 20
205.0680292965
  0
VERTEX
  8
0
 62
7
  6
CONTINUOUS
 10
153.9754993556
 20
207.2207254101
  0
VERTEX
  8
0
 62
7
  6
CONTINUOUS
 10
153.1553487668
 20
209.2631554043
  0
VERTEX
  8
0
 62
7
  6
CONTINUOUS
 10
152.3527300248
 20
211.1986871339
  0
VERTEX
  8
0
 62
7
  6
CONTINUOUS
 10
151.5678677623
 20
213.0347429695
  0
VERTEX
  8
0
 62
7
  6
CONTINUOUS
 10
150.7971591138
 20
214.7876849949
  0
VERTEX
  8
0
 62
7
  6
CONTINUOUS
 10
150.0285135913
 20
216.4895604524
  0
VERTEX
  8
0
 62
7
  6
CONTINUOUS
 10
149.2835149503
 20
218.0976649711
  0
VERTEX
  8
0
 62
7
  6
CONTINUOUS
 10
148.5716454668
 20
219.5987726586
  0
VERTEX
  8
0
 62
7
  6
CONTINUOUS
 10
147.9221405056
 20
220.9402533767
  0
VERTEX
  8
0
 62
7
  6
CONTINUOUS
 10
147.4159234443
 20
221.9682615573
  0
VERTEX
  8
0
 62
7
  6
CONTINUOUS
 10
146.9123109999
 20
222.9768836474
  0
VERTEX
  8
0
 62
7
  6
CONTINUOUS
 10
146.2638217334
 20
224.2545662967
  0
VERTEX
  8
0
 62
7
  6
CONTINUOUS
 10
145.5452913086
 20
225.6445639128
  0
VERTEX
  8
0
 62
7
  6
CONTINUOUS
 10
144.7635930298
 20
227.1284117051
  0
VERTEX
  8
0
 62
7
  6
CONTINUOUS
 10
143.981814889
 20
228.5847150273
  0
VERTEX
  8
0
 62
7
  6
CONTINUOUS
 10
143.2857920382
 20
229.8592201671
  0
VERTEX
  8
0
 62
7
  6
CONTINUOUS
 10
142.6293552339
 20
231.0434144993
  0
VERTEX
  8
0
 62
7
  6
CONTINUOUS
 10
141.9981746024
 20
232.1666674254
  0
VERTEX
  8
0
 62
7
  6
CONTINUOUS
 10
141.3773980483
 20
233.25721054
  0
VERTEX
  8
0
 62
7
  6
CONTINUOUS
 10
140.7696846367
 20
234.3121190705
  0
VERTEX
  8
0
 62
7
  6
CONTINUOUS
 10
140.1046990745
 20
235.4516331018
  0
VERTEX
  8
0
 62
7
  6
CONTINUOUS
 10
139.2820715945
 20
236.8418392805
  0
VERTEX
  8
0
 62
7
  6
CONTINUOUS
 10
138.3849326694
 20
238.3350644933
  0
VERTEX
  8
0
 62
7
  6
CONTINUOUS
 10
137.492514911
 20
239.7982364029
  0
VERTEX
  8
0
 62
7
  6
CONTINUOUS
 10
136.5245864451
 20
241.3599590966
  0
VERTEX
  8
0
 62
7
  6
CONTINUOUS
 10
135.4047036981
 20
243.1375994548
  0
VERTEX
  8
0
 62
7
  6
CONTINUOUS
 10
134.1938585725
 20
245.0266508672
  0
VERTEX
  8
0
 62
7
  6
CONTINUOUS
 10
132.9454853013
 20
246.9409082891
  0
VERTEX
  8
0
 62
7
  6
CONTINUOUS
 10
131.6127493487
 20
248.9480248687
  0
VERTEX
  8
0
 62
7
  6
CONTINUOUS
 10
130.1630926622
 20
251.0935484972
  0
VERTEX
  8
0
 62
7
  6
CONTINUOUS
 10
128.6056669605
 20
253.3565024199
  0
VERTEX
  8
0
 62
7
  6
CONTINUOUS
 10
126.9463365648
 20
255.7248257924
  0
VERTEX
  8
0
 62
7
  6
CONTINUOUS
 10
125.1654102556
 20
258.2195674655
  0
VERTEX
  8
0
 62
7
  6
CONTINUOUS
 10
123.2475851278
 20
260.8578502603
  0
VERTEX
  8
0
 62
7
  6
CONTINUOUS
 10
121.1861211538
 20
263.6398109749
  0
VERTEX
  8
0
 62
7
  6
CONTINUOUS
 10
118.9711591408
 20
266.569752909
  0
VERTEX
  8
0
 62
7
  6
CONTINUOUS
 10
116.5938574838
 20
269.6501318496
  0
VERTEX
  8
0
 62
7
  6
CONTINUOUS
 10
114.0406160546
 20
272.8853571302
  0
VERTEX
  8
0
 62
7
  6
CONTINUOUS
 10
111.3159408367
 20
276.273938472
  0
SEQEND
  0
LINE
  8
0
 62
7
  6
CONTINUOUS
 10
175.3122479873
 20
56.7727690882
 11
175.0125616793
 21
61.6941599871
  0
LINE
  8
0
 62
7
  6
CONTINUOUS
 10
173.4628350292
 20
88.0049167754
 11
173.1961538015
 21
92.4066931771
  0
LINE
  8
0
 62
7
  6
CONTINUOUS
 10
175.0125616793
 20
61.6941599871
 11
174.7126184534
 21
66.7221984164
  0
LINE
  8
0
 62
7
  6
CONTINUOUS
 10
173.7503027969
 20
83.159108844
 11
173.4628350292
 21
88.0049167754
  0
POLYLINE
  8
0
 62
7
  6
CONTINUOUS
 66
1
 70
0
  0
VERTEX
  8
0
 62
7
  6
CONTINUOUS
 10
174.7126184534
 20
66.7221984164
  0
VERTEX
  8
0
 62
7
  6
CONTINUOUS
 10
174.4028762326
 20
71.9903929328
  0
VERTEX
  8
0
 62
7
  6
CONTINUOUS
 10
174.2340414492
 20
74.8806861857
  0
VERTEX
  8
0
 62
7
  6
CONTINUOUS
 10
173.7503027969
 20
83.159108844
  0
SEQEND
  0
POLYLINE
  8
0
 62
7
  6
CONTINUOUS
 66
1
 70
0
  0
VERTEX
  8
0
 62
7
  6
CONTINUOUS
 10
132.0030841115
 20
283.0246450018
  0
VERTEX
  8
0
 62
7
  6
CONTINUOUS
 10
132.0063281549
 20
283.0151220374
  0
VERTEX
  8
0
 62
7
  6
CONTINUOUS
 10
132.0148100517
 20
282.9353488139
  0
VERTEX
  8
0
 62
7
  6
CONTINUOUS
 10
132.0251337578
 20
282.7830025383
  0
VERTEX
  8
0
 62
7
  6
CONTINUOUS
 10
132.0372089873
 20
282.5619530645
  0
VERTEX
  8
0
 62
7
  6
CONTINUOUS
 10
132.0510797839
 20
282.2705288836
  0
SEQEND
  0
LINE
  8
0
 62
7
  6
CONTINUOUS
 10
3.4356476014
 20
274.7035287632
 11
3.2214754609
 21
274.8305288646
  0
LINE
  8
0
 62
7
  6
CONTINUOUS
 10
3.4344792861
 20
274.7049086191
 11
3.4407652198
 21
274.7014343007
  0
LINE
  8
0
 62
7
  6
CONTINUOUS
 10
2.0361666098
 20
278.5642999374
 11
1.8191961599
 21
278.6849996865
  0
POLYLINE
  8
0
 62
7
  6
CONTINUOUS
 66
1
 70
0
  0
VERTEX
  8
0
 62
7
  6
CONTINUOUS
 10
2.0361656072
 20
278.56407664
  0
VERTEX
  8
0
 62
7
  6
CONTINUOUS
 10
3.0396342532
 20
278.0948872778
  0
VERTEX
  8
0
 62
7
  6
CONTINUOUS
 10
4.6635256332
 20
277.7361870686
  0
VERTEX
  8
0
 62
7
  6
CONTINUOUS
 10
6.8562694102
 20
277.437697709
  0
VERTEX
  8
0
 62
7
  6
CONTINUOUS
 10
9.5666160585
 20
277.3502541091
  0
VERTEX
  8
0
 62
7
  6
CONTINUOUS
 10
12.7439852403
 20
277.6246911793
  0
VERTEX
  8
0
 62
7
  6
CONTINUOUS
 10
16.3393197865
 20
278.2107306161
  0
SEQEND
  0
LINE
  8
0
 62
7
  6
CONTINUOUS
 10
7.1486925903
 20
283.6796765356
 11
7.1550316674
 21
283.6771432938
  0
LINE
  8
0
 62
7
  6
CONTINUOUS
 10
7.148697252
 20
283.6796698219
 11
6.9944171547
 21
283.7465103975
  0
LINE
  8
0
 62
7
  6
CONTINUOUS
 10
11.2291002771
 20
283.2096803132
 11
10.4251945656
 21
283.4785808135
  0
POLYLINE
  8
0
 62
7
  6
CONTINUOUS
 66
1
 70
0
  0
VERTEX
  8
0
 62
7
  6
CONTINUOUS
 10
10.4251945656
 20
283.4785808135
  0
VERTEX
  8
0
 62
7
  6
CONTINUOUS
 10
9.0161723094
 20
283.7342388021
  0
VERTEX
  8
0
 62
7
  6
CONTINUOUS
 10
7.5771486677
 20
283.785730271
  0
VERTEX
  8
0
 62
7
  6
CONTINUOUS
 10
6.9942923984
 20
283.747494787
  0
SEQEND
  0
LINE
  8
0
 62
7
  6
CONTINUOUS
 10
343.8672548044
 20
276.3126434565
 11
354.5949300365
 21
276.7266075258
  0
POLYLINE
  8
0
 62
7
  6
CONTINUOUS
 66
1
 70
0
  0
VERTEX
  8
0
 62
7
  6
CONTINUOUS
 10
343.8674740557
 20
276.3156166474
  0
VERTEX
  8
0
 62
7
  6
CONTINUOUS
 10
331.2070166497
 20
275.950548609
  0
VERTEX
  8
0
 62
7
  6
CONTINUOUS
 10
318.5594434006
 20
275.7390734637
  0
VERTEX
  8
0
 62
7
  6
CONTINUOUS
 10
305.8161688207
 20
275.6873345956
  0
VERTEX
  8
0
 62
7
  6
CONTINUOUS
 10
293.2976370904
 20
275.7389587288
  0
VERTEX
  8
0
 62
7
  6
CONTINUOUS
 10
281.4327273951
 20
275.846182004
  0
VERTEX
  8
0
 62
7
  6
CONTINUOUS
 10
269.7890099945
 20
275.9997531062
  0
VERTEX
  8
0
 62
7
  6
CONTINUOUS
 10
257.9321843827
 20
276.1883748154
  0
VERTEX
  8
0
 62
7
  6
CONTINUOUS
 10
246.2981983261
 20
276.3808225788
  0
VERTEX
  8
0
 62
7
  6
CONTINUOUS
 10
235.3226822338
 20
276.5471059468
  0
VERTEX
  8
0
 62
7
  6
CONTINUOUS
 10
224.5709862208
 20
276.6629297189
  0
VERTEX
  8
0
 62
7
  6
CONTINUOUS
 10
213.606710763
 20
276.6943075341
  0
VERTEX
  8
0
 62
7
  6
CONTINUOUS
 10
202.8712247977
 20
276.6438194674
  0
VERTEX
  8
0
 62
7
  6
CONTINUOUS
 10
192.8153343238
 20
276.4970278538
  0
VERTEX
  8
0
 62
7
  6
CONTINUOUS
 10
182.9771037906
 20
276.290821191
  0
VERTEX
  8
0
 62
7
  6
CONTINUOUS
 10
172.8864130595
 20
276.0395944787
  0
VERTEX
  8
0
 62
7
  6
CONTINUOUS
 10
163.0207804265
 20
275.811807958
  0
VERTEX
  8
0
 62
7
  6
CONTINUOUS
 10
153.863402475
 20
275.6704642322
  0
VERTEX
  8
0
 62
7
  6
CONTINUOUS
 10
144.9278980353
 20
275.6518583516
  0
VERTEX
  8
0
 62
7
  6
CONTINUOUS
 10
135.847705899
 20
275.8162978733
  0
VERTEX
  8
0
 62
7
  6
CONTINUOUS
 10
126.746797416
 20
276.1564269114
  0
SEQEND
  0
LINE
  8
0
 62
7
  6
CONTINUOUS
 10
13.4086027415
 20
283.0200289726
 11
12.8544708582
 21
283.0575389934
  0
LINE
  8
0
 62
7
  6
CONTINUOUS
 10
12.8588599955
 20
283.0568374134
 11
12.369968179
 21
283.0956297498
  0
LINE
  8
0
 62
7
  6
CONTINUOUS
 10
12.3764896896
 20
283.0944469072
 11
11.9464475107
 21
283.133440367
  0
LINE
  8
0
 62
7
  6
CONTINUOUS
 10
11.9577373844
 20
283.1317192696
 11
11.5756647503
 21
283.1704004946
  0
POLYLINE
  8
0
 62
7
  6
CONTINUOUS
 66
1
 70
0
  0
VERTEX
  8
0
 62
7
  6
CONTINUOUS
 10
11.5967069169
 20
283.1678884628
  0
VERTEX
  8
0
 62
7
  6
CONTINUOUS
 10
11.295821698
 20
283.201451939
  0
VERTEX
  8
0
 62
7
  6
CONTINUOUS
 10
11.0546144074
 20
283.2311986651
  0
VERTEX
  8
0
 62
7
  6
CONTINUOUS
 10
10.8770961274
 20
283.2554764666
  0
VERTEX
  8
0
 62
7
  6
CONTINUOUS
 10
10.7912902851
 20
283.2683765378
  0
SEQEND
  0
POLYLINE
  8
0
 62
7
  6
CONTINUOUS
 66
1
 70
0
  0
VERTEX
  8
0
 62
7
  6
CONTINUOUS
 10
4.7591936572
 20
283.4636714743
  0
VERTEX
  8
0
 62
7
  6
CONTINUOUS
 10
5.7443018635
 20
283.3349032222
  0
VERTEX
  8
0
 62
7
  6
CONTINUOUS
 10
7.30073342
 20
283.2002955308
  0
VERTEX
  8
0
 62
7
  6
CONTINUOUS
 10
9.428681173
 20
283.0534842794
  0
VERTEX
  8
0
 62
7
  6
CONTINUOUS
 10
12.1275361619
 20
282.9168018491
  0
SEQEND
  0
POLYLINE
  8
0
 62
7
  6
CONTINUOUS
 66
1
 70
0
  0
VERTEX
  8
0
 62
7
  6
CONTINUOUS
 10
126.9701333809
 20
279.4310475336
  0
VERTEX
  8
0
 62
7
  6
CONTINUOUS
 10
124.4383297708
 20
279.1497540753
  0
VERTEX
  8
0
 62
7
  6
CONTINUOUS
 10
121.8637562046
 20
278.9004201883
  0
VERTEX
  8
0
 62
7
  6
CONTINUOUS
 10
119.2406439255
 20
278.6815029301
  0
VERTEX
  8
0
 62
7
  6
CONTINUOUS
 10
116.5720820273
 20
278.4977344378
  0
VERTEX
  8
0
 62
7
  6
CONTINUOUS
 10
113.8601564293
 20
278.3539726905
  0
VERTEX
  8
0
 62
7
  6
CONTINUOUS
 10
111.0971749204
 20
278.2484340047
  0
SEQEND
  0
POLYLINE
  8
0
 62
7
  6
CONTINUOUS
 66
1
 70
0
  0
VERTEX
  8
0
 62
7
  6
CONTINUOUS
 10
132.1336278307
 20
280.0261123067
  0
VERTEX
  8
0
 62
7
  6
CONTINUOUS
 10
131.2611682858
 20
279.9300683264
  0
VERTEX
  8
0
 62
7
  6
CONTINUOUS
 10
130.3934765203
 20
279.8326840991
  0
VERTEX
  8
0
 62
7
  6
CONTINUOUS
 10
129.5305073261
 20
279.7340538731
  0
VERTEX
  8
0
 62
7
  6
CONTINUOUS
 10
128.6722863118
 20
279.6341970577
  0
VERTEX
  8
0
 62
7
  6
CONTINUOUS
 10
126.9701333809
 20
279.4310475336
  0
SEQEND
  0
POLYLINE
  8
0
 62
7
  6
CONTINUOUS
 66
1
 70
0
  0
VERTEX
  8
0
 62
7
  6
CONTINUOUS
 10
265.4461221159
 20
287.0165502457
  0
VERTEX
  8
0
 62
7
  6
CONTINUOUS
 10
264.0415314959
 20
286.9492611389
  0
VERTEX
  8
0
 62
7
  6
CONTINUOUS
 10
262.6779393314
 20
286.6901931595
  0
VERTEX
  8
0
 62
7
  6
CONTINUOUS
 10
261.3874550543
 20
286.2548369597
  0
VERTEX
  8
0
 62
7
  6
CONTINUOUS
 10
260.170348244
 20
285.6495304347
  0
SEQEND
  0
POLYLINE
  8
0
 62
7
  6
CONTINUOUS
 66
1
 70
0
  0
VERTEX
  8
0
 62
7
  6
CONTINUOUS
 10
265.4423690579
 20
287.0195472831
  0
VERTEX
  8
0
 62
7
  6
CONTINUOUS
 10
264.0376322314
 20
286.9522653428
  0
VERTEX
  8
0
 62
7
  6
CONTINUOUS
 10
262.6738237308
 20
286.6931377008
  0
VERTEX
  8
0
 62
7
  6
CONTINUOUS
 10
261.383055318
 20
286.2576187187
  0
VERTEX
  8
0
 62
7
  6
CONTINUOUS
 10
260.165673422
 20
285.6520460461
  0
SEQEND
  0
POLYLINE
  8
0
 62
7
  6
CONTINUOUS
 66
1
 70
0
  0
VERTEX
  8
0
 62
7
  6
CONTINUOUS
 10
111.3159408367
 20
276.273938472
  0
VERTEX
  8
0
 62
7
  6
CONTINUOUS
 10
102.5943805246
 20
275.8750230537
  0
VERTEX
  8
0
 62
7
  6
CONTINUOUS
 10
94.0529730418
 20
275.4405290294
  0
VERTEX
  8
0
 62
7
  6
CONTINUOUS
 10
85.7059296981
 20
274.9752010883
  0
VERTEX
  8
0
 62
7
  6
CONTINUOUS
 10
77.6332365656
 20
274.5565746715
  0
VERTEX
  8
0
 62
7
  6
CONTINUOUS
 10
69.8884660486
 20
274.2445628993
  0
VERTEX
  8
0
 62
7
  6
CONTINUOUS
 10
62.4970957821
 20
274.045904787
  0
VERTEX
  8
0
 62
7
  6
CONTINUOUS
 10
55.46462056
 20
273.9851488223
  0
VERTEX
  8
0
 62
7
  6
CONTINUOUS
 10
48.8612896531
 20
274.0363949545
  0
VERTEX
  8
0
 62
7
  6
CONTINUOUS
 10
42.7239770144
 20
274.1850008258
  0
VERTEX
  8
0
 62
7
  6
CONTINUOUS
 10
37.0951605286
 20
274.374485367
  0
VERTEX
  8
0
 62
7
  6
CONTINUOUS
 10
32.034068146
 20
274.5340297461
  0
VERTEX
  8
0
 62
7
  6
CONTINUOUS
 10
27.4877096773
 20
274.6623575925
  0
SEQEND
  0
LINE
  8
0
 62
7
  6
CONTINUOUS
 10
250.9335234425
 20
284.4307648507
 11
250.894908873
 21
284.4294104065
  0
LINE
  8
0
 62
7
  6
CONTINUOUS
 10
147.5144653331
 20
283.5219558012
 11
130.4240412421
 21
282.9755108154
  0
LINE
  8
0
 62
7
  6
CONTINUOUS
 10
130.4240412421
 20
282.9755108154
 11
119.7425383794
 21
282.6471737617
  0
POLYLINE
  8
0
 62
7
  6
CONTINUOUS
 66
1
 70
0
  0
VERTEX
  8
0
 62
7
  6
CONTINUOUS
 10
119.7425383794
 20
282.6471737617
  0
VERTEX
  8
0
 62
7
  6
CONTINUOUS
 10
116.7838363505
 20
282.558313222
  0
VERTEX
  8
0
 62
7
  6
CONTINUOUS
 10
113.6968109883
 20
282.4703418947
  0
VERTEX
  8
0
 62
7
  6
CONTINUOUS
 10
111.3494641953
 20
282.4079438572
  0
SEQEND
  0
POLYLINE
  8
0
 62
7
  6
CONTINUOUS
 66
1
 70
0
  0
VERTEX
  8
0
 62
7
  6
CONTINUOUS
 10
19.1328034419
 20
282.9226366004
  0
VERTEX
  8
0
 62
7
  6
CONTINUOUS
 10
17.9435775804
 20
282.8924507324
  0
VERTEX
  8
0
 62
7
  6
CONTINUOUS
 10
16.5596049876
 20
282.8699778866
  0
VERTEX
  8
0
 62
7
  6
CONTINUOUS
 10
16.092585132
 20
282.8658343393
  0
SEQEND
  0
LINE
  8
0
 62
7
  6
CONTINUOUS
 10
111.3503127085
 20
282.4082106306
 11
105.9390856691
 21
282.2833925431
  0
LINE
  8
0
 62
7
  6
CONTINUOUS
 10
111.3489978681
 20
282.408177343
 11
105.981493385
 21
282.2839027959
  0
LINE
  8
0
 62
7
  6
CONTINUOUS
 10
180.7470671748
 20
284.3393948306
 11
164.0549299729
 21
283.9983805193
  0
LINE
  8
0
 62
7
  6
CONTINUOUS
 10
253.2910681348
 20
285.1710148389
 11
234.9611676314
 21
284.8466470137
  0
LINE
  8
0
 62
7
  6
CONTINUOUS
 10
234.9611676314
 20
284.8466470137
 11
233.5195254744
 21
284.822022418
  0
LINE
  8
0
 62
7
  6
CONTINUOUS
 10
105.981493385
 20
282.2839027959
 11
99.9330759128
 21
282.1811749368
  0
LINE
  8
0
 62
7
  6
CONTINUOUS
 10
259.2810710786
 20
285.2744249215
 11
253.2910707808
 21
285.1710148855
  0
POLYLINE
  8
0
 62
7
  6
CONTINUOUS
 66
1
 70
0
  0
VERTEX
  8
0
 62
7
  6
CONTINUOUS
 10
354.5949166689
 20
286.7191663064
  0
VERTEX
  8
0
 62
7
  6
CONTINUOUS
 10
347.6961908384
 20
286.6049643594
  0
VERTEX
  8
0
 62
7
  6
CONTINUOUS
 10
342.403070998
 20
286.5230324666
  0
SEQEND
  0
POLYLINE
  8
0
 62
7
  6
CONTINUOUS
 66
1
 70
0
  0
VERTEX
  8
0
 62
7
  6
CONTINUOUS
 10
233.5195254744
 20
284.822022418
  0
VERTEX
  8
0
 62
7
  6
CONTINUOUS
 10
229.2347357799
 20
284.7545914012
  0
VERTEX
  8
0
 62
7
  6
CONTINUOUS
 10
225.3687033858
 20
284.7021719809
  0
SEQEND
  0
LINE
  8
0
 62
7
  6
CONTINUOUS
 10
315.1748939572
 20
286.1239569287
 11
299.9342962605
 21
285.8862871059
  0
LINE
  8
0
 62
7
  6
CONTINUOUS
 10
299.9342962605
 20
285.8862871059
 11
296.2682095634
 21
285.8311699038
  0
POLYLINE
  8
0
 62
7
  6
CONTINUOUS
 66
1
 70
0
  0
VERTEX
  8
0
 62
7
  6
CONTINUOUS
 10
278.9908027691
 20
285.5839041168
  0
VERTEX
  8
0
 62
7
  6
CONTINUOUS
 10
274.0370397835
 20
285.5107986077
  0
VERTEX
  8
0
 62
7
  6
CONTINUOUS
 10
268.9514264635
 20
285.4327288728
  0
VERTEX
  8
0
 62
7
  6
CONTINUOUS
 10
263.769601912
 20
285.3495706943
  0
VERTEX
  8
0
 62
7
  6
CONTINUOUS
 10
258.5287096417
 20
285.26182909
  0
SEQEND
  0
LINE
  8
0
 62
7
  6
CONTINUOUS
 10
342.403070998
 20
286.5230324666
 11
332.6209626981
 21
286.3792651572
  0
LINE
  8
0
 62
7
  6
CONTINUOUS
 10
332.6209622183
 20
286.3792651503
 11
315.1748939572
 21
286.1239569287
  0
POLYLINE
  8
0
 62
7
  6
CONTINUOUS
 66
1
 70
0
  0
VERTEX
  8
0
 62
7
  6
CONTINUOUS
 10
296.2682095634
 20
285.8311699038
  0
VERTEX
  8
0
 62
7
  6
CONTINUOUS
 10
288.2220732659
 20
285.7153933799
  0
VERTEX
  8
0
 62
7
  6
CONTINUOUS
 10
278.9908027691
 20
285.5839041168
  0
SEQEND
  0
LINE
  8
0
 62
7
  6
CONTINUOUS
 10
197.9978784371
 20
284.5372605946
 11
180.7470671748
 21
284.3393948306
  0
POLYLINE
  8
0
 62
7
  6
CONTINUOUS
 66
1
 70
0
  0
VERTEX
  8
0
 62
7
  6
CONTINUOUS
 10
16.3393197865
 20
279.9238851765
  0
VERTEX
  8
0
 62
7
  6
CONTINUOUS
 10
12.5066843484
 20
279.8828137423
  0
VERTEX
  8
0
 62
7
  6
CONTINUOUS
 10
9.2477198552
 20
279.9176805786
  0
VERTEX
  8
0
 62
7
  6
CONTINUOUS
 10
6.5695588059
 20
280.0496728449
  0
VERTEX
  8
0
 62
7
  6
CONTINUOUS
 10
4.4705440021
 20
280.2152290625
  0
VERTEX
  8
0
 62
7
  6
CONTINUOUS
 10
2.9538646781
 20
280.3507877524
  0
VERTEX
  8
0
 62
7
  6
CONTINUOUS
 10
2.029681713
 20
280.4775360743
  0
SEQEND
  0
LINE
  8
0
 62
7
  6
CONTINUOUS
 10
225.3687033858
 20
284.7021719809
 11
222.0323569732
 21
284.6672949262
  0
POLYLINE
  8
0
 62
7
  6
CONTINUOUS
 66
1
 70
0
  0
VERTEX
  8
0
 62
7
  6
CONTINUOUS
 10
231.3414168957
 20
284.7312214059
  0
VERTEX
  8
0
 62
7
  6
CONTINUOUS
 10
259.560617016
 20
285.0199434295
  0
VERTEX
  8
0
 62
7
  6
CONTINUOUS
 10
289.1943233482
 20
285.3591896502
  0
VERTEX
  8
0
 62
7
  6
CONTINUOUS
 10
320.5779497284
 20
285.5118378392
  0
VERTEX
  8
0
 62
7
  6
CONTINUOUS
 10
353.5992836742
 20
285.5897024895
  0
SEQEND
  0
POLYLINE
  8
0
 62
7
  6
CONTINUOUS
 66
1
 70
0
  0
VERTEX
  8
0
 62
7
  6
CONTINUOUS
 10
111.0961375445
 20
278.2566538912
  0
VERTEX
  8
0
 62
7
  6
CONTINUOUS
 10
104.9739011413
 20
278.1950500022
  0
VERTEX
  8
0
 62
7
  6
CONTINUOUS
 10
99.1301275384
 20
278.205259491
  0
VERTEX
  8
0
 62
7
  6
CONTINUOUS
 10
93.5555388514
 20
278.3480441134
  0
VERTEX
  8
0
 62
7
  6
CONTINUOUS
 10
88.2503546678
 20
278.5848382751
  0
VERTEX
  8
0
 62
7
  6
CONTINUOUS
 10
83.2198353975
 20
278.8601349969
  0
VERTEX
  8
0
 62
7
  6
CONTINUOUS
 10
78.4842719706
 20
279.196356579
  0
SEQEND
  0
LINE
  8
0
 62
7
  6
CONTINUOUS
 10
354.5946354411
 20
285.3987785193
 11
353.7174141073
 21
285.3903462038
  0
LINE
  8
0
 62
7
  6
CONTINUOUS
 10
353.5992808852
 20
285.5900562452
 11
354.5948944206
 21
285.5996302091
  0
LINE
  8
0
 62
7
  6
CONTINUOUS
 10
100.0070129326
 20
282.1818488256
 11
94.2158591028
 21
282.1265973882
  0
POLYLINE
  8
0
 62
7
  6
CONTINUOUS
 66
1
 70
0
  0
VERTEX
  8
0
 62
7
  6
CONTINUOUS
 10
234.9629144465
 20
284.7443800672
  0
VERTEX
  8
0
 62
7
  6
CONTINUOUS
 10
262.1295619509
 20
284.986605235
  0
VERTEX
  8
0
 62
7
  6
CONTINUOUS
 10
291.7998355101
 20
285.3014742565
  0
VERTEX
  8
0
 62
7
  6
CONTINUOUS
 10
322.3294748914
 20
285.3933681794
  0
VERTEX
  8
0
 62
7
  6
CONTINUOUS
 10
353.7171258355
 20
285.3911847083
  0
SEQEND
  0
LINE
  8
0
 62
7
  6
CONTINUOUS
 10
222.4043110919
 20
284.6652754592
 11
234.9629144465
 21
284.7443800672
  0
LINE
  8
0
 62
7
  6
CONTINUOUS
 10
220.0640809352
 20
284.6530523814
 11
231.3414168957
 21
284.7312214059
  0
LINE
  8
0
 62
7
  6
CONTINUOUS
 10
198.5959889112
 20
284.5405946764
 11
197.9978784371
 21
284.5372605946
  0
POLYLINE
  8
0
 62
7
  6
CONTINUOUS
 66
1
 70
0
  0
VERTEX
  8
0
 62
7
  6
CONTINUOUS
 10
216.7613564372
 20
284.640558951
  0
VERTEX
  8
0
 62
7
  6
CONTINUOUS
 10
198.9129897892
 20
284.544112633
  0
VERTEX
  8
0
 62
7
  6
CONTINUOUS
 10
181.4247251215
 20
284.3500344474
  0
VERTEX
  8
0
 62
7
  6
CONTINUOUS
 10
164.2921286095
 20
284.0052126909
  0
VERTEX
  8
0
 62
7
  6
CONTINUOUS
 10
147.5144653331
 20
283.5219558012
  0
SEQEND
  0
LINE
  8
0
 62
7
  6
CONTINUOUS
 10
220.1322378406
 20
284.6533953349
 11
222.4043110919
 21
284.6652754592
  0
POLYLINE
  8
0
 62
7
  6
CONTINUOUS
 66
1
 70
0
  0
VERTEX
  8
0
 62
7
  6
CONTINUOUS
 10
230.5804405963
 20
281.7065518739
  0
VERTEX
  8
0
 62
7
  6
CONTINUOUS
 10
212.0401840164
 20
281.6196252796
  0
VERTEX
  8
0
 62
7
  6
CONTINUOUS
 10
202.1399025728
 20
281.5658748356
  0
VERTEX
  8
0
 62
7
  6
CONTINUOUS
 10
192.0599100012
 20
281.4849398988
  0
VERTEX
  8
0
 62
7
  6
CONTINUOUS
 10
182.0706082268
 20
281.3566728813
  0
VERTEX
  8
0
 62
7
  6
CONTINUOUS
 10
172.0819643967
 20
281.180537363
  0
VERTEX
  8
0
 62
7
  6
CONTINUOUS
 10
162.094173309
 20
280.9424953117
  0
VERTEX
  8
0
 62
7
  6
CONTINUOUS
 10
152.1069539357
 20
280.6629039757
  0
VERTEX
  8
0
 62
7
  6
CONTINUOUS
 10
142.1200631699
 20
280.359400997
  0
VERTEX
  8
0
 62
7
  6
CONTINUOUS
 10
132.133582047
 20
280.0261071616
  0
SEQEND
  0
LINE
  8
0
 62
7
  6
CONTINUOUS
 10
222.4120323828
 20
284.665996964
 11
215.6030820509
 21
284.6353982992
  0
POLYLINE
  8
0
 62
7
  6
CONTINUOUS
 66
1
 70
0
  0
VERTEX
  8
0
 62
7
  6
CONTINUOUS
 10
354.5949166689
 20
282.402662815
  0
VERTEX
  8
0
 62
7
  6
CONTINUOUS
 10
346.0454708226
 20
282.3681495651
  0
VERTEX
  8
0
 62
7
  6
CONTINUOUS
 10
337.4958877656
 20
282.3561863636
  0
VERTEX
  8
0
 62
7
  6
CONTINUOUS
 10
328.9461124205
 20
282.3758508779
  0
VERTEX
  8
0
 62
7
  6
CONTINUOUS
 10
320.3963100198
 20
282.3999101062
  0
VERTEX
  8
0
 62
7
  6
CONTINUOUS
 10
311.8466249091
 20
282.4046857917
  0
VERTEX
  8
0
 62
7
  6
CONTINUOUS
 10
303.297064672
 20
282.3885913668
  0
VERTEX
  8
0
 62
7
  6
CONTINUOUS
 10
294.8377665303
 20
282.3397453284
  0
VERTEX
  8
0
 62
7
  6
CONTINUOUS
 10
286.1984859152
 20
282.2653542253
  0
VERTEX
  8
0
 62
7
  6
CONTINUOUS
 10
277.018969977
 20
282.1627474397
  0
VERTEX
  8
0
 62
7
  6
CONTINUOUS
 10
267.6593807799
 20
282.0496749681
  0
VERTEX
  8
0
 62
7
  6
CONTINUOUS
 10
258.389840255
 20
281.9412237288
  0
VERTEX
  8
0
 62
7
  6
CONTINUOUS
 10
249.1202159525
 20
281.8427123386
  0
VERTEX
  8
0
 62
7
  6
CONTINUOUS
 10
239.8503965089
 20
281.767129854
  0
VERTEX
  8
0
 62
7
  6
CONTINUOUS
 10
230.5804405963
 20
281.7065518739
  0
SEQEND
  0
POLYLINE
  8
0
 62
7
  6
CONTINUOUS
 66
1
 70
0
  0
VERTEX
  8
0
 62
7
  6
CONTINUOUS
 10
265.2960258441
 20
287.1351166072
  0
VERTEX
  8
0
 62
7
  6
CONTINUOUS
 10
264.7633260661
 20
287.1336278816
  0
VERTEX
  8
0
 62
7
  6
CONTINUOUS
 10
263.4488122517
 20
287.0076987041
  0
VERTEX
  8
0
 62
7
  6
CONTINUOUS
 10
262.1692484681
 20
286.7117436344
  0
VERTEX
  8
0
 62
7
  6
CONTINUOUS
 10
260.9405455667
 20
286.2511229772
  0
VERTEX
  8
0
 62
7
  6
CONTINUOUS
 10
259.7817206929
 20
285.6329553037
  0
SEQEND
  0
LINE
  8
0
 62
7
  6
CONTINUOUS
 10
94.3048785412
 20
282.1270619302
 11
88.8007902741
 21
282.1181822007
  0
POLYLINE
  8
0
 62
7
  6
CONTINUOUS
 66
1
 70
0
  0
VERTEX
  8
0
 62
7
  6
CONTINUOUS
 10
27.4870166153
 20
274.6555758383
  0
VERTEX
  8
0
 62
7
  6
CONTINUOUS
 10
25.5614251856
 20
274.6574697125
  0
VERTEX
  8
0
 62
7
  6
CONTINUOUS
 10
23.7797271855
 20
274.6202745
  0
VERTEX
  8
0
 62
7
  6
CONTINUOUS
 10
22.1377197773
 20
274.5436369502
  0
VERTEX
  8
0
 62
7
  6
CONTINUOUS
 10
20.6364369777
 20
274.4226217308
  0
VERTEX
  8
0
 62
7
  6
CONTINUOUS
 10
19.2765068409
 20
274.2520832388
  0
VERTEX
  8
0
 62
7
  6
CONTINUOUS
 10
18.0533760567
 20
274.0314866941
  0
SEQEND
  0
LINE
  8
0
 62
7
  6
CONTINUOUS
 10
88.8792830102
 20
282.1174651794
 11
83.6982370054
 21
282.1482367812
  0
LINE
  8
0
 62
7
  6
CONTINUOUS
 10
17.5858719003
 20
282.8866423337
 11
17.4226167202
 21
282.8876902875
  0
LINE
  8
0
 62
7
  6
CONTINUOUS
 10
17.7168355894
 20
282.8887689125
 11
15.6788819497
 21
282.9113161084
  0
POLYLINE
  8
0
 62
7
  6
CONTINUOUS
 66
1
 70
0
  0
VERTEX
  8
0
 62
7
  6
CONTINUOUS
 10
4.7559929698
 20
283.463842011
  0
VERTEX
  8
0
 62
7
  6
CONTINUOUS
 10
4.5719105052
 20
283.4660317198
  0
VERTEX
  8
0
 62
7
  6
CONTINUOUS
 10
4.3986230176
 20
283.4650082893
  0
VERTEX
  8
0
 62
7
  6
CONTINUOUS
 10
4.2376993648
 20
283.4615881629
  0
VERTEX
  8
0
 62
7
  6
CONTINUOUS
 10
4.0865201299
 20
283.455734581
  0
VERTEX
  8
0
 62
7
  6
CONTINUOUS
 10
3.9424043472
 20
283.4469499649
  0
VERTEX
  8
0
 62
7
  6
CONTINUOUS
 10
3.8068065379
 20
283.435639481
  0
SEQEND
  0
LINE
  8
0
 62
7
  6
CONTINUOUS
 10
83.7418039052
 20
282.1475357843
 11
79.7739140655
 21
282.1957734373
  0
POLYLINE
  8
0
 62
7
  6
CONTINUOUS
 66
1
 70
0
  0
VERTEX
  8
0
 62
7
  6
CONTINUOUS
 10
25.9100198317
 20
278.9471323774
  0
VERTEX
  8
0
 62
7
  6
CONTINUOUS
 10
29.6341813589
 20
278.8970317023
  0
VERTEX
  8
0
 62
7
  6
CONTINUOUS
 10
33.7453994269
 20
278.8245247544
  0
VERTEX
  8
0
 62
7
  6
CONTINUOUS
 10
38.2184611442
 20
278.7156866901
  0
VERTEX
  8
0
 62
7
  6
CONTINUOUS
 10
43.052234265
 20
278.6122920405
  0
VERTEX
  8
0
 62
7
  6
CONTINUOUS
 10
48.2594005608
 20
278.5475289858
  0
VERTEX
  8
0
 62
7
  6
CONTINUOUS
 10
53.7871842366
 20
278.5332317353
  0
VERTEX
  8
0
 62
7
  6
CONTINUOUS
 10
59.5731810824
 20
278.5945763393
  0
VERTEX
  8
0
 62
7
  6
CONTINUOUS
 10
65.6238446875
 20
278.7247254545
  0
VERTEX
  8
0
 62
7
  6
CONTINUOUS
 10
71.9393734514
 20
278.9254280885
  0
VERTEX
  8
0
 62
7
  6
CONTINUOUS
 10
78.4873059671
 20
279.1961012387
  0
SEQEND
  0
POLYLINE
  8
0
 62
7
  6
CONTINUOUS
 66
1
 70
0
  0
VERTEX
  8
0
 62
7
  6
CONTINUOUS
 10
17.4226167202
 20
282.8876902875
  0
VERTEX
  8
0
 62
7
  6
CONTINUOUS
 10
16.4198040512
 20
282.9029208838
  0
VERTEX
  8
0
 62
7
  6
CONTINUOUS
 10
15.531572086
 20
282.9251634326
  0
SEQEND
  0
POLYLINE
  8
0
 62
7
  6
CONTINUOUS
 66
1
 70
0
  0
VERTEX
  8
0
 62
7
  6
CONTINUOUS
 10
12.1275361619
 20
282.9168018491
  0
VERTEX
  8
0
 62
7
  6
CONTINUOUS
 10
15.396231287
 20
282.8613746437
  0
VERTEX
  8
0
 62
7
  6
CONTINUOUS
 10
16.1032151773
 20
282.8639700379
  0
SEQEND
  0
POLYLINE
  8
0
 62
7
  6
CONTINUOUS
 66
1
 70
0
  0
VERTEX
  8
0
 62
7
  6
CONTINUOUS
 10
79.7738635257
 20
282.1957741833
  0
VERTEX
  8
0
 62
7
  6
CONTINUOUS
 10
73.337346015
 20
282.3167747162
  0
VERTEX
  8
0
 62
7
  6
CONTINUOUS
 10
66.345211718
 20
282.4952466969
  0
VERTEX
  8
0
 62
7
  6
CONTINUOUS
 10
53.2366782012
 20
282.8784932707
  0
SEQEND
  0
POLYLINE
  8
0
 62
7
  6
CONTINUOUS
 66
1
 70
0
  0
VERTEX
  8
0
 62
7
  6
CONTINUOUS
 10
78.4873059671
 20
279.1961012387
  0
VERTEX
  8
0
 62
7
  6
CONTINUOUS
 10
71.150775314
 20
279.3467083034
  0
VERTEX
  8
0
 62
7
  6
CONTINUOUS
 10
64.1075809562
 20
279.5115396406
  0
VERTEX
  8
0
 62
7
  6
CONTINUOUS
 10
57.3893608933
 20
279.7016616208
  0
VERTEX
  8
0
 62
7
  6
CONTINUOUS
 10
51.039347787
 20
279.8838751326
  0
VERTEX
  8
0
 62
7
  6
CONTINUOUS
 10
45.1082669478
 20
280.0295827855
  0
VERTEX
  8
0
 62
7
  6
CONTINUOUS
 10
39.5826816772
 20
280.1360457871
  0
VERTEX
  8
0
 62
7
  6
CONTINUOUS
 10
34.4511305354
 20
280.1879276497
  0
VERTEX
  8
0
 62
7
  6
CONTINUOUS
 10
29.7873883419
 20
280.1944240695
  0
VERTEX
  8
0
 62
7
  6
CONTINUOUS
 10
25.6446018251
 20
280.1525928938
  0
VERTEX
  8
0
 62
7
  6
CONTINUOUS
 10
22.0150189294
 20
280.0835111821
  0
VERTEX
  8
0
 62
7
  6
CONTINUOUS
 10
18.905426097
 20
280.0097873191
  0
VERTEX
  8
0
 62
7
  6
CONTINUOUS
 10
16.3393197865
 20
279.9238851765
  0
SEQEND
  0
POLYLINE
  8
0
 62
7
  6
CONTINUOUS
 66
1
 70
0
  0
VERTEX
  8
0
 62
7
  6
CONTINUOUS
 10
53.2366782012
 20
282.8784932707
  0
VERTEX
  8
0
 62
7
  6
CONTINUOUS
 10
47.273766221
 20
283.0316054937
  0
VERTEX
  8
0
 62
7
  6
CONTINUOUS
 10
41.7268033893
 20
283.1383338261
  0
VERTEX
  8
0
 62
7
  6
CONTINUOUS
 10
36.6145070299
 20
283.1919887479
  0
VERTEX
  8
0
 62
7
  6
CONTINUOUS
 10
31.9743318233
 20
283.1927153978
  0
VERTEX
  8
0
 62
7
  6
CONTINUOUS
 10
27.8625335547
 20
283.1482584202
  0
VERTEX
  8
0
 62
7
  6
CONTINUOUS
 10
24.3005678712
 20
283.0732365501
  0
VERTEX
  8
0
 62
7
  6
CONTINUOUS
 10
21.3061873739
 20
282.9886418021
  0
VERTEX
  8
0
 62
7
  6
CONTINUOUS
 10
19.1327858449
 20
282.9226360931
  0
SEQEND
  0
POLYLINE
  8
0
 62
7
  6
CONTINUOUS
 66
1
 70
0
  0
VERTEX
  8
0
 62
7
  6
CONTINUOUS
 10
132.133582047
 20
280.0261071616
  0
VERTEX
  8
0
 62
7
  6
CONTINUOUS
 10
143.7685414214
 20
279.7080178276
  0
VERTEX
  8
0
 62
7
  6
CONTINUOUS
 10
155.4040086531
 20
279.5827410306
  0
VERTEX
  8
0
 62
7
  6
CONTINUOUS
 10
166.8510963069
 20
279.6956784911
  0
VERTEX
  8
0
 62
7
  6
CONTINUOUS
 10
178.6764666881
 20
279.9106250474
  0
VERTEX
  8
0
 62
7
  6
CONTINUOUS
 10
191.6358671824
 20
280.122459657
  0
VERTEX
  8
0
 62
7
  6
CONTINUOUS
 10
204.9731551133
 20
280.2833316823
  0
VERTEX
  8
0
 62
7
  6
CONTINUOUS
 10
217.9318342083
 20
280.2919255829
  0
VERTEX
  8
0
 62
7
  6
CONTINUOUS
 10
231.2687126414
 20
280.2035150246
  0
VERTEX
  8
0
 62
7
  6
CONTINUOUS
 10
245.7407567509
 20
280.016569989
  0
VERTEX
  8
0
 62
7
  6
CONTINUOUS
 10
260.5909957712
 20
279.800185989
  0
VERTEX
  8
0
 62
7
  6
CONTINUOUS
 10
275.0625713757
 20
279.612479805
  0
VERTEX
  8
0
 62
7
  6
CONTINUOUS
 10
289.9121125855
 20
279.4848576175
  0
VERTEX
  8
0
 62
7
  6
CONTINUOUS
 10
305.8966366159
 20
279.4387559817
  0
VERTEX
  8
0
 62
7
  6
CONTINUOUS
 10
322.2581205583
 20
279.5622005539
  0
VERTEX
  8
0
 62
7
  6
CONTINUOUS
 10
338.4276700964
 20
279.9622589057
  0
VERTEX
  8
0
 62
7
  6
CONTINUOUS
 10
354.5949166689
 20
280.6032418467
  0
SEQEND
  0
LINE
  8
0
 62
7
  6
CONTINUOUS
 10
15.531572086
 20
282.9251634326
 11
14.7376469904
 21
282.9530470282
  0
POLYLINE
  8
0
 62
7
  6
CONTINUOUS
 66
1
 70
0
  0
VERTEX
  8
0
 62
7
  6
CONTINUOUS
 10
15.6788819497
 20
282.9113161084
  0
VERTEX
  8
0
 62
7
  6
CONTINUOUS
 10
13.0942817965
 20
283.0042606932
  0
VERTEX
  8
0
 62
7
  6
CONTINUOUS
 10
10.8931011905
 20
283.1456028561
  0
VERTEX
  8
0
 62
7
  6
CONTINUOUS
 10
9.1345174856
 20
283.3062785083
  0
VERTEX
  8
0
 62
7
  6
CONTINUOUS
 10
7.8971697467
 20
283.4831019198
  0
VERTEX
  8
0
 62
7
  6
CONTINUOUS
 10
7.1548453292
 20
283.6770948247
  0
SEQEND
  0
POLYLINE
  8
0
 62
7
  6
CONTINUOUS
 66
1
 70
0
  0
VERTEX
  8
0
 62
7
  6
CONTINUOUS
 10
126.746797416
 20
276.1564269114
  0
VERTEX
  8
0
 62
7
  6
CONTINUOUS
 10
124.2084162601
 20
276.2689167036
  0
VERTEX
  8
0
 62
7
  6
CONTINUOUS
 10
121.6563144953
 20
276.3433614192
  0
VERTEX
  8
0
 62
7
  6
CONTINUOUS
 10
119.0905870069
 20
276.3799482319
  0
VERTEX
  8
0
 62
7
  6
CONTINUOUS
 10
116.5113345197
 20
276.3808669521
  0
VERTEX
  8
0
 62
7
  6
CONTINUOUS
 10
113.9186588459
 20
276.3483152615
  0
VERTEX
  8
0
 62
7
  6
CONTINUOUS
 10
111.3126627259
 20
276.282536704
  0
SEQEND
  0
LINE
  8
0
 62
7
  6
CONTINUOUS
 10
14.7376469904
 20
282.9530470282
 11
14.0325310323
 21
282.9850761328
  0
LINE
  8
0
 62
7
  6
CONTINUOUS
 10
14.0325310323
 20
282.9850761328
 11
13.4032780085
 21
283.0203964066
  0
POLYLINE
  8
0
 62
7
  6
CONTINUOUS
 66
1
 70
0
  0
VERTEX
  8
0
 62
7
  6
CONTINUOUS
 10
18.0533760567
 20
274.0314866941
  0
VERTEX
  8
0
 62
7
  6
CONTINUOUS
 10
16.1821849673
 20
273.6854218581
  0
VERTEX
  8
0
 62
7
  6
CONTINUOUS
 10
14.4472164268
 20
273.4476659946
  0
VERTEX
  8
0
 62
7
  6
CONTINUOUS
 10
12.8496490348
 20
273.318236298
  0
VERTEX
  8
0
 62
7
  6
CONTINUOUS
 10
11.3392388232
 20
273.2728883911
  0
VERTEX
  8
0
 62
7
  6
CONTINUOUS
 10
9.8652821321
 20
273.3028149592
  0
VERTEX
  8
0
 62
7
  6
CONTINUOUS
 10
8.5074740171
 20
273.4016758064
  0
VERTEX
  8
0
 62
7
  6
CONTINUOUS
 10
7.3221264089
 20
273.5523516403
  0
VERTEX
  8
0
 62
7
  6
CONTINUOUS
 10
6.2623039919
 20
273.7439899582
  0
VERTEX
  8
0
 62
7
  6
CONTINUOUS
 10
5.301074277
 20
273.9782445044
  0
VERTEX
  8
0
 62
7
  6
CONTINUOUS
 10
4.4971386798
 20
274.2327966691
  0
VERTEX
  8
0
 62
7
  6
CONTINUOUS
 10
3.8854861777
 20
274.4723067607
  0
VERTEX
  8
0
 62
7
  6
CONTINUOUS
 10
3.4408582462
 20
274.7015127839
  0
SEQEND
  0
LINE
  8
0
 62
7
  6
CONTINUOUS
 10
5.5158828777
 20
283.6042832752
 11
3.8068046681
 21
283.4356388659
  0
LINE
  8
0
 62
7
  6
CONTINUOUS
 10
6.9944171547
 20
283.7465103975
 11
5.5158828777
 21
283.6042832752
  0
LINE
  8
0
 62
7
  6
CONTINUOUS
 10
7.1475070865
 20
283.6801465892
 11
4.7591936572
 21
283.4636714743
  0
POLYLINE
  8
0
 62
7
  6
CONTINUOUS
 66
1
 70
0
  0
VERTEX
  8
0
 62
7
  6
CONTINUOUS
 10
7.1486925903
 20
283.6796765356
  0
VERTEX
  8
0
 62
7
  6
CONTINUOUS
 10
8.2531600833
 20
283.7163424724
  0
VERTEX
  8
0
 62
7
  6
CONTINUOUS
 10
9.3523464472
 20
283.6312341166
  0
VERTEX
  8
0
 62
7
  6
CONTINUOUS
 10
10.4308486516
 20
283.4267511833
  0
VERTEX
  8
0
 62
7
  6
CONTINUOUS
 10
11.0787611569
 20
283.2282207835
  0
SEQEND
  0
POLYLINE
  8
0
 62
7
  6
CONTINUOUS
 66
1
 70
0
  0
VERTEX
  8
0
 62
7
  6
CONTINUOUS
 10
7.1550316674
 20
283.6771432938
  0
VERTEX
  8
0
 62
7
  6
CONTINUOUS
 10
8.2589531717
 20
283.713502247
  0
VERTEX
  8
0
 62
7
  6
CONTINUOUS
 10
9.3575709701
 20
283.6282100273
  0
VERTEX
  8
0
 62
7
  6
CONTINUOUS
 10
10.4355053841
 20
283.4236656013
  0
VERTEX
  8
0
 62
7
  6
CONTINUOUS
 10
11.0693348332
 20
283.2293832785
  0
SEQEND
  0
LINE
  8
0
 62
7
  6
CONTINUOUS
 10
265.4470188738
 20
287.123789803
 11
265.2957097689
 21
287.1274896977
  0
LINE
  8
0
 62
7
  6
CONTINUOUS
 10
300.6520400239
 20
285.8974087259
 11
300.3472665761
 21
285.9047993936
  0
POLYLINE
  8
0
 62
7
  6
CONTINUOUS
 66
1
 70
0
  0
VERTEX
  8
0
 62
7
  6
CONTINUOUS
 10
300.5987988486
 20
285.8988873737
  0
VERTEX
  8
0
 62
7
  6
CONTINUOUS
 10
298.4220098149
 20
285.9673706726
  0
VERTEX
  8
0
 62
7
  6
CONTINUOUS
 10
296.3739642614
 20
286.0400486923
  0
VERTEX
  8
0
 62
7
  6
CONTINUOUS
 10
294.4738345533
 20
286.1157950944
  0
VERTEX
  8
0
 62
7
  6
CONTINUOUS
 10
292.7698375774
 20
286.1920252298
  0
VERTEX
  8
0
 62
7
  6
CONTINUOUS
 10
291.2599187421
 20
286.2679372305
  0
VERTEX
  8
0
 62
7
  6
CONTINUOUS
 10
289.9584147348
 20
286.3416431304
  0
SEQEND
  0
POLYLINE
  8
0
 62
7
  6
CONTINUOUS
 66
1
 70
0
  0
VERTEX
  8
0
 62
7
  6
CONTINUOUS
 10
300.3472665761
 20
285.9047993936
  0
VERTEX
  8
0
 62
7
  6
CONTINUOUS
 10
298.0406482634
 20
285.9777091656
  0
VERTEX
  8
0
 62
7
  6
CONTINUOUS
 10
295.8777951989
 20
286.0553064373
  0
VERTEX
  8
0
 62
7
  6
CONTINUOUS
 10
293.8904572797
 20
286.1360228142
  0
VERTEX
  8
0
 62
7
  6
CONTINUOUS
 10
292.1004460321
 20
286.2181567198
  0
VERTEX
  8
0
 62
7
  6
CONTINUOUS
 10
290.5442055179
 20
286.2992130119
  0
SEQEND
  0
LINE
  8
0
 62
7
  6
CONTINUOUS
 10
289.2095495759
 20
286.3861343317
 11
289.3198377324
 21
286.3816238013
  0
LINE
  8
0
 62
7
  6
CONTINUOUS
 10
290.5442055179
 20
286.2992130119
 11
289.2096007485
 21
286.3786476977
  0
LINE
  8
0
 62
7
  6
CONTINUOUS
 10
289.3198377324
 20
286.3816238013
 11
289.9584147348
 21
286.3416431304
  0
LINE
  8
0
 62
7
  6
CONTINUOUS
 10
289.2095087273
 20
286.3874903104
 11
287.6408560581
 21
286.4980903853
  0
LINE
  8
0
 62
7
  6
CONTINUOUS
 10
287.6408560581
 20
286.4980903853
 11
286.7382806574
 21
286.5639247
  0
POLYLINE
  8
0
 62
7
  6
CONTINUOUS
 66
1
 70
0
  0
VERTEX
  8
0
 62
7
  6
CONTINUOUS
 10
16.3393197865
 20
278.2107306161
  0
VERTEX
  8
0
 62
7
  6
CONTINUOUS
 10
17.5708058852
 20
278.4447208366
  0
VERTEX
  8
0
 62
7
  6
CONTINUOUS
 10
18.9479031523
 20
278.6319263285
  0
VERTEX
  8
0
 62
7
  6
CONTINUOUS
 10
20.4684768357
 20
278.770633685
  0
VERTEX
  8
0
 62
7
  6
CONTINUOUS
 10
22.1345124367
 20
278.8659831261
  0
VERTEX
  8
0
 62
7
  6
CONTINUOUS
 10
23.9489156401
 20
278.9231148716
  0
VERTEX
  8
0
 62
7
  6
CONTINUOUS
 10
25.9100209116
 20
278.9403155148
  0
SEQEND
  0
LINE
  8
0
 62
7
  6
CONTINUOUS
 10
265.2957097672
 20
287.1274896978
 11
265.4442954944
 21
287.0201639598
  0
LINE
  8
0
 62
7
  6
CONTINUOUS
 10
265.4461221159
 20
287.0165502457
 11
265.4423690579
 21
287.0195472831
  0
POLYLINE
  8
0
 62
7
  6
CONTINUOUS
 66
1
 70
0
  0
VERTEX
  8
0
 62
7
  6
CONTINUOUS
 10
265.4457543553
 20
287.0171438929
  0
VERTEX
  8
0
 62
7
  6
CONTINUOUS
 10
265.5855027275
 20
286.8282169341
  0
VERTEX
  8
0
 62
7
  6
CONTINUOUS
 10
265.5631350317
 20
286.6173206233
  0
VERTEX
  8
0
 62
7
  6
CONTINUOUS
 10
265.3730046858
 20
286.3929295784
  0
VERTEX
  8
0
 62
7
  6
CONTINUOUS
 10
265.0316747368
 20
286.1697380996
  0
VERTEX
  8
0
 62
7
  6
CONTINUOUS
 10
264.5609189598
 20
285.9630136413
  0
VERTEX
  8
0
 62
7
  6
CONTINUOUS
 10
263.939565434
 20
285.7681311557
  0
VERTEX
  8
0
 62
7
  6
CONTINUOUS
 10
263.1474970692
 20
285.5762064931
  0
VERTEX
  8
0
 62
7
  6
CONTINUOUS
 10
262.2035339634
 20
285.392829719
  0
VERTEX
  8
0
 62
7
  6
CONTINUOUS
 10
261.7151471414
 20
285.3151755668
  0
SEQEND
  0
POLYLINE
  8
0
 62
7
  6
CONTINUOUS
 66
1
 70
0
  0
VERTEX
  8
0
 62
7
  6
CONTINUOUS
 10
343.8674740553
 20
276.3156166522
  0
VERTEX
  8
0
 62
7
  6
CONTINUOUS
 10
344.8225764837
 20
262.7205231658
  0
VERTEX
  8
0
 62
7
  6
CONTINUOUS
 10
345.702635493
 20
249.7370861953
  0
VERTEX
  8
0
 62
7
  6
CONTINUOUS
 10
346.4961904286
 20
237.429261289
  0
VERTEX
  8
0
 62
7
  6
CONTINUOUS
 10
347.215651131
 20
225.4482481536
  0
VERTEX
  8
0
 62
7
  6
CONTINUOUS
 10
347.8735356174
 20
213.4860246332
  0
VERTEX
  8
0
 62
7
  6
CONTINUOUS
 10
348.4686856335
 20
201.5601149978
  0
VERTEX
  8
0
 62
7
  6
CONTINUOUS
 10
349.0021814254
 20
189.6987912968
  0
VERTEX
  8
0
 62
7
  6
CONTINUOUS
 10
349.4932251524
 20
177.6574960252
  0
VERTEX
  8
0
 62
7
  6
CONTINUOUS
 10
349.9566123532
 20
165.2575915683
  0
VERTEX
  8
0
 62
7
  6
CONTINUOUS
 10
350.4050850677
 20
152.3184615704
  0
VERTEX
  8
0
 62
7
  6
CONTINUOUS
 10
350.853119271
 20
138.5955416229
  0
VERTEX
  8
0
 62
7
  6
CONTINUOUS
 10
351.3073040996
 20
124.0805754117
  0
VERTEX
  8
0
 62
7
  6
CONTINUOUS
 10
351.7734995352
 20
108.630399453
  0
VERTEX
  8
0
 62
7
  6
CONTINUOUS
 10
352.2500215898
 20
92.2741374853
  0
VERTEX
  8
0
 62
7
  6
CONTINUOUS
 10
352.7372486531
 20
74.965072122
  0
VERTEX
  8
0
 62
7
  6
CONTINUOUS
 10
353.2326706175
 20
56.7719100434
  0
VERTEX
  8
0
 62
7
  6
CONTINUOUS
 10
353.7381307977
 20
37.7868276662
  0
VERTEX
  8
0
 62
7
  6
CONTINUOUS
 10
354.2596753077
 20
18.0278298715
  0
SEQEND
  0
LINE
  8
0
 62
7
  6
CONTINUOUS
 10
354.5949166689
 20
18.0278740497
 11
354.5949166689
 21
286.7022649423
  0
POLYLINE
  8
0
 62
7
  6
CONTINUOUS
 66
1
 70
0
  0
VERTEX
  8
0
 62
7
  6
CONTINUOUS
 10
353.5992843816
 20
285.5897024968
  0
VERTEX
  8
0
 62
7
  6
CONTINUOUS
 10
352.8157497547
 20
286.5279690518
  0
VERTEX
  8
0
 62
7
  6
CONTINUOUS
 10
352.3621553355
 20
286.6816714961
  0
SEQEND
  0
LINE
  8
0
 62
7
  6
CONTINUOUS
 10
353.7174141073
 20
285.3903462038
 11
353.5992808852
 21
285.5900562452
  0
ARC
  8
0
 62
7
  6
CONTINUOUS
 10
123.0214980096
 20
-5534.3455539523
 40
5823.2113433462
 50
88.3889443522
 51
88.5985061204
  0
ARC
  8
0
 62
7
  6
CONTINUOUS
 10
123.0214980096
 20
-5534.3455539523
 40
5823.1049825299
 50
88.3645899026
 51
88.5984909741
  0
ENDSEC
  0
EOF
